  0
SECTION
  2
HEADER
  9
$ACADVER
  1
AC1015
  9
$ACADMAINTVER
 70
     6
  9
$DWGCODEPAGE
  3
ANSI_1252
  9
$INSBASE
 10
0.0
 20
0.0
 30
0.0
  9
$EXTMIN
 10
65.09451754947531
 20
10.95368996321526
 30
0.0
  9
$EXTMAX
 10
995.097235865726
 20
390.723052278702
 30
0.0
  9
$LIMMIN
 10
0.0
 20
0.0
  9
$LIMMAX
 10
0.0
 20
0.0
  9
$ORTHOMODE
 70
     0
  9
$REGENMODE
 70
     1
  9
$FILLMODE
 70
     1
  9
$QTEXTMODE
 70
     0
  9
$MIRRTEXT
 70
     1
  9
$LTSCALE
 40
1.0
  9
$ATTMODE
 70
     1
  9
$TEXTSIZE
 40
3.0
  9
$TRACEWID
 40
0.05
  9
$TEXTSTYLE
  7
STYLE1
  9
$CLAYER
  8
SCHLÜTER-BEKOTEC-EN
  9
$CELTYPE
  6
CONTINUOUS
  9
$CECOLOR
 62
     7
  9
$CELTSCALE
 40
1.0
  9
$DISPSILH
 70
     0
  9
$DIMSCALE
 40
0.0
  9
$DIMASZ
 40
0.5
  9
$DIMEXO
 40
0.8
  9
$DIMDLI
 40
0.5
  9
$DIMRND
 40
0.0
  9
$DIMDLE
 40
0.0
  9
$DIMEXE
 40
0.1
  9
$DIMTP
 40
0.0
  9
$DIMTM
 40
0.0
  9
$DIMTXT
 40
0.5
  9
$DIMCEN
 40
0.05
  9
$DIMTSZ
 40
0.0
  9
$DIMTOL
 70
     0
  9
$DIMLIM
 70
     0
  9
$DIMTIH
 70
     0
  9
$DIMTOH
 70
     0
  9
$DIMSE1
 70
     0
  9
$DIMSE2
 70
     0
  9
$DIMTAD
 70
     0
  9
$DIMZIN
 70
     8
  9
$DIMBLK
  1

  9
$DIMASO
 70
     1
  9
$DIMSHO
 70
     1
  9
$DIMPOST
  1

  9
$DIMAPOST
  1

  9
$DIMALT
 70
     0
  9
$DIMALTD
 70
     2
  9
$DIMALTF
 40
25.4
  9
$DIMLFAC
 40
1.0
  9
$DIMTOFL
 70
     0
  9
$DIMTVP
 40
0.0
  9
$DIMTIX
 70
     0
  9
$DIMSOXD
 70
     0
  9
$DIMSAH
 70
     0
  9
$DIMBLK1
  1

  9
$DIMBLK2
  1

  9
$DIMSTYLE
  2
STANDARD
  9
$DIMCLRD
 70
     0
  9
$DIMCLRE
 70
     0
  9
$DIMCLRT
 70
     7
  9
$DIMTFAC
 40
1.0
  9
$DIMGAP
 40
0.3
  9
$DIMJUST
 70
     0
  9
$DIMSD1
 70
     0
  9
$DIMSD2
 70
     0
  9
$DIMTOLJ
 70
     1
  9
$DIMTZIN
 70
     0
  9
$DIMALTZ
 70
     0
  9
$DIMALTTZ
 70
     0
  9
$DIMUPT
 70
     0
  9
$DIMDEC
 70
     1
  9
$DIMTDEC
 70
     4
  9
$DIMALTU
 70
     2
  9
$DIMALTTD
 70
     2
  9
$DIMTXSTY
  7
STANDARD
  9
$DIMAUNIT
 70
     0
  9
$DIMADEC
 70
     0
  9
$DIMALTRND
 40
0.0
  9
$DIMAZIN
 70
     0
  9
$DIMDSEP
 70
    46
  9
$DIMATFIT
 70
     3
  9
$DIMFRAC
 70
     0
  9
$DIMLDRBLK
  1

  9
$DIMLUNIT
 70
     2
  9
$DIMLWD
 70
    -2
  9
$DIMLWE
 70
    -2
  9
$DIMTMOVE
 70
     0
  9
$LUNITS
 70
     2
  9
$LUPREC
 70
     4
  9
$SKETCHINC
 40
0.1
  9
$FILLETRAD
 40
0.0
  9
$AUNITS
 70
     0
  9
$AUPREC
 70
     0
  9
$MENU
  1
acad
  9
$ELEVATION
 40
0.0
  9
$PELEVATION
 40
0.0
  9
$THICKNESS
 40
0.0
  9
$LIMCHECK
 70
     0
  9
$CHAMFERA
 40
0.0
  9
$CHAMFERB
 40
0.0
  9
$CHAMFERC
 40
0.0
  9
$CHAMFERD
 40
0.0
  9
$SKPOLY
 70
     0
  9
$TDCREATE
 40
2452243.148178588
  9
$TDUCREATE
 40
2452243.106511921
  9
$TDUPDATE
 40
2460341.44519015
  9
$TDUUPDATE
 40
2460341.403523484
  9
$TDINDWG
 40
0.1006599653
  9
$TDUSRTIMER
 40
0.1006599653
  9
$USRTIMER
 70
     1
  9
$ANGBASE
 50
0.0
  9
$ANGDIR
 70
     0
  9
$PDMODE
 70
     2
  9
$PDSIZE
 40
0.0
  9
$PLINEWID
 40
0.0
  9
$SPLFRAME
 70
     0
  9
$SPLINETYPE
 70
     6
  9
$SPLINESEGS
 70
     8
  9
$HANDSEED
  5
1A1A
  9
$SURFTAB1
 70
     6
  9
$SURFTAB2
 70
     6
  9
$SURFTYPE
 70
     6
  9
$SURFU
 70
     6
  9
$SURFV
 70
     6
  9
$UCSBASE
  2

  9
$UCSNAME
  2

  9
$UCSORG
 10
0.0
 20
0.0
 30
0.0
  9
$UCSXDIR
 10
1.0
 20
0.0
 30
0.0
  9
$UCSYDIR
 10
0.0
 20
1.0
 30
0.0
  9
$UCSORTHOREF
  2

  9
$UCSORTHOVIEW
 70
     0
  9
$UCSORGTOP
 10
0.0
 20
0.0
 30
0.0
  9
$UCSORGBOTTOM
 10
0.0
 20
0.0
 30
0.0
  9
$UCSORGLEFT
 10
0.0
 20
0.0
 30
0.0
  9
$UCSORGRIGHT
 10
0.0
 20
0.0
 30
0.0
  9
$UCSORGFRONT
 10
0.0
 20
0.0
 30
0.0
  9
$UCSORGBACK
 10
0.0
 20
0.0
 30
0.0
  9
$PUCSBASE
  2

  9
$PUCSNAME
  2

  9
$PUCSORG
 10
0.0
 20
0.0
 30
0.0
  9
$PUCSXDIR
 10
1.0
 20
0.0
 30
0.0
  9
$PUCSYDIR
 10
0.0
 20
1.0
 30
0.0
  9
$PUCSORTHOREF
  2

  9
$PUCSORTHOVIEW
 70
     0
  9
$PUCSORGTOP
 10
0.0
 20
0.0
 30
0.0
  9
$PUCSORGBOTTOM
 10
0.0
 20
0.0
 30
0.0
  9
$PUCSORGLEFT
 10
0.0
 20
0.0
 30
0.0
  9
$PUCSORGRIGHT
 10
0.0
 20
0.0
 30
0.0
  9
$PUCSORGFRONT
 10
0.0
 20
0.0
 30
0.0
  9
$PUCSORGBACK
 10
0.0
 20
0.0
 30
0.0
  9
$USERI1
 70
     0
  9
$USERI2
 70
     0
  9
$USERI3
 70
     0
  9
$USERI4
 70
     0
  9
$USERI5
 70
     0
  9
$USERR1
 40
0.0
  9
$USERR2
 40
0.0
  9
$USERR3
 40
0.0
  9
$USERR4
 40
0.0
  9
$USERR5
 40
0.0
  9
$WORLDVIEW
 70
     1
  9
$SHADEDGE
 70
     3
  9
$SHADEDIF
 70
    70
  9
$TILEMODE
 70
     1
  9
$MAXACTVP
 70
    16
  9
$PINSBASE
 10
0.0
 20
0.0
 30
0.0
  9
$PLIMCHECK
 70
     0
  9
$PEXTMIN
 10
1.000000000000000E+20
 20
1.000000000000000E+20
 30
1.000000000000000E+20
  9
$PEXTMAX
 10
-1.000000000000000E+20
 20
-1.000000000000000E+20
 30
-1.000000000000000E+20
  9
$PLIMMIN
 10
0.0
 20
0.0
  9
$PLIMMAX
 10
12.0
 20
9.0
  9
$UNITMODE
 70
     0
  9
$VISRETAIN
 70
     0
  9
$PLINEGEN
 70
     1
  9
$PSLTSCALE
 70
     0
  9
$TREEDEPTH
 70
  3020
  9
$CMLSTYLE
  2
STANDARD
  9
$CMLJUST
 70
     0
  9
$CMLSCALE
 40
1.0
  9
$PROXYGRAPHICS
 70
     0
  9
$MEASUREMENT
 70
     0
  9
$CELWEIGHT
370
    -1
  9
$ENDCAPS
280
     0
  9
$JOINSTYLE
280
     0
  9
$LWDISPLAY
290
     0
  9
$INSUNITS
 70
     0
  9
$HYPERLINKBASE
  1

  9
$STYLESHEET
  1

  9
$XEDIT
290
     1
  9
$CEPSNTYPE
380
     0
  9
$PSTYLEMODE
290
     1
  9
$FINGERPRINTGUID
  2
{76D07F83-41AE-47ED-9655-E91C682E8356}
  9
$VERSIONGUID
  2
{122D4290-D710-4E59-9E80-29B2B958B021}
  9
$EXTNAMES
290
     1
  9
$PSVPSCALE
 40
0.0
  9
$OLESTARTUP
290
     0
  0
ENDSEC
  0
SECTION
  2
CLASSES
  0
CLASS
  1
LWPOLYLINE
  2
AcDbPolyline
  3
ObjectDBX Classes
 90
        0
280
     0
281
     1
  0
CLASS
  1
IMAGE
  2
AcDbRasterImage
  3
ISM
 90
      127
280
     0
281
     1
  0
CLASS
  1
OLE2FRAME
  2
AcDbOle2Frame
  3
ObjectDBX Classes
 90
        0
280
     0
281
     1
  0
CLASS
  1
HATCH
  2
AcDbHatch
  3
ObjectDBX Classes
 90
        0
280
     0
281
     1
  0
CLASS
  1
DICTIONARYVAR
  2
AcDbDictionaryVar
  3
ObjectDBX Classes
 90
        0
280
     0
281
     0
  0
CLASS
  1
RASTERVARIABLES
  2
AcDbRasterVariables
  3
ISM
 90
        0
280
     0
281
     0
  0
CLASS
  1
IMAGEDEF
  2
AcDbRasterImageDef
  3
ISM
 90
        0
280
     0
281
     0
  0
CLASS
  1
IMAGEDEF_REACTOR
  2
AcDbRasterImageDefReactor
  3
ISM
 90
        1
280
     0
281
     0
  0
CLASS
  1
IDBUFFER
  2
AcDbIdBuffer
  3
ObjectDBX Classes
 90
        0
280
     0
281
     0
  0
CLASS
  1
SPATIAL_FILTER
  2
AcDbSpatialFilter
  3
ObjectDBX Classes
 90
        0
280
     0
281
     0
  0
CLASS
  1
XRECORD
  2
AcDbXrecord
  3
ObjectDBX Classes
 90
        0
280
     0
281
     0
  0
CLASS
  1
SORTENTSTABLE
  2
AcDbSortentsTable
  3
ObjectDBX Classes
 90
        0
280
     0
281
     0
  0
CLASS
  1
LAYER_INDEX
  2
AcDbLayerIndex
  3
ObjectDBX Classes
 90
        0
280
     0
281
     0
  0
CLASS
  1
SPATIAL_INDEX
  2
AcDbSpatialIndex
  3
AutoCAD 2000
 90
        0
280
     0
281
     0
  0
CLASS
  1
OBJECT_PTR
  2
CAseDLPNTableRecord
  3
ASE-LPNTableRecord
 90
        1
280
     0
281
     0
  0
CLASS
  1
ACDBDICTIONARYWDFLT
  2
AcDbDictionaryWithDefault
  3
ObjectDBX Classes
 90
        0
280
     0
281
     0
  0
CLASS
  1
ACDBPLACEHOLDER
  2
AcDbPlaceHolder
  3
ObjectDBX Classes
 90
        0
280
     0
281
     0
  0
CLASS
  1
LAYOUT
  2
AcDbLayout
  3
ObjectDBX Classes
 90
        0
280
     0
281
     0
  0
CLASS
  1
VISUALSTYLE
  2
AcDbVisualStyle
  3
ObjectDBX Classes
 90
     4095
280
     0
281
     0
  0
CLASS
  1
SCALE
  2
AcDbScale
  3
ObjectDBX Classes
 90
     1153
280
     0
281
     0
  0
CLASS
  1
MATERIAL
  2
AcDbMaterial
  3
ObjectDBX Classes
 90
     1153
280
     0
281
     0
  0
CLASS
  1
MLEADERSTYLE
  2
AcDbMLeaderStyle
  3
ACDB_MLEADERSTYLE_CLASS
 90
     4095
280
     0
281
     0
  0
CLASS
  1
TABLESTYLE
  2
AcDbTableStyle
  3
ObjectDBX Classes
 90
     4095
280
     0
281
     0
  0
ENDSEC
  0
SECTION
  2
TABLES
  0
TABLE
  2
VPORT
  5
7
102
{ACAD_XDICTIONARY
360
19DD
102
}
330
0
100
AcDbSymbolTable
 70
     1
  0
VPORT
  5
19A3
330
7
100
AcDbSymbolTableRecord
100
AcDbViewportTableRecord
  2
*Active
 70
     0
 10
0.0
 20
0.0
 11
1.0
 21
1.0
 12
234.7990751440045
 22
198.9182825564677
 13
0.0
 23
0.0
 14
1.0
 24
1.0
 15
0.0
 25
0.0
 16
0.0
 26
0.0
 36
1.0
 17
0.0
 27
0.0
 37
0.0
 40
562.9773737889461
 41
1.945841392649903
 42
50.0
 43
0.0
 44
0.0
 50
0.0
 51
0.0
 71
     0
 72
   100
 73
     1
 74
     1
 75
     0
 76
     0
 77
     0
 78
     0
281
     0
 65
     1
110
0.0
120
0.0
130
0.0
111
1.0
121
0.0
131
0.0
112
0.0
122
1.0
132
0.0
 79
     0
146
0.0
  0
ENDTAB
  0
TABLE
  2
LTYPE
  5
4
330
0
100
AcDbSymbolTable
 70
     4
  0
LTYPE
  5
11
330
4
100
AcDbSymbolTableRecord
100
AcDbLinetypeTableRecord
  2
BYBLOCK
 70
     0
  3

 72
    65
 73
     0
 40
0.0
  0
LTYPE
  5
12
330
4
100
AcDbSymbolTableRecord
100
AcDbLinetypeTableRecord
  2
BYLAYER
 70
     0
  3

 72
    65
 73
     0
 40
0.0
  0
LTYPE
  5
13
330
4
100
AcDbSymbolTableRecord
100
AcDbLinetypeTableRecord
  2
CONTINUOUS
 70
     0
  3
Solid line
 72
    65
 73
     0
 40
0.0
  0
LTYPE
  5
1D
330
4
100
AcDbSymbolTableRecord
100
AcDbLinetypeTableRecord
  2
DASHED
 70
     0
  3
_ _ _ _ _ _ _ _ _ _ _ _ _ _ _ _
 72
    65
 73
     2
 40
0.2
 49
0.1
 74
     0
 49
-0.1
 74
     0
  0
LTYPE
  5
1E
330
4
100
AcDbSymbolTableRecord
100
AcDbLinetypeTableRecord
  2
CENTER
 70
     0
  3
___ _ ___ _ ___ _ ___ _ ___ _ ___ _ ___ _ ___ _
 72
    65
 73
     4
 40
0.95
 49
0.625
 74
     0
 49
-0.125
 74
     0
 49
0.075
 74
     0
 49
-0.125
 74
     0
  0
LTYPE
  5
1F
330
4
100
AcDbSymbolTableRecord
100
AcDbLinetypeTableRecord
  2
PHANTOM
 70
     0
  3
______  __  __  ______  __  __  ______  __  __  
 72
    65
 73
     6
 40
1.025
 49
0.625
 74
     0
 49
-0.125
 74
     0
 49
0.075
 74
     0
 49
-0.125
 74
     0
 49
0.075
 74
     0
 49
-0.125
 74
     0
  0
ENDTAB
  0
TABLE
  2
LAYER
  5
2
330
0
100
AcDbSymbolTable
 70
    11
  0
LAYER
  5
14
330
2
100
AcDbSymbolTableRecord
100
AcDbLayerTableRecord
  2
0
 70
     0
 62
    -7
  6
CONTINUOUS
370
    -3
390
1980
  0
LAYER
  5
A2
330
2
100
AcDbSymbolTableRecord
100
AcDbLayerTableRecord
  2
DEFPOINTS
 70
     0
 62
    -7
  6
CONTINUOUS
290
     0
370
    -3
390
1980
  0
LAYER
  5
3B7
330
2
100
AcDbSymbolTableRecord
100
AcDbLayerTableRecord
  2
INSTALLED
 70
     0
 62
     7
  6
CONTINUOUS
370
    -3
390
1980
  0
LAYER
  5
3B8
330
2
100
AcDbSymbolTableRecord
100
AcDbLayerTableRecord
  2
HATCH
 70
     0
 62
     7
  6
CONTINUOUS
370
    -3
390
1980
  0
LAYER
  5
448
330
2
100
AcDbSymbolTableRecord
100
AcDbLayerTableRecord
  2
DITRA
 70
     0
 62
     7
  6
CONTINUOUS
370
    -3
390
1980
  0
LAYER
  5
44A
330
2
100
AcDbSymbolTableRecord
100
AcDbLayerTableRecord
  2
SCHLÜTER-BEKOTEC-EN
 70
     0
 62
     7
  6
CONTINUOUS
370
    -3
390
1980
  0
LAYER
  5
44B
330
2
100
AcDbSymbolTableRecord
100
AcDbLayerTableRecord
  2
2
 70
     0
 62
    -7
  6
CONTINUOUS
370
    -3
390
1980
  0
LAYER
  5
44C
330
2
100
AcDbSymbolTableRecord
100
AcDbLayerTableRecord
  2
TEXT
 70
     0
 62
     7
  6
CONTINUOUS
370
    -3
390
1980
  0
LAYER
  5
13FE
330
2
100
AcDbSymbolTableRecord
100
AcDbLayerTableRecord
  2
3
 70
     0
 62
    -7
  6
CONTINUOUS
370
    -3
390
1980
  0
LAYER
  5
13FF
330
2
100
AcDbSymbolTableRecord
100
AcDbLayerTableRecord
  2
SCHLÜTER-BEKOTEC-EN-BACK
 70
     0
 62
     7
  6
CONTINUOUS
370
    -3
390
1980
  0
LAYER
  5
1990
330
2
100
AcDbSymbolTableRecord
100
AcDbLayerTableRecord
  2
BARA-SOT
 70
     0
 62
     7
  6
CONTINUOUS
370
    -3
390
1980
  0
ENDTAB
  0
TABLE
  2
STYLE
  5
3
330
0
100
AcDbSymbolTable
 70
     2
  0
STYLE
  5
17
330
3
100
AcDbSymbolTableRecord
100
AcDbTextStyleTableRecord
  2
STANDARD
 70
     0
 40
0.0
 41
1.0
 50
0.0
 71
     0
 42
0.2
  3
txt
  4

  0
STYLE
  5
97
330
3
100
AcDbSymbolTableRecord
100
AcDbTextStyleTableRecord
  2
STYLE1
 70
     0
 40
0.0
 41
1.0
 50
0.0
 71
     0
 42
3.0
  3
ARIAL.TTF
  4

1001
ACAD
1000
Arial
1071
       34
  0
ENDTAB
  0
TABLE
  2
VIEW
  5
5
330
0
100
AcDbSymbolTable
 70
     0
  0
ENDTAB
  0
TABLE
  2
UCS
  5
6
330
0
100
AcDbSymbolTable
 70
     1
  0
UCS
  5
20
330
6
100
AcDbSymbolTableRecord
100
AcDbUCSTableRecord
  2
CK_VIEW_1
 70
     0
 10
0.0
 20
0.0
 30
1.0
 11
1.0
 21
0.0
 31
0.0
 12
0.0
 22
1.0
 32
0.0
 79
     0
146
0.0
  0
ENDTAB
  0
TABLE
  2
APPID
  5
8
330
0
100
AcDbSymbolTable
 70
     2
  0
APPID
  5
16
330
8
100
AcDbSymbolTableRecord
100
AcDbRegAppTableRecord
  2
ACAD
 70
     0
  0
APPID
  5
1A17
330
8
100
AcDbSymbolTableRecord
100
AcDbRegAppTableRecord
  2
ACAD_MLEADERVER
 70
     0
  0
ENDTAB
  0
TABLE
  2
DIMSTYLE
  5
9
330
0
100
AcDbSymbolTable
 70
     1
100
AcDbDimStyleTable
  0
DIMSTYLE
105
18
330
9
100
AcDbSymbolTableRecord
100
AcDbDimStyleTableRecord
  2
STANDARD
 70
     0
178
     0
289
     0
340
17
  0
ENDTAB
  0
TABLE
  2
BLOCK_RECORD
  5
1
330
0
100
AcDbSymbolTable
 70
     0
  0
BLOCK_RECORD
  5
A
102
{ACAD_XDICTIONARY
360
196F
102
}
330
1
100
AcDbSymbolTableRecord
100
AcDbBlockTableRecord
  2
*MODEL_SPACE
340
1983
  0
BLOCK_RECORD
  5
B
330
1
100
AcDbSymbolTableRecord
100
AcDbBlockTableRecord
  2
*PAPER_SPACE
340
1984
  0
ENDTAB
  0
ENDSEC
  0
SECTION
  2
BLOCKS
  0
BLOCK
  5
D
330
A
100
AcDbEntity
  8
0
370
    -1
100
AcDbBlockBegin
  2
*MODEL_SPACE
 70
     0
 10
0.0
 20
0.0
 30
0.0
  3
*MODEL_SPACE
  1

  0
ENDBLK
  5
E
330
A
100
AcDbEntity
  8
0
370
    -1
100
AcDbBlockEnd
  0
BLOCK
  5
F
330
B
100
AcDbEntity
 67
     1
  8
0
370
    -1
100
AcDbBlockBegin
  2
*PAPER_SPACE
 70
     0
 10
0.0
 20
0.0
 30
0.0
  3
*PAPER_SPACE
  1

  0
ENDBLK
  5
10
330
B
100
AcDbEntity
 67
     1
  8
0
370
    -1
100
AcDbBlockEnd
  0
ENDSEC
  0
SECTION
  2
ENTITIES
  0
CIRCLE
  5
98B
330
A
100
AcDbEntity
  8
INSTALLED
  6
Continuous
 62
     1
370
    -1
100
AcDbCircle
 10
408.4749693108242
 20
176.222241323297
 30
0.0
 40
6.5
  0
LINE
  5
98C
330
A
100
AcDbEntity
  8
INSTALLED
  6
Continuous
 62
     1
370
    -1
100
AcDbLine
 10
810.6156533282089
 20
144.722241323297
 30
0.0
 11
810.615653328209
 21
111.722241323297
 31
0.0
  0
LINE
  5
98D
330
A
100
AcDbEntity
  8
INSTALLED
  6
Continuous
 62
     1
370
    -1
100
AcDbLine
 10
65.281989887044
 20
144.722241323297
 30
0.0
 11
65.281989887044
 21
111.722241323297
 31
0.0
  0
LINE
  5
991
102
{ACAD_REACTORS
330
18AB
102
}
330
A
100
AcDbEntity
  8
INSTALLED
  6
Continuous
 62
     1
370
    -1
100
AcDbLine
 10
65.281989887044
 20
204.722241323297
 30
0.0
 11
65.281989887044
 21
214.722241323297
 31
0.0
  0
LINE
  5
993
102
{ACAD_REACTORS
330
18AB
102
}
330
A
100
AcDbEntity
  8
INSTALLED
  6
Continuous
 62
     1
370
    -1
100
AcDbLine
 10
810.615653328209
 20
204.722241323297
 30
0.0
 11
810.615653328209
 21
214.722241323297
 31
0.0
  0
LINE
  5
994
102
{ACAD_REACTORS
330
18AB
102
}
330
A
100
AcDbEntity
  8
INSTALLED
  6
Continuous
 62
     1
370
    -1
100
AcDbLine
 10
592.2168427882787
 20
204.722241323297
 30
0.0
 11
296.2168427882787
 21
204.722241323297
 31
0.0
  0
LINE
  5
995
102
{ACAD_REACTORS
330
18AB
102
}
330
A
100
AcDbEntity
  8
INSTALLED
  6
Continuous
 62
     1
370
    -1
100
AcDbLine
 10
592.2168427882787
 20
214.722241323297
 30
0.0
 11
296.2168427882787
 21
214.722241323297
 31
0.0
  0
LINE
  5
996
102
{ACAD_REACTORS
330
18AB
102
}
330
A
100
AcDbEntity
  8
INSTALLED
  6
Continuous
 62
     1
370
    -1
100
AcDbLine
 10
292.2168427882787
 20
204.722241323297
 30
0.0
 11
65.281989887044
 21
204.722241323297
 31
0.0
  0
LINE
  5
997
102
{ACAD_REACTORS
330
18AB
102
}
330
A
100
AcDbEntity
  8
INSTALLED
  6
Continuous
 62
     1
370
    -1
100
AcDbLine
 10
292.2168427882787
 20
214.722241323297
 30
0.0
 11
65.281989887044
 21
214.722241323297
 31
0.0
  0
LINE
  5
998
330
A
100
AcDbEntity
  8
INSTALLED
  6
Continuous
 62
     1
370
    -1
100
AcDbLine
 10
810.615653328209
 20
141.722241323297
 30
0.0
 11
65.281989887044
 21
141.722241323297
 31
0.0
  0
LINE
  5
999
330
A
100
AcDbEntity
  8
INSTALLED
  6
Continuous
 62
     1
370
    -1
100
AcDbLine
 10
65.281989887044
 20
127.9440234017437
 30
0.0
 11
66.61565332820896
 21
129.722241323297
 31
0.0
  0
LINE
  5
99A
330
A
100
AcDbEntity
  8
INSTALLED
  6
Continuous
 62
     1
370
    -1
100
AcDbLine
 10
74.11565332820896
 20
123.722241323297
 30
0.0
 11
69.61565332820896
 21
129.722241323297
 31
0.0
  0
ARC
  5
99B
330
A
100
AcDbEntity
  8
INSTALLED
  6
Continuous
 62
     1
370
    -1
100
AcDbCircle
 10
75.61565332820896
 20
134.222241323297
 30
0.0
 40
7.5
100
AcDbArc
 50
90.0
 51
216.8698976458439
  0
LINE
  5
99C
330
A
100
AcDbEntity
  8
INSTALLED
  6
Continuous
 62
     1
370
    -1
100
AcDbLine
 10
89.11565332820896
 20
123.722241323297
 30
0.0
 11
84.61565332820896
 21
129.722241323297
 31
0.0
  0
ARC
  5
99D
330
A
100
AcDbEntity
  8
INSTALLED
  6
Continuous
 62
     1
370
    -1
100
AcDbCircle
 10
90.61565332820896
 20
134.222241323297
 30
0.0
 40
7.5
100
AcDbArc
 50
90.0
 51
216.8698976458439
  0
ARC
  5
99E
330
A
100
AcDbEntity
  8
INSTALLED
  6
Continuous
 62
     1
370
    -1
100
AcDbCircle
 10
75.61565332820896
 20
134.222241323297
 30
0.0
 40
7.5
100
AcDbArc
 50
323.1301023541561
 51
90.0
  0
LINE
  5
99F
330
A
100
AcDbEntity
  8
INSTALLED
  6
Continuous
 62
     1
370
    -1
100
AcDbLine
 10
77.11565332820896
 20
123.722241323297
 30
0.0
 11
81.61565332820896
 21
129.722241323297
 31
0.0
  0
ARC
  5
9A0
330
A
100
AcDbEntity
  8
INSTALLED
  6
Continuous
 62
     1
370
    -1
100
AcDbCircle
 10
83.11565332820896
 20
119.222241323297
 30
0.0
 40
7.5
100
AcDbArc
 50
270.0
 51
36.86989764584386
  0
ARC
  5
9A1
330
A
100
AcDbEntity
  8
INSTALLED
  6
Continuous
 62
     1
370
    -1
100
AcDbCircle
 10
68.11565332820896
 20
119.222241323297
 30
0.0
 40
7.5
100
AcDbArc
 50
270.0
 51
36.86989764584386
  0
ARC
  5
9A2
330
A
100
AcDbEntity
  8
INSTALLED
  6
Continuous
 62
     1
370
    -1
100
AcDbCircle
 10
83.11565332820896
 20
119.222241323297
 30
0.0
 40
7.5
100
AcDbArc
 50
143.1301023541561
 51
270.0
  0
LINE
  5
9A3
330
A
100
AcDbEntity
  8
INSTALLED
  6
Continuous
 62
     1
370
    -1
100
AcDbLine
 10
104.115653328209
 20
123.722241323297
 30
0.0
 11
99.61565332820896
 21
129.722241323297
 31
0.0
  0
ARC
  5
9A4
330
A
100
AcDbEntity
  8
INSTALLED
  6
Continuous
 62
     1
370
    -1
100
AcDbCircle
 10
105.615653328209
 20
134.222241323297
 30
0.0
 40
7.5
100
AcDbArc
 50
90.0
 51
216.8698976458439
  0
LINE
  5
9A5
330
A
100
AcDbEntity
  8
INSTALLED
  6
Continuous
 62
     1
370
    -1
100
AcDbLine
 10
122.115653328209
 20
123.722241323297
 30
0.0
 11
126.615653328209
 21
129.722241323297
 31
0.0
  0
LINE
  5
9A6
330
A
100
AcDbEntity
  8
INSTALLED
  6
Continuous
 62
     1
370
    -1
100
AcDbLine
 10
119.115653328209
 20
123.722241323297
 30
0.0
 11
114.615653328209
 21
129.722241323297
 31
0.0
  0
ARC
  5
9A7
330
A
100
AcDbEntity
  8
INSTALLED
  6
Continuous
 62
     1
370
    -1
100
AcDbCircle
 10
120.615653328209
 20
134.222241323297
 30
0.0
 40
7.5
100
AcDbArc
 50
90.0
 51
216.8698976458439
  0
ARC
  5
9A8
330
A
100
AcDbEntity
  8
INSTALLED
  6
Continuous
 62
     1
370
    -1
100
AcDbCircle
 10
105.615653328209
 20
134.222241323297
 30
0.0
 40
7.5
100
AcDbArc
 50
323.1301023541561
 51
90.0
  0
LINE
  5
9A9
330
A
100
AcDbEntity
  8
INSTALLED
  6
Continuous
 62
     1
370
    -1
100
AcDbLine
 10
107.115653328209
 20
123.722241323297
 30
0.0
 11
111.615653328209
 21
129.722241323297
 31
0.0
  0
ARC
  5
9AA
330
A
100
AcDbEntity
  8
INSTALLED
  6
Continuous
 62
     1
370
    -1
100
AcDbCircle
 10
113.115653328209
 20
119.222241323297
 30
0.0
 40
7.5
100
AcDbArc
 50
270.0
 51
36.86989764584386
  0
ARC
  5
9AB
330
A
100
AcDbEntity
  8
INSTALLED
  6
Continuous
 62
     1
370
    -1
100
AcDbCircle
 10
98.11565332820896
 20
119.222241323297
 30
0.0
 40
7.5
100
AcDbArc
 50
270.0
 51
36.86989764584386
  0
ARC
  5
9AC
330
A
100
AcDbEntity
  8
INSTALLED
  6
Continuous
 62
     1
370
    -1
100
AcDbCircle
 10
113.115653328209
 20
119.222241323297
 30
0.0
 40
7.5
100
AcDbArc
 50
143.1301023541561
 51
270.0
  0
ARC
  5
9AD
330
A
100
AcDbEntity
  8
INSTALLED
  6
Continuous
 62
     1
370
    -1
100
AcDbCircle
 10
98.11565332820896
 20
119.222241323297
 30
0.0
 40
7.5
100
AcDbArc
 50
143.1301023541561
 51
270.0
  0
ARC
  5
9AE
330
A
100
AcDbEntity
  8
INSTALLED
  6
Continuous
 62
     1
370
    -1
100
AcDbCircle
 10
90.61565332820896
 20
134.222241323297
 30
0.0
 40
7.5
100
AcDbArc
 50
323.1301023541561
 51
90.0
  0
LINE
  5
9AF
330
A
100
AcDbEntity
  8
INSTALLED
  6
Continuous
 62
     1
370
    -1
100
AcDbLine
 10
92.11565332820896
 20
123.722241323297
 30
0.0
 11
96.61565332820896
 21
129.722241323297
 31
0.0
  0
LINE
  5
9B0
330
A
100
AcDbEntity
  8
INSTALLED
  6
Continuous
 62
     1
370
    -1
100
AcDbLine
 10
134.115653328209
 20
123.722241323297
 30
0.0
 11
129.615653328209
 21
129.722241323297
 31
0.0
  0
LINE
  5
9B1
330
A
100
AcDbEntity
  8
INSTALLED
  6
Continuous
 62
     1
370
    -1
100
AcDbLine
 10
137.115653328209
 20
123.722241323297
 30
0.0
 11
141.615653328209
 21
129.722241323297
 31
0.0
  0
LINE
  5
9B2
330
A
100
AcDbEntity
  8
INSTALLED
  6
Continuous
 62
     1
370
    -1
100
AcDbLine
 10
149.115653328209
 20
123.722241323297
 30
0.0
 11
144.615653328209
 21
129.722241323297
 31
0.0
  0
LINE
  5
9B3
330
A
100
AcDbEntity
  8
INSTALLED
  6
Continuous
 62
     1
370
    -1
100
AcDbLine
 10
152.115653328209
 20
123.722241323297
 30
0.0
 11
156.615653328209
 21
129.722241323297
 31
0.0
  0
ARC
  5
9B4
330
A
100
AcDbEntity
  8
INSTALLED
  6
Continuous
 62
     1
370
    -1
100
AcDbCircle
 10
135.615653328209
 20
134.222241323297
 30
0.0
 40
7.5
100
AcDbArc
 50
323.1301023541566
 51
90.0
  0
ARC
  5
9B5
330
A
100
AcDbEntity
  8
INSTALLED
  6
Continuous
 62
     1
370
    -1
100
AcDbCircle
 10
150.615653328209
 20
134.222241323297
 30
0.0
 40
7.5
100
AcDbArc
 50
90.0
 51
216.8698976458433
  0
ARC
  5
9B6
330
A
100
AcDbEntity
  8
INSTALLED
  6
Continuous
 62
     1
370
    -1
100
AcDbCircle
 10
158.115653328209
 20
119.222241323297
 30
0.0
 40
7.5
100
AcDbArc
 50
143.1301023541567
 51
270.0
  0
ARC
  5
9B7
330
A
100
AcDbEntity
  8
INSTALLED
  6
Continuous
 62
     1
370
    -1
100
AcDbCircle
 10
128.115653328209
 20
119.222241323297
 30
0.0
 40
7.5
100
AcDbArc
 50
270.0
 51
36.86989764584339
  0
ARC
  5
9B8
330
A
100
AcDbEntity
  8
INSTALLED
  6
Continuous
 62
     1
370
    -1
100
AcDbCircle
 10
143.115653328209
 20
119.222241323297
 30
0.0
 40
7.5
100
AcDbArc
 50
270.0
 51
36.86989764584339
  0
ARC
  5
9B9
330
A
100
AcDbEntity
  8
INSTALLED
  6
Continuous
 62
     1
370
    -1
100
AcDbCircle
 10
143.115653328209
 20
119.222241323297
 30
0.0
 40
7.5
100
AcDbArc
 50
143.1301023541567
 51
270.0
  0
LINE
  5
9BA
330
A
100
AcDbEntity
  8
INSTALLED
  6
Continuous
 62
     1
370
    -1
100
AcDbLine
 10
167.115653328209
 20
123.722241323297
 30
0.0
 11
171.615653328209
 21
129.722241323297
 31
0.0
  0
ARC
  5
9BB
330
A
100
AcDbEntity
  8
INSTALLED
  6
Continuous
 62
     1
370
    -1
100
AcDbCircle
 10
165.615653328209
 20
134.222241323297
 30
0.0
 40
7.5
100
AcDbArc
 50
323.1301023541566
 51
90.0
  0
LINE
  5
9BC
330
A
100
AcDbEntity
  8
INSTALLED
  6
Continuous
 62
     1
370
    -1
100
AcDbLine
 10
182.115653328209
 20
123.722241323297
 30
0.0
 11
186.615653328209
 21
129.722241323297
 31
0.0
  0
ARC
  5
9BD
330
A
100
AcDbEntity
  8
INSTALLED
  6
Continuous
 62
     1
370
    -1
100
AcDbCircle
 10
180.615653328209
 20
134.222241323297
 30
0.0
 40
7.5
100
AcDbArc
 50
323.1301023541566
 51
90.0
  0
ARC
  5
9BE
330
A
100
AcDbEntity
  8
INSTALLED
  6
Continuous
 62
     1
370
    -1
100
AcDbCircle
 10
180.615653328209
 20
134.222241323297
 30
0.0
 40
7.5
100
AcDbArc
 50
90.0
 51
216.8698976458433
  0
LINE
  5
9BF
330
A
100
AcDbEntity
  8
INSTALLED
  6
Continuous
 62
     1
370
    -1
100
AcDbLine
 10
179.115653328209
 20
123.722241323297
 30
0.0
 11
174.615653328209
 21
129.722241323297
 31
0.0
  0
ARC
  5
9C0
330
A
100
AcDbEntity
  8
INSTALLED
  6
Continuous
 62
     1
370
    -1
100
AcDbCircle
 10
173.115653328209
 20
119.222241323297
 30
0.0
 40
7.5
100
AcDbArc
 50
270.0
 51
36.86989764584339
  0
ARC
  5
9C1
330
A
100
AcDbEntity
  8
INSTALLED
  6
Continuous
 62
     1
370
    -1
100
AcDbCircle
 10
173.115653328209
 20
119.222241323297
 30
0.0
 40
7.5
100
AcDbArc
 50
143.1301023541567
 51
270.0
  0
ARC
  5
9C2
330
A
100
AcDbEntity
  8
INSTALLED
  6
Continuous
 62
     1
370
    -1
100
AcDbCircle
 10
188.115653328209
 20
119.222241323297
 30
0.0
 40
7.5
100
AcDbArc
 50
143.1301023541567
 51
270.0
  0
ARC
  5
9C3
330
A
100
AcDbEntity
  8
INSTALLED
  6
Continuous
 62
     1
370
    -1
100
AcDbCircle
 10
150.615653328209
 20
134.222241323297
 30
0.0
 40
7.5
100
AcDbArc
 50
323.1301023541566
 51
90.0
  0
ARC
  5
9C4
330
A
100
AcDbEntity
  8
INSTALLED
  6
Continuous
 62
     1
370
    -1
100
AcDbCircle
 10
158.115653328209
 20
119.222241323297
 30
0.0
 40
7.5
100
AcDbArc
 50
270.0
 51
36.86989764584339
  0
ARC
  5
9C5
330
A
100
AcDbEntity
  8
INSTALLED
  6
Continuous
 62
     1
370
    -1
100
AcDbCircle
 10
165.615653328209
 20
134.222241323297
 30
0.0
 40
7.5
100
AcDbArc
 50
90.0
 51
216.8698976458433
  0
LINE
  5
9C6
330
A
100
AcDbEntity
  8
INSTALLED
  6
Continuous
 62
     1
370
    -1
100
AcDbLine
 10
164.115653328209
 20
123.722241323297
 30
0.0
 11
159.615653328209
 21
129.722241323297
 31
0.0
  0
ARC
  5
9C7
330
A
100
AcDbEntity
  8
INSTALLED
  6
Continuous
 62
     1
370
    -1
100
AcDbCircle
 10
120.615653328209
 20
134.222241323297
 30
0.0
 40
7.5
100
AcDbArc
 50
323.1301023541561
 51
90.0
  0
ARC
  5
9C8
330
A
100
AcDbEntity
  8
INSTALLED
  6
Continuous
 62
     1
370
    -1
100
AcDbCircle
 10
128.115653328209
 20
119.222241323297
 30
0.0
 40
7.5
100
AcDbArc
 50
143.1301023541561
 51
270.0
  0
ARC
  5
9C9
330
A
100
AcDbEntity
  8
INSTALLED
  6
Continuous
 62
     1
370
    -1
100
AcDbCircle
 10
135.615653328209
 20
134.222241323297
 30
0.0
 40
7.5
100
AcDbArc
 50
90.0
 51
216.8698976458433
  0
ARC
  5
9CA
330
A
100
AcDbEntity
  8
INSTALLED
  6
Continuous
 62
     1
370
    -1
100
AcDbCircle
 10
188.115653328209
 20
119.222241323297
 30
0.0
 40
7.5
100
AcDbArc
 50
270.0
 51
36.86989764584339
  0
ARC
  5
9CB
330
A
100
AcDbEntity
  8
INSTALLED
  6
Continuous
 62
     1
370
    -1
100
AcDbCircle
 10
195.615653328209
 20
134.222241323297
 30
0.0
 40
7.5
100
AcDbArc
 50
90.0
 51
216.8698976458433
  0
LINE
  5
9CC
330
A
100
AcDbEntity
  8
INSTALLED
  6
Continuous
 62
     1
370
    -1
100
AcDbLine
 10
194.115653328209
 20
123.722241323297
 30
0.0
 11
189.615653328209
 21
129.722241323297
 31
0.0
  0
ARC
  5
9CD
330
A
100
AcDbEntity
  8
INSTALLED
  6
Continuous
 62
     1
370
    -1
100
AcDbCircle
 10
68.11565332820896
 20
119.222241323297
 30
0.0
 40
7.5
100
AcDbArc
 50
247.8011754444878
 51
270.0
  0
ARC
  5
9CE
330
A
100
AcDbEntity
  8
INSTALLED
  6
Continuous
 62
     1
370
    -1
100
AcDbCircle
 10
60.61565332820896
 20
134.222241323297
 30
0.0
 40
7.5
100
AcDbArc
 50
323.1301023541563
 51
51.52462618853868
  0
ARC
  5
9CF
330
A
100
AcDbEntity
  8
INSTALLED
  6
Continuous
 62
     1
370
    -1
100
AcDbCircle
 10
315.615653328209
 20
134.222241323297
 30
0.0
 40
7.5
100
AcDbArc
 50
323.1301023541566
 51
90.0
  0
ARC
  5
9D0
330
A
100
AcDbEntity
  8
INSTALLED
  6
Continuous
 62
     1
370
    -1
100
AcDbCircle
 10
345.615653328209
 20
134.222241323297
 30
0.0
 40
7.5
100
AcDbArc
 50
90.0
 51
216.8698976458433
  0
ARC
  5
9D1
330
A
100
AcDbEntity
  8
INSTALLED
  6
Continuous
 62
     1
370
    -1
100
AcDbCircle
 10
330.615653328209
 20
134.222241323297
 30
0.0
 40
7.5
100
AcDbArc
 50
323.1301023541566
 51
90.0
  0
ARC
  5
9D2
330
A
100
AcDbEntity
  8
INSTALLED
  6
Continuous
 62
     1
370
    -1
100
AcDbCircle
 10
360.615653328209
 20
134.222241323297
 30
0.0
 40
7.5
100
AcDbArc
 50
90.0
 51
216.8698976458433
  0
ARC
  5
9D3
330
A
100
AcDbEntity
  8
INSTALLED
  6
Continuous
 62
     1
370
    -1
100
AcDbCircle
 10
345.615653328209
 20
134.222241323297
 30
0.0
 40
7.5
100
AcDbArc
 50
323.1301023541566
 51
90.0
  0
ARC
  5
9D4
330
A
100
AcDbEntity
  8
INSTALLED
  6
Continuous
 62
     1
370
    -1
100
AcDbCircle
 10
330.615653328209
 20
134.222241323297
 30
0.0
 40
7.5
100
AcDbArc
 50
90.0
 51
216.8698976458433
  0
ARC
  5
9D5
330
A
100
AcDbEntity
  8
INSTALLED
  6
Continuous
 62
     1
370
    -1
100
AcDbCircle
 10
375.615653328209
 20
134.222241323297
 30
0.0
 40
7.5
100
AcDbArc
 50
90.0
 51
216.8698976458433
  0
ARC
  5
9D6
330
A
100
AcDbEntity
  8
INSTALLED
  6
Continuous
 62
     1
370
    -1
100
AcDbCircle
 10
390.615653328209
 20
134.222241323297
 30
0.0
 40
7.5
100
AcDbArc
 50
90.0
 51
216.8698976458433
  0
ARC
  5
9D7
330
A
100
AcDbEntity
  8
INSTALLED
  6
Continuous
 62
     1
370
    -1
100
AcDbCircle
 10
375.615653328209
 20
134.222241323297
 30
0.0
 40
7.5
100
AcDbArc
 50
323.1301023541566
 51
90.0
  0
ARC
  5
9D8
330
A
100
AcDbEntity
  8
INSTALLED
  6
Continuous
 62
     1
370
    -1
100
AcDbCircle
 10
405.615653328209
 20
134.222241323297
 30
0.0
 40
7.5
100
AcDbArc
 50
90.0
 51
216.8698976458433
  0
ARC
  5
9D9
330
A
100
AcDbEntity
  8
INSTALLED
  6
Continuous
 62
     1
370
    -1
100
AcDbCircle
 10
390.615653328209
 20
134.222241323297
 30
0.0
 40
7.5
100
AcDbArc
 50
323.1301023541566
 51
90.0
  0
ARC
  5
9DA
330
A
100
AcDbEntity
  8
INSTALLED
  6
Continuous
 62
     1
370
    -1
100
AcDbCircle
 10
360.615653328209
 20
134.222241323297
 30
0.0
 40
7.5
100
AcDbArc
 50
323.1301023541566
 51
90.0
  0
LINE
  5
9DB
330
A
100
AcDbEntity
  8
INSTALLED
  6
Continuous
 62
     1
370
    -1
100
AcDbLine
 10
317.115653328209
 20
123.722241323297
 30
0.0
 11
321.615653328209
 21
129.722241323297
 31
0.0
  0
LINE
  5
9DC
330
A
100
AcDbEntity
  8
INSTALLED
  6
Continuous
 62
     1
370
    -1
100
AcDbLine
 10
329.115653328209
 20
123.722241323297
 30
0.0
 11
324.615653328209
 21
129.722241323297
 31
0.0
  0
ARC
  5
9DD
330
A
100
AcDbEntity
  8
INSTALLED
  6
Continuous
 62
     1
370
    -1
100
AcDbCircle
 10
323.115653328209
 20
119.222241323297
 30
0.0
 40
7.5
100
AcDbArc
 50
143.1301023541567
 51
270.0
  0
LINE
  5
9DE
330
A
100
AcDbEntity
  8
INSTALLED
  6
Continuous
 62
     1
370
    -1
100
AcDbLine
 10
332.115653328209
 20
123.722241323297
 30
0.0
 11
336.615653328209
 21
129.722241323297
 31
0.0
  0
LINE
  5
9DF
330
A
100
AcDbEntity
  8
INSTALLED
  6
Continuous
 62
     1
370
    -1
100
AcDbLine
 10
344.115653328209
 20
123.722241323297
 30
0.0
 11
339.615653328209
 21
129.722241323297
 31
0.0
  0
LINE
  5
9E0
330
A
100
AcDbEntity
  8
INSTALLED
  6
Continuous
 62
     1
370
    -1
100
AcDbLine
 10
347.115653328209
 20
123.722241323297
 30
0.0
 11
351.615653328209
 21
129.722241323297
 31
0.0
  0
LINE
  5
9E1
330
A
100
AcDbEntity
  8
INSTALLED
  6
Continuous
 62
     1
370
    -1
100
AcDbLine
 10
359.115653328209
 20
123.722241323297
 30
0.0
 11
354.615653328209
 21
129.722241323297
 31
0.0
  0
ARC
  5
9E2
330
A
100
AcDbEntity
  8
INSTALLED
  6
Continuous
 62
     1
370
    -1
100
AcDbCircle
 10
353.115653328209
 20
119.222241323297
 30
0.0
 40
7.5
100
AcDbArc
 50
143.1301023541567
 51
270.0
  0
ARC
  5
9E3
330
A
100
AcDbEntity
  8
INSTALLED
  6
Continuous
 62
     1
370
    -1
100
AcDbCircle
 10
338.115653328209
 20
119.222241323297
 30
0.0
 40
7.5
100
AcDbArc
 50
270.0
 51
36.86989764584339
  0
ARC
  5
9E4
330
A
100
AcDbEntity
  8
INSTALLED
  6
Continuous
 62
     1
370
    -1
100
AcDbCircle
 10
338.115653328209
 20
119.222241323297
 30
0.0
 40
7.5
100
AcDbArc
 50
143.1301023541567
 51
270.0
  0
ARC
  5
9E5
330
A
100
AcDbEntity
  8
INSTALLED
  6
Continuous
 62
     1
370
    -1
100
AcDbCircle
 10
323.115653328209
 20
119.222241323297
 30
0.0
 40
7.5
100
AcDbArc
 50
270.0
 51
36.86989764584339
  0
LINE
  5
9E6
330
A
100
AcDbEntity
  8
INSTALLED
  6
Continuous
 62
     1
370
    -1
100
AcDbLine
 10
374.115653328209
 20
123.722241323297
 30
0.0
 11
369.615653328209
 21
129.722241323297
 31
0.0
  0
LINE
  5
9E7
330
A
100
AcDbEntity
  8
INSTALLED
  6
Continuous
 62
     1
370
    -1
100
AcDbLine
 10
389.115653328209
 20
123.722241323297
 30
0.0
 11
384.615653328209
 21
129.722241323297
 31
0.0
  0
LINE
  5
9E8
330
A
100
AcDbEntity
  8
INSTALLED
  6
Continuous
 62
     1
370
    -1
100
AcDbLine
 10
377.115653328209
 20
123.722241323297
 30
0.0
 11
381.615653328209
 21
129.722241323297
 31
0.0
  0
ARC
  5
9E9
330
A
100
AcDbEntity
  8
INSTALLED
  6
Continuous
 62
     1
370
    -1
100
AcDbCircle
 10
383.115653328209
 20
119.222241323297
 30
0.0
 40
7.5
100
AcDbArc
 50
143.1301023541567
 51
270.0
  0
ARC
  5
9EA
330
A
100
AcDbEntity
  8
INSTALLED
  6
Continuous
 62
     1
370
    -1
100
AcDbCircle
 10
383.115653328209
 20
119.222241323297
 30
0.0
 40
7.5
100
AcDbArc
 50
270.0
 51
36.86989764584339
  0
ARC
  5
9EB
330
A
100
AcDbEntity
  8
INSTALLED
  6
Continuous
 62
     1
370
    -1
100
AcDbCircle
 10
368.115653328209
 20
119.222241323297
 30
0.0
 40
7.5
100
AcDbArc
 50
270.0
 51
36.86989764584339
  0
LINE
  5
9EC
330
A
100
AcDbEntity
  8
INSTALLED
  6
Continuous
 62
     1
370
    -1
100
AcDbLine
 10
404.115653328209
 20
123.722241323297
 30
0.0
 11
399.615653328209
 21
129.722241323297
 31
0.0
  0
ARC
  5
9ED
330
A
100
AcDbEntity
  8
INSTALLED
  6
Continuous
 62
     1
370
    -1
100
AcDbCircle
 10
398.115653328209
 20
119.222241323297
 30
0.0
 40
7.5
100
AcDbArc
 50
270.0
 51
36.86989764584339
  0
ARC
  5
9EE
330
A
100
AcDbEntity
  8
INSTALLED
  6
Continuous
 62
     1
370
    -1
100
AcDbCircle
 10
398.115653328209
 20
119.222241323297
 30
0.0
 40
7.5
100
AcDbArc
 50
143.1301023541567
 51
270.0
  0
LINE
  5
9EF
330
A
100
AcDbEntity
  8
INSTALLED
  6
Continuous
 62
     1
370
    -1
100
AcDbLine
 10
392.115653328209
 20
123.722241323297
 30
0.0
 11
396.615653328209
 21
129.722241323297
 31
0.0
  0
ARC
  5
9F0
330
A
100
AcDbEntity
  8
INSTALLED
  6
Continuous
 62
     1
370
    -1
100
AcDbCircle
 10
353.115653328209
 20
119.222241323297
 30
0.0
 40
7.5
100
AcDbArc
 50
270.0
 51
36.86989764584339
  0
ARC
  5
9F1
330
A
100
AcDbEntity
  8
INSTALLED
  6
Continuous
 62
     1
370
    -1
100
AcDbCircle
 10
368.115653328209
 20
119.222241323297
 30
0.0
 40
7.5
100
AcDbArc
 50
143.1301023541567
 51
270.0
  0
LINE
  5
9F2
330
A
100
AcDbEntity
  8
INSTALLED
  6
Continuous
 62
     1
370
    -1
100
AcDbLine
 10
362.115653328209
 20
123.722241323297
 30
0.0
 11
366.615653328209
 21
129.722241323297
 31
0.0
  0
LINE
  5
9F3
330
A
100
AcDbEntity
  8
INSTALLED
  6
Continuous
 62
     1
370
    -1
100
AcDbLine
 10
269.115653328209
 20
123.722241323297
 30
0.0
 11
264.615653328209
 21
129.722241323297
 31
0.0
  0
ARC
  5
9F4
330
A
100
AcDbEntity
  8
INSTALLED
  6
Continuous
 62
     1
370
    -1
100
AcDbCircle
 10
270.615653328209
 20
134.222241323297
 30
0.0
 40
7.5
100
AcDbArc
 50
90.0
 51
216.8698976458433
  0
ARC
  5
9F5
330
A
100
AcDbEntity
  8
INSTALLED
  6
Continuous
 62
     1
370
    -1
100
AcDbCircle
 10
255.615653328209
 20
134.222241323297
 30
0.0
 40
7.5
100
AcDbArc
 50
323.1301023541566
 51
90.0
  0
LINE
  5
9F6
330
A
100
AcDbEntity
  8
INSTALLED
  6
Continuous
 62
     1
370
    -1
100
AcDbLine
 10
257.115653328209
 20
123.722241323297
 30
0.0
 11
261.615653328209
 21
129.722241323297
 31
0.0
  0
ARC
  5
9F7
330
A
100
AcDbEntity
  8
INSTALLED
  6
Continuous
 62
     1
370
    -1
100
AcDbCircle
 10
263.115653328209
 20
119.222241323297
 30
0.0
 40
7.5
100
AcDbArc
 50
143.1301023541567
 51
270.0
  0
ARC
  5
9F8
330
A
100
AcDbEntity
  8
INSTALLED
  6
Continuous
 62
     1
370
    -1
100
AcDbCircle
 10
263.115653328209
 20
119.222241323297
 30
0.0
 40
7.5
100
AcDbArc
 50
270.0
 51
36.86989764584339
  0
LINE
  5
9F9
330
A
100
AcDbEntity
  8
INSTALLED
  6
Continuous
 62
     1
370
    -1
100
AcDbLine
 10
287.115653328209
 20
123.722241323297
 30
0.0
 11
291.615653328209
 21
129.722241323297
 31
0.0
  0
LINE
  5
9FA
330
A
100
AcDbEntity
  8
INSTALLED
  6
Continuous
 62
     1
370
    -1
100
AcDbLine
 10
284.115653328209
 20
123.722241323297
 30
0.0
 11
279.615653328209
 21
129.722241323297
 31
0.0
  0
ARC
  5
9FB
330
A
100
AcDbEntity
  8
INSTALLED
  6
Continuous
 62
     1
370
    -1
100
AcDbCircle
 10
285.615653328209
 20
134.222241323297
 30
0.0
 40
7.5
100
AcDbArc
 50
90.0
 51
216.8698976458433
  0
LINE
  5
9FC
330
A
100
AcDbEntity
  8
INSTALLED
  6
Continuous
 62
     1
370
    -1
100
AcDbLine
 10
299.115653328209
 20
123.722241323297
 30
0.0
 11
294.615653328209
 21
129.722241323297
 31
0.0
  0
LINE
  5
9FD
330
A
100
AcDbEntity
  8
INSTALLED
  6
Continuous
 62
     1
370
    -1
100
AcDbLine
 10
302.115653328209
 20
123.722241323297
 30
0.0
 11
306.615653328209
 21
129.722241323297
 31
0.0
  0
ARC
  5
9FE
330
A
100
AcDbEntity
  8
INSTALLED
  6
Continuous
 62
     1
370
    -1
100
AcDbCircle
 10
300.615653328209
 20
134.222241323297
 30
0.0
 40
7.5
100
AcDbArc
 50
90.0
 51
216.8698976458433
  0
ARC
  5
9FF
330
A
100
AcDbEntity
  8
INSTALLED
  6
Continuous
 62
     1
370
    -1
100
AcDbCircle
 10
285.615653328209
 20
134.222241323297
 30
0.0
 40
7.5
100
AcDbArc
 50
323.1301023541566
 51
90.0
  0
ARC
  5
A00
330
A
100
AcDbEntity
  8
INSTALLED
  6
Continuous
 62
     1
370
    -1
100
AcDbCircle
 10
308.115653328209
 20
119.222241323297
 30
0.0
 40
7.5
100
AcDbArc
 50
143.1301023541567
 51
270.0
  0
ARC
  5
A01
330
A
100
AcDbEntity
  8
INSTALLED
  6
Continuous
 62
     1
370
    -1
100
AcDbCircle
 10
293.115653328209
 20
119.222241323297
 30
0.0
 40
7.5
100
AcDbArc
 50
143.1301023541567
 51
270.0
  0
ARC
  5
A02
330
A
100
AcDbEntity
  8
INSTALLED
  6
Continuous
 62
     1
370
    -1
100
AcDbCircle
 10
293.115653328209
 20
119.222241323297
 30
0.0
 40
7.5
100
AcDbArc
 50
270.0
 51
36.86989764584339
  0
ARC
  5
A03
330
A
100
AcDbEntity
  8
INSTALLED
  6
Continuous
 62
     1
370
    -1
100
AcDbCircle
 10
278.115653328209
 20
119.222241323297
 30
0.0
 40
7.5
100
AcDbArc
 50
270.0
 51
36.86989764584339
  0
ARC
  5
A04
330
A
100
AcDbEntity
  8
INSTALLED
  6
Continuous
 62
     1
370
    -1
100
AcDbCircle
 10
278.115653328209
 20
119.222241323297
 30
0.0
 40
7.5
100
AcDbArc
 50
143.1301023541567
 51
270.0
  0
ARC
  5
A05
330
A
100
AcDbEntity
  8
INSTALLED
  6
Continuous
 62
     1
370
    -1
100
AcDbCircle
 10
270.615653328209
 20
134.222241323297
 30
0.0
 40
7.5
100
AcDbArc
 50
323.1301023541566
 51
90.0
  0
LINE
  5
A06
330
A
100
AcDbEntity
  8
INSTALLED
  6
Continuous
 62
     1
370
    -1
100
AcDbLine
 10
272.115653328209
 20
123.722241323297
 30
0.0
 11
276.615653328209
 21
129.722241323297
 31
0.0
  0
LINE
  5
A07
330
A
100
AcDbEntity
  8
INSTALLED
  6
Continuous
 62
     1
370
    -1
100
AcDbLine
 10
314.115653328209
 20
123.722241323297
 30
0.0
 11
309.615653328209
 21
129.722241323297
 31
0.0
  0
ARC
  5
A08
330
A
100
AcDbEntity
  8
INSTALLED
  6
Continuous
 62
     1
370
    -1
100
AcDbCircle
 10
315.615653328209
 20
134.222241323297
 30
0.0
 40
7.5
100
AcDbArc
 50
90.0
 51
216.8698976458433
  0
ARC
  5
A09
330
A
100
AcDbEntity
  8
INSTALLED
  6
Continuous
 62
     1
370
    -1
100
AcDbCircle
 10
308.115653328209
 20
119.222241323297
 30
0.0
 40
7.5
100
AcDbArc
 50
270.0
 51
36.86989764584339
  0
ARC
  5
A0A
330
A
100
AcDbEntity
  8
INSTALLED
  6
Continuous
 62
     1
370
    -1
100
AcDbCircle
 10
300.615653328209
 20
134.222241323297
 30
0.0
 40
7.5
100
AcDbArc
 50
323.1301023541566
 51
90.0
  0
LINE
  5
A0B
330
A
100
AcDbEntity
  8
INSTALLED
  6
Continuous
 62
     1
370
    -1
100
AcDbLine
 10
227.115653328209
 20
123.722241323297
 30
0.0
 11
231.615653328209
 21
129.722241323297
 31
0.0
  0
LINE
  5
A0C
330
A
100
AcDbEntity
  8
INSTALLED
  6
Continuous
 62
     1
370
    -1
100
AcDbLine
 10
239.115653328209
 20
123.722241323297
 30
0.0
 11
234.615653328209
 21
129.722241323297
 31
0.0
  0
LINE
  5
A0D
330
A
100
AcDbEntity
  8
INSTALLED
  6
Continuous
 62
     1
370
    -1
100
AcDbLine
 10
242.115653328209
 20
123.722241323297
 30
0.0
 11
246.615653328209
 21
129.722241323297
 31
0.0
  0
ARC
  5
A0E
330
A
100
AcDbEntity
  8
INSTALLED
  6
Continuous
 62
     1
370
    -1
100
AcDbCircle
 10
240.615653328209
 20
134.222241323297
 30
0.0
 40
7.5
100
AcDbArc
 50
90.0
 51
216.8698976458433
  0
ARC
  5
A0F
330
A
100
AcDbEntity
  8
INSTALLED
  6
Continuous
 62
     1
370
    -1
100
AcDbCircle
 10
225.615653328209
 20
134.222241323297
 30
0.0
 40
7.5
100
AcDbArc
 50
323.1301023541566
 51
90.0
  0
ARC
  5
A10
330
A
100
AcDbEntity
  8
INSTALLED
  6
Continuous
 62
     1
370
    -1
100
AcDbCircle
 10
248.115653328209
 20
119.222241323297
 30
0.0
 40
7.5
100
AcDbArc
 50
143.1301023541567
 51
270.0
  0
ARC
  5
A11
330
A
100
AcDbEntity
  8
INSTALLED
  6
Continuous
 62
     1
370
    -1
100
AcDbCircle
 10
233.115653328209
 20
119.222241323297
 30
0.0
 40
7.5
100
AcDbArc
 50
143.1301023541567
 51
270.0
  0
ARC
  5
A12
330
A
100
AcDbEntity
  8
INSTALLED
  6
Continuous
 62
     1
370
    -1
100
AcDbCircle
 10
233.115653328209
 20
119.222241323297
 30
0.0
 40
7.5
100
AcDbArc
 50
270.0
 51
36.86989764584339
  0
LINE
  5
A13
330
A
100
AcDbEntity
  8
INSTALLED
  6
Continuous
 62
     1
370
    -1
100
AcDbLine
 10
254.115653328209
 20
123.722241323297
 30
0.0
 11
249.615653328209
 21
129.722241323297
 31
0.0
  0
ARC
  5
A14
330
A
100
AcDbEntity
  8
INSTALLED
  6
Continuous
 62
     1
370
    -1
100
AcDbCircle
 10
255.615653328209
 20
134.222241323297
 30
0.0
 40
7.5
100
AcDbArc
 50
90.0
 51
216.8698976458433
  0
ARC
  5
A15
330
A
100
AcDbEntity
  8
INSTALLED
  6
Continuous
 62
     1
370
    -1
100
AcDbCircle
 10
248.115653328209
 20
119.222241323297
 30
0.0
 40
7.5
100
AcDbArc
 50
270.0
 51
36.86989764584339
  0
ARC
  5
A16
330
A
100
AcDbEntity
  8
INSTALLED
  6
Continuous
 62
     1
370
    -1
100
AcDbCircle
 10
240.615653328209
 20
134.222241323297
 30
0.0
 40
7.5
100
AcDbArc
 50
323.1301023541566
 51
90.0
  0
LINE
  5
A17
330
A
100
AcDbEntity
  8
INSTALLED
  6
Continuous
 62
     1
370
    -1
100
AcDbLine
 10
212.115653328209
 20
123.722241323297
 30
0.0
 11
216.615653328209
 21
129.722241323297
 31
0.0
  0
ARC
  5
A18
330
A
100
AcDbEntity
  8
INSTALLED
  6
Continuous
 62
     1
370
    -1
100
AcDbCircle
 10
218.115653328209
 20
119.222241323297
 30
0.0
 40
7.5
100
AcDbArc
 50
143.1301023541567
 51
270.0
  0
LINE
  5
A19
330
A
100
AcDbEntity
  8
INSTALLED
  6
Continuous
 62
     1
370
    -1
100
AcDbLine
 10
224.115653328209
 20
123.722241323297
 30
0.0
 11
219.615653328209
 21
129.722241323297
 31
0.0
  0
ARC
  5
A1A
330
A
100
AcDbEntity
  8
INSTALLED
  6
Continuous
 62
     1
370
    -1
100
AcDbCircle
 10
225.615653328209
 20
134.222241323297
 30
0.0
 40
7.5
100
AcDbArc
 50
90.0
 51
216.8698976458433
  0
ARC
  5
A1B
330
A
100
AcDbEntity
  8
INSTALLED
  6
Continuous
 62
     1
370
    -1
100
AcDbCircle
 10
218.115653328209
 20
119.222241323297
 30
0.0
 40
7.5
100
AcDbArc
 50
270.0
 51
36.86989764584339
  0
ARC
  5
A1C
330
A
100
AcDbEntity
  8
INSTALLED
  6
Continuous
 62
     1
370
    -1
100
AcDbCircle
 10
210.615653328209
 20
134.222241323297
 30
0.0
 40
7.5
100
AcDbArc
 50
323.1301023541566
 51
90.0
  0
LINE
  5
A1D
330
A
100
AcDbEntity
  8
INSTALLED
  6
Continuous
 62
     1
370
    -1
100
AcDbLine
 10
209.115653328209
 20
123.722241323297
 30
0.0
 11
204.615653328209
 21
129.722241323297
 31
0.0
  0
ARC
  5
A1E
330
A
100
AcDbEntity
  8
INSTALLED
  6
Continuous
 62
     1
370
    -1
100
AcDbCircle
 10
210.615653328209
 20
134.222241323297
 30
0.0
 40
7.5
100
AcDbArc
 50
90.0
 51
216.8698976458433
  0
ARC
  5
A1F
330
A
100
AcDbEntity
  8
INSTALLED
  6
Continuous
 62
     1
370
    -1
100
AcDbCircle
 10
203.115653328209
 20
119.222241323297
 30
0.0
 40
7.5
100
AcDbArc
 50
270.0
 51
36.86989764584339
  0
LINE
  5
A20
330
A
100
AcDbEntity
  8
INSTALLED
  6
Continuous
 62
     1
370
    -1
100
AcDbLine
 10
197.115653328209
 20
123.722241323297
 30
0.0
 11
201.615653328209
 21
129.722241323297
 31
0.0
  0
ARC
  5
A21
330
A
100
AcDbEntity
  8
INSTALLED
  6
Continuous
 62
     1
370
    -1
100
AcDbCircle
 10
203.115653328209
 20
119.222241323297
 30
0.0
 40
7.5
100
AcDbArc
 50
143.1301023541567
 51
270.0
  0
ARC
  5
A22
330
A
100
AcDbEntity
  8
INSTALLED
  6
Continuous
 62
     1
370
    -1
100
AcDbCircle
 10
195.615653328209
 20
134.222241323297
 30
0.0
 40
7.5
100
AcDbArc
 50
323.1301023541566
 51
90.0
  0
LINE
  5
A23
330
A
100
AcDbEntity
  8
DITRA
  6
Continuous
 62
    15
370
    -1
100
AcDbLine
 10
65.281989887044
 20
198.2951361425918
 30
0.0
 11
65.281989887044
 21
201.722241323297
 31
0.0
  0
LINE
  5
A24
102
{ACAD_REACTORS
330
18AB
102
}
330
A
100
AcDbEntity
  8
INSTALLED
  6
Continuous
 62
     1
370
    -1
100
AcDbLine
 10
810.615653328209
 20
204.722241323297
 30
0.0
 11
596.2168427882787
 21
204.722241323297
 31
0.0
  0
LINE
  5
A25
330
A
100
AcDbEntity
  8
DITRA
  6
Continuous
 62
    15
370
    -1
100
AcDbLine
 10
128.031989887044
 20
198.722241323297
 30
0.0
 11
142.531989887044
 21
198.722241323297
 31
0.0
  0
LINE
  5
A26
330
A
100
AcDbEntity
  8
DITRA
  6
Continuous
 62
    15
370
    -1
100
AcDbLine
 10
125.281989887044
 20
198.2951361425918
 30
0.0
 11
155.281989887044
 21
198.2951361425918
 31
0.0
  0
LINE
  5
A27
102
{ACAD_REACTORS
330
18AB
102
}
330
A
100
AcDbEntity
  8
INSTALLED
  6
Continuous
 62
     1
370
    -1
100
AcDbLine
 10
810.615653328209
 20
214.722241323297
 30
0.0
 11
596.2168427882787
 21
214.722241323297
 31
0.0
  0
LINE
  5
A29
102
{ACAD_REACTORS
330
EEE
102
}
330
A
100
AcDbEntity
  8
INSTALLED
  6
Continuous
 62
     1
370
    -1
100
AcDbLine
 10
810.615653328209
 20
111.722241323297
 30
0.0
 11
65.281989887044
 21
111.722241323297
 31
0.0
  0
LINE
  5
A35
330
A
100
AcDbEntity
  8
SCHLÜTER-BEKOTEC-EN
  6
Continuous
 62
   253
370
    -1
100
AcDbLine
 10
68.1156461756517
 20
184.7222404292273
 30
0.0
 11
79.11565356662766
 21
184.7222404292273
 31
0.0
  0
LINE
  5
A36
330
A
100
AcDbEntity
  8
SCHLÜTER-BEKOTEC-EN
  6
Continuous
 62
   253
370
    -1
100
AcDbLine
 10
83.11566167285935
 20
188.7222410848784
 30
0.0
 11
79.11565356662766
 21
184.7222404292273
 31
0.0
  0
LINE
  5
A74
330
A
100
AcDbEntity
  8
DITRA
  6
Continuous
 62
    15
370
    -1
100
AcDbLine
 10
65.28198988704389
 20
198.2951361425918
 30
0.0
 11
95.281989887044
 21
198.2951361425918
 31
0.0
  0
LINE
  5
A75
330
A
100
AcDbEntity
  8
DITRA
  6
Continuous
 62
    15
370
    -1
100
AcDbLine
 10
88.031989887044
 20
198.722241323297
 30
0.0
 11
95.281989887044
 21
198.722241323297
 31
0.0
  0
LINE
  5
A76
330
A
100
AcDbEntity
  8
DITRA
  6
Continuous
 62
    15
370
    -1
100
AcDbLine
 10
65.281989887044
 20
201.722241323297
 30
0.0
 11
68.781989887044
 21
201.722241323297
 31
0.0
  0
LINE
  5
A77
330
A
100
AcDbEntity
  8
DITRA
  6
Continuous
 62
    15
370
    -1
100
AcDbLine
 10
88.781989887044
 20
201.722241323297
 30
0.0
 11
88.031989887044
 21
198.722241323297
 31
0.0
  0
LINE
  5
A78
330
A
100
AcDbEntity
  8
DITRA
  6
Continuous
 62
    15
370
    -1
100
AcDbLine
 10
81.781989887044
 20
201.722241323297
 30
0.0
 11
82.531989887044
 21
198.722241323297
 31
0.0
  0
LINE
  5
A79
330
A
100
AcDbEntity
  8
DITRA
  6
Continuous
 62
    15
370
    -1
100
AcDbLine
 10
81.781989887044
 20
201.722241323297
 30
0.0
 11
88.781989887044
 21
201.722241323297
 31
0.0
  0
LINE
  5
A7A
330
A
100
AcDbEntity
  8
DITRA
  6
Continuous
 62
    15
370
    -1
100
AcDbLine
 10
68.781989887044
 20
201.722241323297
 30
0.0
 11
68.031989887044
 21
198.722241323297
 31
0.0
  0
LINE
  5
A7B
330
A
100
AcDbEntity
  8
DITRA
  6
Continuous
 62
    15
370
    -1
100
AcDbLine
 10
68.031989887044
 20
198.722241323297
 30
0.0
 11
82.531989887044
 21
198.722241323297
 31
0.0
  0
LINE
  5
A7C
330
A
100
AcDbEntity
  8
DITRA
  6
Continuous
 62
    15
370
    -1
100
AcDbLine
 10
122.531989887044
 20
198.722241323297
 30
0.0
 11
108.031989887044
 21
198.722241323297
 31
0.0
  0
LINE
  5
A7D
330
A
100
AcDbEntity
  8
DITRA
  6
Continuous
 62
    15
370
    -1
100
AcDbLine
 10
125.281989887044
 20
198.2951361425918
 30
0.0
 11
95.281989887044
 21
198.2951361425918
 31
0.0
  0
LINE
  5
A7E
330
A
100
AcDbEntity
  8
DITRA
  6
Continuous
 62
    15
370
    -1
100
AcDbLine
 10
101.781989887044
 20
201.722241323297
 30
0.0
 11
102.531989887044
 21
198.722241323297
 31
0.0
  0
LINE
  5
A7F
330
A
100
AcDbEntity
  8
DITRA
  6
Continuous
 62
    15
370
    -1
100
AcDbLine
 10
108.781989887044
 20
201.722241323297
 30
0.0
 11
108.031989887044
 21
198.722241323297
 31
0.0
  0
LINE
  5
A80
330
A
100
AcDbEntity
  8
DITRA
  6
Continuous
 62
    15
370
    -1
100
AcDbLine
 10
108.781989887044
 20
201.722241323297
 30
0.0
 11
101.781989887044
 21
201.722241323297
 31
0.0
  0
LINE
  5
A81
330
A
100
AcDbEntity
  8
DITRA
  6
Continuous
 62
    15
370
    -1
100
AcDbLine
 10
102.531989887044
 20
198.722241323297
 30
0.0
 11
95.281989887044
 21
198.722241323297
 31
0.0
  0
LINE
  5
A82
330
A
100
AcDbEntity
  8
DITRA
  6
Continuous
 62
    15
370
    -1
100
AcDbLine
 10
128.781989887044
 20
201.722241323297
 30
0.0
 11
128.031989887044
 21
198.722241323297
 31
0.0
  0
LINE
  5
A83
330
A
100
AcDbEntity
  8
DITRA
  6
Continuous
 62
    15
370
    -1
100
AcDbLine
 10
125.281989887044
 20
201.722241323297
 30
0.0
 11
128.781989887044
 21
201.722241323297
 31
0.0
  0
LINE
  5
A84
330
A
100
AcDbEntity
  8
DITRA
  6
Continuous
 62
    15
370
    -1
100
AcDbLine
 10
121.781989887044
 20
201.722241323297
 30
0.0
 11
122.531989887044
 21
198.722241323297
 31
0.0
  0
LINE
  5
A85
330
A
100
AcDbEntity
  8
DITRA
  6
Continuous
 62
    15
370
    -1
100
AcDbLine
 10
125.281989887044
 20
201.722241323297
 30
0.0
 11
121.781989887044
 21
201.722241323297
 31
0.0
  0
LINE
  5
A86
330
A
100
AcDbEntity
  8
DITRA
  6
Continuous
 62
    15
370
    -1
100
AcDbLine
 10
501.7819898870443
 20
201.722241323297
 30
0.0
 11
508.7819898870443
 21
201.722241323297
 31
0.0
  0
LINE
  5
A87
330
A
100
AcDbEntity
  8
DITRA
  6
Continuous
 62
    15
370
    -1
100
AcDbLine
 10
485.2819898870443
 20
198.2951361425918
 30
0.0
 11
515.2819898870443
 21
198.2951361425918
 31
0.0
  0
LINE
  5
A89
330
A
100
AcDbEntity
  8
DITRA
  6
Continuous
 62
    15
370
    -1
100
AcDbLine
 10
308.0319898870442
 20
198.722241323297
 30
0.0
 11
322.5319898870442
 21
198.722241323297
 31
0.0
  0
LINE
  5
A8A
330
A
100
AcDbEntity
  8
DITRA
  6
Continuous
 62
    15
370
    -1
100
AcDbLine
 10
305.2819898870441
 20
198.2951361425918
 30
0.0
 11
335.2819898870442
 21
198.2951361425918
 31
0.0
  0
LINE
  5
A91
330
A
100
AcDbEntity
  8
DITRA
  6
Continuous
 62
    15
370
    -1
100
AcDbLine
 10
228.7819898870441
 20
201.722241323297
 30
0.0
 11
228.0319898870441
 21
198.722241323297
 31
0.0
  0
LINE
  5
A92
330
A
100
AcDbEntity
  8
DITRA
  6
Continuous
 62
    15
370
    -1
100
AcDbLine
 10
228.7819898870441
 20
201.722241323297
 30
0.0
 11
221.7819898870441
 21
201.722241323297
 31
0.0
  0
LINE
  5
A93
330
A
100
AcDbEntity
  8
DITRA
  6
Continuous
 62
    15
370
    -1
100
AcDbLine
 10
245.2819898870441
 20
198.2951361425918
 30
0.0
 11
215.2819898870441
 21
198.2951361425918
 31
0.0
  0
LINE
  5
A94
330
A
100
AcDbEntity
  8
DITRA
  6
Continuous
 62
    15
370
    -1
100
AcDbLine
 10
242.5319898870441
 20
198.722241323297
 30
0.0
 11
228.0319898870441
 21
198.722241323297
 31
0.0
  0
LINE
  5
A95
330
A
100
AcDbEntity
  8
SCHLÜTER-BEKOTEC-EN
  6
Continuous
 62
   253
370
    -1
100
AcDbLine
 10
210.6156443875125
 20
182.722240101402
 30
0.0
 11
228.6156510632327
 21
182.722240101402
 31
0.0
  0
LINE
  5
AE1
330
A
100
AcDbEntity
  8
SCHLÜTER-BEKOTEC-EN
  6
Continuous
 62
   253
370
    -1
100
AcDbLine
 10
210.6156443875125
 20
182.722240101402
 30
0.0
 11
204.615647129326
 21
188.7222410848784
 31
0.0
  0
LINE
  5
AE5
330
A
100
AcDbEntity
  8
DITRA
  6
Continuous
 62
    15
370
    -1
100
AcDbLine
 10
185.281989887044
 20
201.722241323297
 30
0.0
 11
181.781989887044
 21
201.722241323297
 31
0.0
  0
LINE
  5
AE6
330
A
100
AcDbEntity
  8
DITRA
  6
Continuous
 62
    15
370
    -1
100
AcDbLine
 10
185.2819898870441
 20
198.2951361425918
 30
0.0
 11
155.281989887044
 21
198.2951361425918
 31
0.0
  0
LINE
  5
AE7
330
A
100
AcDbEntity
  8
DITRA
  6
Continuous
 62
    15
370
    -1
100
AcDbLine
 10
162.531989887044
 20
198.722241323297
 30
0.0
 11
155.281989887044
 21
198.722241323297
 31
0.0
  0
LINE
  5
AE8
330
A
100
AcDbEntity
  8
DITRA
  6
Continuous
 62
    15
370
    -1
100
AcDbLine
 10
148.781989887044
 20
201.722241323297
 30
0.0
 11
148.031989887044
 21
198.722241323297
 31
0.0
  0
LINE
  5
AE9
330
A
100
AcDbEntity
  8
DITRA
  6
Continuous
 62
    15
370
    -1
100
AcDbLine
 10
141.781989887044
 20
201.722241323297
 30
0.0
 11
142.531989887044
 21
198.722241323297
 31
0.0
  0
LINE
  5
AEA
330
A
100
AcDbEntity
  8
DITRA
  6
Continuous
 62
    15
370
    -1
100
AcDbLine
 10
141.781989887044
 20
201.722241323297
 30
0.0
 11
148.781989887044
 21
201.722241323297
 31
0.0
  0
LINE
  5
AEB
330
A
100
AcDbEntity
  8
DITRA
  6
Continuous
 62
    15
370
    -1
100
AcDbLine
 10
148.031989887044
 20
198.722241323297
 30
0.0
 11
155.281989887044
 21
198.722241323297
 31
0.0
  0
LINE
  5
AEC
330
A
100
AcDbEntity
  8
DITRA
  6
Continuous
 62
    15
370
    -1
100
AcDbLine
 10
181.781989887044
 20
201.722241323297
 30
0.0
 11
182.531989887044
 21
198.722241323297
 31
0.0
  0
LINE
  5
AED
330
A
100
AcDbEntity
  8
DITRA
  6
Continuous
 62
    15
370
    -1
100
AcDbLine
 10
168.781989887044
 20
201.722241323297
 30
0.0
 11
168.031989887044
 21
198.722241323297
 31
0.0
  0
LINE
  5
AEE
330
A
100
AcDbEntity
  8
DITRA
  6
Continuous
 62
    15
370
    -1
100
AcDbLine
 10
161.781989887044
 20
201.722241323297
 30
0.0
 11
162.531989887044
 21
198.722241323297
 31
0.0
  0
LINE
  5
AEF
330
A
100
AcDbEntity
  8
DITRA
  6
Continuous
 62
    15
370
    -1
100
AcDbLine
 10
168.781989887044
 20
201.722241323297
 30
0.0
 11
161.781989887044
 21
201.722241323297
 31
0.0
  0
LINE
  5
AF0
330
A
100
AcDbEntity
  8
DITRA
  6
Continuous
 62
    15
370
    -1
100
AcDbLine
 10
182.531989887044
 20
198.722241323297
 30
0.0
 11
168.031989887044
 21
198.722241323297
 31
0.0
  0
LINE
  5
AF1
330
A
100
AcDbEntity
  8
DITRA
  6
Continuous
 62
    15
370
    -1
100
AcDbLine
 10
201.7819898870441
 20
201.722241323297
 30
0.0
 11
208.7819898870441
 21
201.722241323297
 31
0.0
  0
LINE
  5
AF2
330
A
100
AcDbEntity
  8
DITRA
  6
Continuous
 62
    15
370
    -1
100
AcDbLine
 10
185.2819898870441
 20
198.2951361425918
 30
0.0
 11
215.2819898870441
 21
198.2951361425918
 31
0.0
  0
LINE
  5
AF3
330
A
100
AcDbEntity
  8
DITRA
  6
Continuous
 62
    15
370
    -1
100
AcDbLine
 10
201.7819898870441
 20
201.722241323297
 30
0.0
 11
202.5319898870441
 21
198.722241323297
 31
0.0
  0
LINE
  5
AF4
330
A
100
AcDbEntity
  8
DITRA
  6
Continuous
 62
    15
370
    -1
100
AcDbLine
 10
188.7819898870441
 20
201.722241323297
 30
0.0
 11
188.0319898870441
 21
198.722241323297
 31
0.0
  0
LINE
  5
AF5
330
A
100
AcDbEntity
  8
DITRA
  6
Continuous
 62
    15
370
    -1
100
AcDbLine
 10
185.2819898870441
 20
201.722241323297
 30
0.0
 11
188.7819898870441
 21
201.722241323297
 31
0.0
  0
LINE
  5
AF6
330
A
100
AcDbEntity
  8
DITRA
  6
Continuous
 62
    15
370
    -1
100
AcDbLine
 10
188.0319898870441
 20
198.722241323297
 30
0.0
 11
202.5319898870441
 21
198.722241323297
 31
0.0
  0
LINE
  5
AF7
330
A
100
AcDbEntity
  8
DITRA
  6
Continuous
 62
    15
370
    -1
100
AcDbLine
 10
222.5319898870441
 20
198.722241323297
 30
0.0
 11
215.2819898870441
 21
198.722241323297
 31
0.0
  0
LINE
  5
AF8
330
A
100
AcDbEntity
  8
DITRA
  6
Continuous
 62
    15
370
    -1
100
AcDbLine
 10
221.7819898870441
 20
201.722241323297
 30
0.0
 11
222.5319898870441
 21
198.722241323297
 31
0.0
  0
LINE
  5
AF9
330
A
100
AcDbEntity
  8
DITRA
  6
Continuous
 62
    15
370
    -1
100
AcDbLine
 10
208.7819898870441
 20
201.722241323297
 30
0.0
 11
208.0319898870441
 21
198.722241323297
 31
0.0
  0
LINE
  5
AFA
330
A
100
AcDbEntity
  8
DITRA
  6
Continuous
 62
    15
370
    -1
100
AcDbLine
 10
208.0319898870441
 20
198.722241323297
 30
0.0
 11
215.2819898870441
 21
198.722241323297
 31
0.0
  0
LINE
  5
B00
330
A
100
AcDbEntity
  8
SCHLÜTER-BEKOTEC-EN
  6
Continuous
 62
   253
370
    -1
100
AcDbLine
 10
234.615648321419
 20
188.7222410848784
 30
0.0
 11
228.6156510632327
 21
182.722240101402
 31
0.0
  0
LINE
  5
B4C
330
A
100
AcDbEntity
  8
DITRA
  6
Continuous
 62
    15
370
    -1
100
AcDbLine
 10
268.0319898870441
 20
198.722241323297
 30
0.0
 11
275.2819898870441
 21
198.722241323297
 31
0.0
  0
LINE
  5
B4D
330
A
100
AcDbEntity
  8
DITRA
  6
Continuous
 62
    15
370
    -1
100
AcDbLine
 10
245.2819898870441
 20
198.2951361425918
 30
0.0
 11
275.2819898870441
 21
198.2951361425918
 31
0.0
  0
LINE
  5
B4E
330
A
100
AcDbEntity
  8
DITRA
  6
Continuous
 62
    15
370
    -1
100
AcDbLine
 10
248.0319898870441
 20
198.722241323297
 30
0.0
 11
262.5319898870441
 21
198.722241323297
 31
0.0
  0
LINE
  5
B4F
330
A
100
AcDbEntity
  8
DITRA
  6
Continuous
 62
    15
370
    -1
100
AcDbLine
 10
248.7819898870441
 20
201.722241323297
 30
0.0
 11
248.0319898870441
 21
198.722241323297
 31
0.0
  0
LINE
  5
B50
330
A
100
AcDbEntity
  8
DITRA
  6
Continuous
 62
    15
370
    -1
100
AcDbLine
 10
245.2819898870441
 20
201.722241323297
 30
0.0
 11
248.7819898870441
 21
201.722241323297
 31
0.0
  0
LINE
  5
B51
330
A
100
AcDbEntity
  8
DITRA
  6
Continuous
 62
    15
370
    -1
100
AcDbLine
 10
241.7819898870441
 20
201.722241323297
 30
0.0
 11
242.5319898870441
 21
198.722241323297
 31
0.0
  0
LINE
  5
B52
330
A
100
AcDbEntity
  8
DITRA
  6
Continuous
 62
    15
370
    -1
100
AcDbLine
 10
245.2819898870441
 20
201.722241323297
 30
0.0
 11
241.7819898870441
 21
201.722241323297
 31
0.0
  0
LINE
  5
B53
330
A
100
AcDbEntity
  8
DITRA
  6
Continuous
 62
    15
370
    -1
100
AcDbLine
 10
268.7819898870441
 20
201.722241323297
 30
0.0
 11
268.0319898870441
 21
198.722241323297
 31
0.0
  0
LINE
  5
B54
330
A
100
AcDbEntity
  8
DITRA
  6
Continuous
 62
    15
370
    -1
100
AcDbLine
 10
261.7819898870441
 20
201.722241323297
 30
0.0
 11
262.5319898870441
 21
198.722241323297
 31
0.0
  0
LINE
  5
B55
330
A
100
AcDbEntity
  8
DITRA
  6
Continuous
 62
    15
370
    -1
100
AcDbLine
 10
261.7819898870441
 20
201.722241323297
 30
0.0
 11
268.7819898870441
 21
201.722241323297
 31
0.0
  0
LINE
  5
B56
330
A
100
AcDbEntity
  8
DITRA
  6
Continuous
 62
    15
370
    -1
100
AcDbLine
 10
305.2819898870441
 20
198.2951361425918
 30
0.0
 11
275.2819898870441
 21
198.2951361425918
 31
0.0
  0
LINE
  5
B57
330
A
100
AcDbEntity
  8
DITRA
  6
Continuous
 62
    15
370
    -1
100
AcDbLine
 10
302.5319898870441
 20
198.722241323297
 30
0.0
 11
288.0319898870441
 21
198.722241323297
 31
0.0
  0
LINE
  5
B58
102
{ACAD_REACTORS
330
18AB
102
}
330
A
100
AcDbEntity
  8
INSTALLED
  6
Continuous
 62
     1
370
    -1
100
AcDbLine
 10
296.2168427882787
 20
204.722241323297
 30
0.0
 11
296.2168427882787
 21
214.722241323297
 31
0.0
  0
LINE
  5
B59
102
{ACAD_REACTORS
330
18AB
102
}
330
A
100
AcDbEntity
  8
INSTALLED
  6
Continuous
 62
     1
370
    -1
100
AcDbLine
 10
292.2168427882787
 20
204.722241323297
 30
0.0
 11
292.2168427882787
 21
214.722241323297
 31
0.0
  0
LINE
  5
B5A
330
A
100
AcDbEntity
  8
DITRA
  6
Continuous
 62
    15
370
    -1
100
AcDbLine
 10
288.7819898870441
 20
201.722241323297
 30
0.0
 11
288.0319898870441
 21
198.722241323297
 31
0.0
  0
LINE
  5
B5B
330
A
100
AcDbEntity
  8
DITRA
  6
Continuous
 62
    15
370
    -1
100
AcDbLine
 10
282.5319898870441
 20
198.722241323297
 30
0.0
 11
275.2819898870441
 21
198.722241323297
 31
0.0
  0
LINE
  5
B5C
330
A
100
AcDbEntity
  8
DITRA
  6
Continuous
 62
    15
370
    -1
100
AcDbLine
 10
281.7819898870441
 20
201.722241323297
 30
0.0
 11
282.5319898870441
 21
198.722241323297
 31
0.0
  0
LINE
  5
B5D
330
A
100
AcDbEntity
  8
DITRA
  6
Continuous
 62
    15
370
    -1
100
AcDbLine
 10
288.7819898870441
 20
201.722241323297
 30
0.0
 11
281.7819898870441
 21
201.722241323297
 31
0.0
  0
LINE
  5
B5E
330
A
100
AcDbEntity
  8
DITRA
  6
Continuous
 62
    15
370
    -1
100
AcDbLine
 10
308.7819898870442
 20
201.722241323297
 30
0.0
 11
308.0319898870442
 21
198.722241323297
 31
0.0
  0
LINE
  5
B5F
330
A
100
AcDbEntity
  8
DITRA
  6
Continuous
 62
    15
370
    -1
100
AcDbLine
 10
305.2819898870442
 20
201.722241323297
 30
0.0
 11
308.7819898870442
 21
201.722241323297
 31
0.0
  0
LINE
  5
B60
330
A
100
AcDbEntity
  8
DITRA
  6
Continuous
 62
    15
370
    -1
100
AcDbLine
 10
301.7819898870441
 20
201.722241323297
 30
0.0
 11
302.5319898870441
 21
198.722241323297
 31
0.0
  0
LINE
  5
B61
330
A
100
AcDbEntity
  8
DITRA
  6
Continuous
 62
    15
370
    -1
100
AcDbLine
 10
305.2819898870441
 20
201.722241323297
 30
0.0
 11
301.7819898870441
 21
201.722241323297
 31
0.0
  0
LINE
  5
B62
330
A
100
AcDbEntity
  8
DITRA
  6
Continuous
 62
    15
370
    -1
100
AcDbLine
 10
425.2819898870443
 20
198.2951361425918
 30
0.0
 11
395.2819898870442
 21
198.2951361425918
 31
0.0
  0
LINE
  5
B63
330
A
100
AcDbEntity
  8
DITRA
  6
Continuous
 62
    15
370
    -1
100
AcDbLine
 10
422.5319898870442
 20
198.722241323297
 30
0.0
 11
408.0319898870442
 21
198.722241323297
 31
0.0
  0
LINE
  5
B6A
330
A
100
AcDbEntity
  8
SCHLÜTER-BEKOTEC-EN
  6
Continuous
 62
   253
370
    -1
100
AcDbLine
 10
362.1156533878138
 20
182.722240101402
 30
0.0
 11
380.1156488876632
 21
182.722240101402
 31
0.0
  0
LINE
  5
BB9
330
A
100
AcDbEntity
  8
SCHLÜTER-BEKOTEC-EN
  6
Continuous
 62
   253
370
    -1
100
AcDbLine
 10
362.1156533878138
 20
182.722240101402
 30
0.0
 11
356.1156486790469
 21
188.7222410848784
 31
0.0
  0
LINE
  5
BBB
330
A
100
AcDbEntity
  8
SCHLÜTER-BEKOTEC-EN
  6
Continuous
 62
   253
370
    -1
100
AcDbLine
 10
386.1156498711398
 20
188.7222410848784
 30
0.0
 11
380.1156488876632
 21
182.722240101402
 31
0.0
  0
LINE
  5
BC0
330
A
100
AcDbEntity
  8
DITRA
  6
Continuous
 62
    15
370
    -1
100
AcDbLine
 10
365.2819898870442
 20
201.722241323297
 30
0.0
 11
368.7819898870442
 21
201.722241323297
 31
0.0
  0
LINE
  5
BC1
330
A
100
AcDbEntity
  8
DITRA
  6
Continuous
 62
    15
370
    -1
100
AcDbLine
 10
365.2819898870442
 20
198.2951361425918
 30
0.0
 11
395.2819898870442
 21
198.2951361425918
 31
0.0
  0
LINE
  5
BC2
330
A
100
AcDbEntity
  8
DITRA
  6
Continuous
 62
    15
370
    -1
100
AcDbLine
 10
348.7819898870442
 20
201.722241323297
 30
0.0
 11
341.7819898870442
 21
201.722241323297
 31
0.0
  0
LINE
  5
BC3
330
A
100
AcDbEntity
  8
DITRA
  6
Continuous
 62
    15
370
    -1
100
AcDbLine
 10
365.2819898870442
 20
198.2951361425918
 30
0.0
 11
335.2819898870442
 21
198.2951361425918
 31
0.0
  0
LINE
  5
BC4
330
A
100
AcDbEntity
  8
DITRA
  6
Continuous
 62
    15
370
    -1
100
AcDbLine
 10
342.5319898870442
 20
198.722241323297
 30
0.0
 11
335.2819898870442
 21
198.722241323297
 31
0.0
  0
LINE
  5
BC5
330
A
100
AcDbEntity
  8
DITRA
  6
Continuous
 62
    15
370
    -1
100
AcDbLine
 10
341.7819898870442
 20
201.722241323297
 30
0.0
 11
342.5319898870442
 21
198.722241323297
 31
0.0
  0
LINE
  5
BC6
330
A
100
AcDbEntity
  8
DITRA
  6
Continuous
 62
    15
370
    -1
100
AcDbLine
 10
328.7819898870442
 20
201.722241323297
 30
0.0
 11
328.0319898870442
 21
198.722241323297
 31
0.0
  0
LINE
  5
BC7
330
A
100
AcDbEntity
  8
DITRA
  6
Continuous
 62
    15
370
    -1
100
AcDbLine
 10
321.7819898870442
 20
201.722241323297
 30
0.0
 11
322.5319898870442
 21
198.722241323297
 31
0.0
  0
LINE
  5
BC8
330
A
100
AcDbEntity
  8
DITRA
  6
Continuous
 62
    15
370
    -1
100
AcDbLine
 10
321.7819898870442
 20
201.722241323297
 30
0.0
 11
328.7819898870442
 21
201.722241323297
 31
0.0
  0
LINE
  5
BC9
330
A
100
AcDbEntity
  8
DITRA
  6
Continuous
 62
    15
370
    -1
100
AcDbLine
 10
328.0319898870442
 20
198.722241323297
 30
0.0
 11
335.2819898870442
 21
198.722241323297
 31
0.0
  0
LINE
  5
BCA
330
A
100
AcDbEntity
  8
DITRA
  6
Continuous
 62
    15
370
    -1
100
AcDbLine
 10
361.7819898870442
 20
201.722241323297
 30
0.0
 11
362.5319898870442
 21
198.722241323297
 31
0.0
  0
LINE
  5
BCB
330
A
100
AcDbEntity
  8
DITRA
  6
Continuous
 62
    15
370
    -1
100
AcDbLine
 10
365.2819898870442
 20
201.722241323297
 30
0.0
 11
361.7819898870442
 21
201.722241323297
 31
0.0
  0
LINE
  5
BCC
330
A
100
AcDbEntity
  8
DITRA
  6
Continuous
 62
    15
370
    -1
100
AcDbLine
 10
348.7819898870442
 20
201.722241323297
 30
0.0
 11
348.0319898870442
 21
198.722241323297
 31
0.0
  0
LINE
  5
BCD
330
A
100
AcDbEntity
  8
DITRA
  6
Continuous
 62
    15
370
    -1
100
AcDbLine
 10
362.5319898870442
 20
198.722241323297
 30
0.0
 11
348.0319898870442
 21
198.722241323297
 31
0.0
  0
LINE
  5
BCE
330
A
100
AcDbEntity
  8
DITRA
  6
Continuous
 62
    15
370
    -1
100
AcDbLine
 10
388.0319898870442
 20
198.722241323297
 30
0.0
 11
395.2819898870442
 21
198.722241323297
 31
0.0
  0
LINE
  5
BCF
330
A
100
AcDbEntity
  8
DITRA
  6
Continuous
 62
    15
370
    -1
100
AcDbLine
 10
388.7819898870442
 20
201.722241323297
 30
0.0
 11
388.0319898870442
 21
198.722241323297
 31
0.0
  0
LINE
  5
BD0
330
A
100
AcDbEntity
  8
DITRA
  6
Continuous
 62
    15
370
    -1
100
AcDbLine
 10
381.7819898870442
 20
201.722241323297
 30
0.0
 11
382.5319898870442
 21
198.722241323297
 31
0.0
  0
LINE
  5
BD1
330
A
100
AcDbEntity
  8
DITRA
  6
Continuous
 62
    15
370
    -1
100
AcDbLine
 10
381.7819898870442
 20
201.722241323297
 30
0.0
 11
388.7819898870442
 21
201.722241323297
 31
0.0
  0
LINE
  5
BD2
330
A
100
AcDbEntity
  8
DITRA
  6
Continuous
 62
    15
370
    -1
100
AcDbLine
 10
368.7819898870442
 20
201.722241323297
 30
0.0
 11
368.0319898870442
 21
198.722241323297
 31
0.0
  0
LINE
  5
BD3
330
A
100
AcDbEntity
  8
DITRA
  6
Continuous
 62
    15
370
    -1
100
AcDbLine
 10
368.0319898870442
 20
198.722241323297
 30
0.0
 11
382.5319898870442
 21
198.722241323297
 31
0.0
  0
LINE
  5
BD4
330
A
100
AcDbEntity
  8
DITRA
  6
Continuous
 62
    15
370
    -1
100
AcDbLine
 10
408.7819898870442
 20
201.722241323297
 30
0.0
 11
408.0319898870442
 21
198.722241323297
 31
0.0
  0
LINE
  5
BD5
330
A
100
AcDbEntity
  8
DITRA
  6
Continuous
 62
    15
370
    -1
100
AcDbLine
 10
402.5319898870442
 20
198.722241323297
 30
0.0
 11
395.2819898870442
 21
198.722241323297
 31
0.0
  0
LINE
  5
BD6
330
A
100
AcDbEntity
  8
DITRA
  6
Continuous
 62
    15
370
    -1
100
AcDbLine
 10
401.7819898870442
 20
201.722241323297
 30
0.0
 11
402.5319898870442
 21
198.722241323297
 31
0.0
  0
LINE
  5
BD7
330
A
100
AcDbEntity
  8
DITRA
  6
Continuous
 62
    15
370
    -1
100
AcDbLine
 10
408.7819898870442
 20
201.722241323297
 30
0.0
 11
401.7819898870442
 21
201.722241323297
 31
0.0
  0
LINE
  5
C5E
330
A
100
AcDbEntity
  8
DITRA
  6
Continuous
 62
    15
370
    -1
100
AcDbLine
 10
462.5319898870443
 20
198.722241323297
 30
0.0
 11
455.2819898870443
 21
198.722241323297
 31
0.0
  0
LINE
  5
C5F
330
A
100
AcDbEntity
  8
DITRA
  6
Continuous
 62
    15
370
    -1
100
AcDbLine
 10
485.2819898870443
 20
198.2951361425918
 30
0.0
 11
455.2819898870443
 21
198.2951361425918
 31
0.0
  0
LINE
  5
C60
330
A
100
AcDbEntity
  8
DITRA
  6
Continuous
 62
    15
370
    -1
100
AcDbLine
 10
428.0319898870443
 20
198.722241323297
 30
0.0
 11
442.5319898870443
 21
198.722241323297
 31
0.0
  0
LINE
  5
C61
330
A
100
AcDbEntity
  8
DITRA
  6
Continuous
 62
    15
370
    -1
100
AcDbLine
 10
425.2819898870443
 20
198.2951361425918
 30
0.0
 11
455.2819898870443
 21
198.2951361425918
 31
0.0
  0
LINE
  5
C62
330
A
100
AcDbEntity
  8
DITRA
  6
Continuous
 62
    15
370
    -1
100
AcDbLine
 10
428.7819898870443
 20
201.722241323297
 30
0.0
 11
428.0319898870443
 21
198.722241323297
 31
0.0
  0
LINE
  5
C63
330
A
100
AcDbEntity
  8
DITRA
  6
Continuous
 62
    15
370
    -1
100
AcDbLine
 10
425.2819898870443
 20
201.722241323297
 30
0.0
 11
428.7819898870443
 21
201.722241323297
 31
0.0
  0
LINE
  5
C64
330
A
100
AcDbEntity
  8
DITRA
  6
Continuous
 62
    15
370
    -1
100
AcDbLine
 10
421.7819898870442
 20
201.722241323297
 30
0.0
 11
422.5319898870442
 21
198.722241323297
 31
0.0
  0
LINE
  5
C65
330
A
100
AcDbEntity
  8
DITRA
  6
Continuous
 62
    15
370
    -1
100
AcDbLine
 10
425.2819898870442
 20
201.722241323297
 30
0.0
 11
421.7819898870442
 21
201.722241323297
 31
0.0
  0
LINE
  5
C66
330
A
100
AcDbEntity
  8
DITRA
  6
Continuous
 62
    15
370
    -1
100
AcDbLine
 10
448.7819898870443
 20
201.722241323297
 30
0.0
 11
448.0319898870443
 21
198.722241323297
 31
0.0
  0
LINE
  5
C67
330
A
100
AcDbEntity
  8
DITRA
  6
Continuous
 62
    15
370
    -1
100
AcDbLine
 10
441.7819898870443
 20
201.722241323297
 30
0.0
 11
442.5319898870443
 21
198.722241323297
 31
0.0
  0
LINE
  5
C68
330
A
100
AcDbEntity
  8
DITRA
  6
Continuous
 62
    15
370
    -1
100
AcDbLine
 10
441.7819898870443
 20
201.722241323297
 30
0.0
 11
448.7819898870443
 21
201.722241323297
 31
0.0
  0
LINE
  5
C69
330
A
100
AcDbEntity
  8
DITRA
  6
Continuous
 62
    15
370
    -1
100
AcDbLine
 10
448.0319898870443
 20
198.722241323297
 30
0.0
 11
455.2819898870443
 21
198.722241323297
 31
0.0
  0
LINE
  5
C6A
330
A
100
AcDbEntity
  8
DITRA
  6
Continuous
 62
    15
370
    -1
100
AcDbLine
 10
482.5319898870443
 20
198.722241323297
 30
0.0
 11
468.0319898870443
 21
198.722241323297
 31
0.0
  0
LINE
  5
C6B
330
A
100
AcDbEntity
  8
DITRA
  6
Continuous
 62
    15
370
    -1
100
AcDbLine
 10
468.7819898870443
 20
201.722241323297
 30
0.0
 11
468.0319898870443
 21
198.722241323297
 31
0.0
  0
LINE
  5
C6C
330
A
100
AcDbEntity
  8
DITRA
  6
Continuous
 62
    15
370
    -1
100
AcDbLine
 10
461.7819898870443
 20
201.722241323297
 30
0.0
 11
462.5319898870443
 21
198.722241323297
 31
0.0
  0
LINE
  5
C6D
330
A
100
AcDbEntity
  8
DITRA
  6
Continuous
 62
    15
370
    -1
100
AcDbLine
 10
468.7819898870443
 20
201.722241323297
 30
0.0
 11
461.7819898870443
 21
201.722241323297
 31
0.0
  0
LINE
  5
C6E
330
A
100
AcDbEntity
  8
DITRA
  6
Continuous
 62
    15
370
    -1
100
AcDbLine
 10
501.7819898870443
 20
201.722241323297
 30
0.0
 11
502.5319898870443
 21
198.722241323297
 31
0.0
  0
LINE
  5
C6F
330
A
100
AcDbEntity
  8
DITRA
  6
Continuous
 62
    15
370
    -1
100
AcDbLine
 10
488.7819898870443
 20
201.722241323297
 30
0.0
 11
488.0319898870443
 21
198.722241323297
 31
0.0
  0
LINE
  5
C70
330
A
100
AcDbEntity
  8
DITRA
  6
Continuous
 62
    15
370
    -1
100
AcDbLine
 10
485.2819898870443
 20
201.722241323297
 30
0.0
 11
488.7819898870443
 21
201.722241323297
 31
0.0
  0
LINE
  5
C71
330
A
100
AcDbEntity
  8
DITRA
  6
Continuous
 62
    15
370
    -1
100
AcDbLine
 10
488.0319898870443
 20
198.722241323297
 30
0.0
 11
502.5319898870443
 21
198.722241323297
 31
0.0
  0
LINE
  5
C72
330
A
100
AcDbEntity
  8
DITRA
  6
Continuous
 62
    15
370
    -1
100
AcDbLine
 10
481.7819898870443
 20
201.722241323297
 30
0.0
 11
482.5319898870443
 21
198.722241323297
 31
0.0
  0
LINE
  5
C73
330
A
100
AcDbEntity
  8
DITRA
  6
Continuous
 62
    15
370
    -1
100
AcDbLine
 10
485.2819898870443
 20
201.722241323297
 30
0.0
 11
481.7819898870443
 21
201.722241323297
 31
0.0
  0
LINE
  5
C74
330
A
100
AcDbEntity
  8
DITRA
  6
Continuous
 62
    15
370
    -1
100
AcDbLine
 10
681.7819898870445
 20
201.722241323297
 30
0.0
 11
688.7819898870445
 21
201.722241323297
 31
0.0
  0
LINE
  5
C75
330
A
100
AcDbEntity
  8
DITRA
  6
Continuous
 62
    15
370
    -1
100
AcDbLine
 10
665.2819898870443
 20
198.2951361425918
 30
0.0
 11
695.2819898870445
 21
198.2951361425918
 31
0.0
  0
LINE
  5
C76
330
A
100
AcDbEntity
  8
SCHLÜTER-BEKOTEC-EN
  6
Continuous
 62
   253
370
    -1
100
AcDbLine
 10
689.1156529705811
 20
188.7222410848784
 30
0.0
 11
683.1156557123948
 21
182.722240101402
 31
0.0
  0
LINE
  5
C78
330
A
100
AcDbEntity
  8
DITRA
  6
Continuous
 62
    15
370
    -1
100
AcDbLine
 10
605.2819898870443
 20
198.2951361425918
 30
0.0
 11
575.2819898870443
 21
198.2951361425918
 31
0.0
  0
LINE
  5
C79
330
A
100
AcDbEntity
  8
DITRA
  6
Continuous
 62
    15
370
    -1
100
AcDbLine
 10
602.5319898870443
 20
198.722241323297
 30
0.0
 11
588.0319898870443
 21
198.722241323297
 31
0.0
  0
LINE
  5
C81
330
A
100
AcDbEntity
  8
SCHLÜTER-BEKOTEC-EN
  6
Continuous
 62
   253
370
    -1
100
AcDbLine
 10
513.615647486954
 20
182.722240101402
 30
0.0
 11
531.6156467120936
 21
182.722240101402
 31
0.0
  0
LINE
  5
C83
330
A
100
AcDbEntity
  8
SCHLÜTER-BEKOTEC-EN
  6
Continuous
 62
   253
370
    -1
100
AcDbLine
 10
513.615647486954
 20
182.722240101402
 30
0.0
 11
507.6156502287677
 21
188.7222410848784
 31
0.0
  0
LINE
  5
C84
330
A
100
AcDbEntity
  8
SCHLÜTER-BEKOTEC-EN
  6
Continuous
 62
   253
370
    -1
100
AcDbLine
 10
537.6156514208603
 20
188.7222410848784
 30
0.0
 11
531.6156467120936
 21
182.722240101402
 31
0.0
  0
LINE
  5
CD1
330
A
100
AcDbEntity
  8
DITRA
  6
Continuous
 62
    15
370
    -1
100
AcDbLine
 10
548.0319898870443
 20
198.722241323297
 30
0.0
 11
562.5319898870443
 21
198.722241323297
 31
0.0
  0
LINE
  5
CD2
330
A
100
AcDbEntity
  8
DITRA
  6
Continuous
 62
    15
370
    -1
100
AcDbLine
 10
545.2819898870443
 20
198.2951361425918
 30
0.0
 11
575.2819898870443
 21
198.2951361425918
 31
0.0
  0
LINE
  5
CD3
330
A
100
AcDbEntity
  8
DITRA
  6
Continuous
 62
    15
370
    -1
100
AcDbLine
 10
528.7819898870443
 20
201.722241323297
 30
0.0
 11
521.7819898870443
 21
201.722241323297
 31
0.0
  0
LINE
  5
CD4
330
A
100
AcDbEntity
  8
DITRA
  6
Continuous
 62
    15
370
    -1
100
AcDbLine
 10
545.2819898870443
 20
198.2951361425918
 30
0.0
 11
515.2819898870443
 21
198.2951361425918
 31
0.0
  0
LINE
  5
CD5
330
A
100
AcDbEntity
  8
DITRA
  6
Continuous
 62
    15
370
    -1
100
AcDbLine
 10
522.5319898870443
 20
198.722241323297
 30
0.0
 11
515.2819898870443
 21
198.722241323297
 31
0.0
  0
LINE
  5
CD6
330
A
100
AcDbEntity
  8
DITRA
  6
Continuous
 62
    15
370
    -1
100
AcDbLine
 10
521.7819898870443
 20
201.722241323297
 30
0.0
 11
522.5319898870443
 21
198.722241323297
 31
0.0
  0
LINE
  5
CD7
330
A
100
AcDbEntity
  8
DITRA
  6
Continuous
 62
    15
370
    -1
100
AcDbLine
 10
508.7819898870443
 20
201.722241323297
 30
0.0
 11
508.0319898870443
 21
198.722241323297
 31
0.0
  0
LINE
  5
CD8
330
A
100
AcDbEntity
  8
DITRA
  6
Continuous
 62
    15
370
    -1
100
AcDbLine
 10
508.0319898870443
 20
198.722241323297
 30
0.0
 11
515.2819898870443
 21
198.722241323297
 31
0.0
  0
LINE
  5
CD9
330
A
100
AcDbEntity
  8
DITRA
  6
Continuous
 62
    15
370
    -1
100
AcDbLine
 10
548.7819898870443
 20
201.722241323297
 30
0.0
 11
548.0319898870443
 21
198.722241323297
 31
0.0
  0
LINE
  5
CDA
330
A
100
AcDbEntity
  8
DITRA
  6
Continuous
 62
    15
370
    -1
100
AcDbLine
 10
545.2819898870443
 20
201.722241323297
 30
0.0
 11
548.7819898870443
 21
201.722241323297
 31
0.0
  0
LINE
  5
CDB
330
A
100
AcDbEntity
  8
DITRA
  6
Continuous
 62
    15
370
    -1
100
AcDbLine
 10
541.7819898870443
 20
201.722241323297
 30
0.0
 11
542.5319898870443
 21
198.722241323297
 31
0.0
  0
LINE
  5
CDC
330
A
100
AcDbEntity
  8
DITRA
  6
Continuous
 62
    15
370
    -1
100
AcDbLine
 10
545.2819898870443
 20
201.722241323297
 30
0.0
 11
541.7819898870443
 21
201.722241323297
 31
0.0
  0
LINE
  5
CDD
330
A
100
AcDbEntity
  8
DITRA
  6
Continuous
 62
    15
370
    -1
100
AcDbLine
 10
528.7819898870443
 20
201.722241323297
 30
0.0
 11
528.0319898870443
 21
198.722241323297
 31
0.0
  0
LINE
  5
CDE
330
A
100
AcDbEntity
  8
DITRA
  6
Continuous
 62
    15
370
    -1
100
AcDbLine
 10
542.5319898870443
 20
198.722241323297
 30
0.0
 11
528.0319898870443
 21
198.722241323297
 31
0.0
  0
LINE
  5
CDF
330
A
100
AcDbEntity
  8
DITRA
  6
Continuous
 62
    15
370
    -1
100
AcDbLine
 10
568.0319898870443
 20
198.722241323297
 30
0.0
 11
575.2819898870443
 21
198.722241323297
 31
0.0
  0
LINE
  5
CE0
330
A
100
AcDbEntity
  8
DITRA
  6
Continuous
 62
    15
370
    -1
100
AcDbLine
 10
568.7819898870443
 20
201.722241323297
 30
0.0
 11
568.0319898870443
 21
198.722241323297
 31
0.0
  0
LINE
  5
CE1
330
A
100
AcDbEntity
  8
DITRA
  6
Continuous
 62
    15
370
    -1
100
AcDbLine
 10
561.7819898870443
 20
201.722241323297
 30
0.0
 11
562.5319898870443
 21
198.722241323297
 31
0.0
  0
LINE
  5
CE2
330
A
100
AcDbEntity
  8
DITRA
  6
Continuous
 62
    15
370
    -1
100
AcDbLine
 10
561.7819898870443
 20
201.722241323297
 30
0.0
 11
568.7819898870443
 21
201.722241323297
 31
0.0
  0
LINE
  5
CE3
102
{ACAD_REACTORS
330
18AB
102
}
330
A
100
AcDbEntity
  8
INSTALLED
  6
Continuous
 62
     1
370
    -1
100
AcDbLine
 10
592.2168427882787
 20
204.722241323297
 30
0.0
 11
592.2168427882787
 21
214.722241323297
 31
0.0
  0
LINE
  5
CE4
330
A
100
AcDbEntity
  8
DITRA
  6
Continuous
 62
    15
370
    -1
100
AcDbLine
 10
588.7819898870443
 20
201.722241323297
 30
0.0
 11
588.0319898870443
 21
198.722241323297
 31
0.0
  0
LINE
  5
CE5
330
A
100
AcDbEntity
  8
DITRA
  6
Continuous
 62
    15
370
    -1
100
AcDbLine
 10
582.5319898870443
 20
198.722241323297
 30
0.0
 11
575.2819898870443
 21
198.722241323297
 31
0.0
  0
LINE
  5
CE6
330
A
100
AcDbEntity
  8
DITRA
  6
Continuous
 62
    15
370
    -1
100
AcDbLine
 10
581.7819898870443
 20
201.722241323297
 30
0.0
 11
582.5319898870443
 21
198.722241323297
 31
0.0
  0
LINE
  5
CE7
330
A
100
AcDbEntity
  8
DITRA
  6
Continuous
 62
    15
370
    -1
100
AcDbLine
 10
588.7819898870443
 20
201.722241323297
 30
0.0
 11
581.7819898870443
 21
201.722241323297
 31
0.0
  0
LINE
  5
D37
330
A
100
AcDbEntity
  8
SCHLÜTER-BEKOTEC-EN
  6
Continuous
 62
   253
370
    -1
100
AcDbLine
 10
665.1156490366745
 20
182.722240101402
 30
0.0
 11
659.1156517784884
 21
188.7222410848784
 31
0.0
  0
LINE
  5
D39
330
A
100
AcDbEntity
  8
SCHLÜTER-BEKOTEC-EN
  6
Continuous
 62
   253
370
    -1
100
AcDbLine
 10
665.1156490366745
 20
182.722240101402
 30
0.0
 11
683.1156557123948
 21
182.722240101402
 31
0.0
  0
LINE
  5
D3A
330
A
100
AcDbEntity
  8
DITRA
  6
Continuous
 62
    15
370
    -1
100
AcDbLine
 10
642.5319898870445
 20
198.722241323297
 30
0.0
 11
635.2819898870445
 21
198.722241323297
 31
0.0
  0
LINE
  5
D3B
330
A
100
AcDbEntity
  8
DITRA
  6
Continuous
 62
    15
370
    -1
100
AcDbLine
 10
665.2819898870445
 20
198.2951361425918
 30
0.0
 11
635.2819898870445
 21
198.2951361425918
 31
0.0
  0
LINE
  5
D3C
330
A
100
AcDbEntity
  8
DITRA
  6
Continuous
 62
    15
370
    -1
100
AcDbLine
 10
608.0319898870445
 20
198.722241323297
 30
0.0
 11
622.5319898870445
 21
198.722241323297
 31
0.0
  0
LINE
  5
D3D
330
A
100
AcDbEntity
  8
DITRA
  6
Continuous
 62
    15
370
    -1
100
AcDbLine
 10
605.2819898870443
 20
198.2951361425918
 30
0.0
 11
635.2819898870445
 21
198.2951361425918
 31
0.0
  0
LINE
  5
D3E
102
{ACAD_REACTORS
330
18AB
102
}
330
A
100
AcDbEntity
  8
INSTALLED
  6
Continuous
 62
     1
370
    -1
100
AcDbLine
 10
596.2168427882787
 20
204.722241323297
 30
0.0
 11
596.2168427882787
 21
214.722241323297
 31
0.0
  0
LINE
  5
D3F
330
A
100
AcDbEntity
  8
DITRA
  6
Continuous
 62
    15
370
    -1
100
AcDbLine
 10
608.7819898870445
 20
201.722241323297
 30
0.0
 11
608.0319898870445
 21
198.722241323297
 31
0.0
  0
LINE
  5
D40
330
A
100
AcDbEntity
  8
DITRA
  6
Continuous
 62
    15
370
    -1
100
AcDbLine
 10
605.2819898870445
 20
201.722241323297
 30
0.0
 11
608.7819898870445
 21
201.722241323297
 31
0.0
  0
LINE
  5
D41
330
A
100
AcDbEntity
  8
DITRA
  6
Continuous
 62
    15
370
    -1
100
AcDbLine
 10
601.7819898870443
 20
201.722241323297
 30
0.0
 11
602.5319898870443
 21
198.722241323297
 31
0.0
  0
LINE
  5
D42
330
A
100
AcDbEntity
  8
DITRA
  6
Continuous
 62
    15
370
    -1
100
AcDbLine
 10
605.2819898870443
 20
201.722241323297
 30
0.0
 11
601.7819898870443
 21
201.722241323297
 31
0.0
  0
LINE
  5
D43
330
A
100
AcDbEntity
  8
DITRA
  6
Continuous
 62
    15
370
    -1
100
AcDbLine
 10
628.7819898870445
 20
201.722241323297
 30
0.0
 11
628.0319898870445
 21
198.722241323297
 31
0.0
  0
LINE
  5
D44
330
A
100
AcDbEntity
  8
DITRA
  6
Continuous
 62
    15
370
    -1
100
AcDbLine
 10
621.7819898870445
 20
201.722241323297
 30
0.0
 11
622.5319898870445
 21
198.722241323297
 31
0.0
  0
LINE
  5
D45
330
A
100
AcDbEntity
  8
DITRA
  6
Continuous
 62
    15
370
    -1
100
AcDbLine
 10
621.7819898870445
 20
201.722241323297
 30
0.0
 11
628.7819898870445
 21
201.722241323297
 31
0.0
  0
LINE
  5
D46
330
A
100
AcDbEntity
  8
DITRA
  6
Continuous
 62
    15
370
    -1
100
AcDbLine
 10
628.0319898870445
 20
198.722241323297
 30
0.0
 11
635.2819898870445
 21
198.722241323297
 31
0.0
  0
LINE
  5
D47
330
A
100
AcDbEntity
  8
DITRA
  6
Continuous
 62
    15
370
    -1
100
AcDbLine
 10
665.2819898870445
 20
201.722241323297
 30
0.0
 11
661.7819898870445
 21
201.722241323297
 31
0.0
  0
LINE
  5
D48
330
A
100
AcDbEntity
  8
DITRA
  6
Continuous
 62
    15
370
    -1
100
AcDbLine
 10
661.7819898870445
 20
201.722241323297
 30
0.0
 11
662.5319898870445
 21
198.722241323297
 31
0.0
  0
LINE
  5
D49
330
A
100
AcDbEntity
  8
DITRA
  6
Continuous
 62
    15
370
    -1
100
AcDbLine
 10
648.7819898870445
 20
201.722241323297
 30
0.0
 11
648.0319898870445
 21
198.722241323297
 31
0.0
  0
LINE
  5
D4A
330
A
100
AcDbEntity
  8
DITRA
  6
Continuous
 62
    15
370
    -1
100
AcDbLine
 10
641.7819898870445
 20
201.722241323297
 30
0.0
 11
642.5319898870445
 21
198.722241323297
 31
0.0
  0
LINE
  5
D4B
330
A
100
AcDbEntity
  8
DITRA
  6
Continuous
 62
    15
370
    -1
100
AcDbLine
 10
648.7819898870445
 20
201.722241323297
 30
0.0
 11
641.7819898870445
 21
201.722241323297
 31
0.0
  0
LINE
  5
D4C
330
A
100
AcDbEntity
  8
DITRA
  6
Continuous
 62
    15
370
    -1
100
AcDbLine
 10
662.5319898870445
 20
198.722241323297
 30
0.0
 11
648.0319898870445
 21
198.722241323297
 31
0.0
  0
LINE
  5
D4D
330
A
100
AcDbEntity
  8
DITRA
  6
Continuous
 62
    15
370
    -1
100
AcDbLine
 10
681.7819898870445
 20
201.722241323297
 30
0.0
 11
682.5319898870445
 21
198.722241323297
 31
0.0
  0
LINE
  5
D4E
330
A
100
AcDbEntity
  8
DITRA
  6
Continuous
 62
    15
370
    -1
100
AcDbLine
 10
668.7819898870445
 20
201.722241323297
 30
0.0
 11
668.0319898870445
 21
198.722241323297
 31
0.0
  0
LINE
  5
D4F
330
A
100
AcDbEntity
  8
DITRA
  6
Continuous
 62
    15
370
    -1
100
AcDbLine
 10
665.2819898870445
 20
201.722241323297
 30
0.0
 11
668.7819898870445
 21
201.722241323297
 31
0.0
  0
LINE
  5
D50
330
A
100
AcDbEntity
  8
DITRA
  6
Continuous
 62
    15
370
    -1
100
AcDbLine
 10
668.0319898870445
 20
198.722241323297
 30
0.0
 11
682.5319898870445
 21
198.722241323297
 31
0.0
  0
LINE
  5
D51
330
A
100
AcDbEntity
  8
DITRA
  6
Continuous
 62
    15
370
    -1
100
AcDbLine
 10
785.2819898870446
 20
198.2951361425918
 30
0.0
 11
755.2819898870446
 21
198.2951361425918
 31
0.0
  0
LINE
  5
D52
330
A
100
AcDbEntity
  8
DITRA
  6
Continuous
 62
    15
370
    -1
100
AcDbLine
 10
782.5319898870446
 20
198.722241323297
 30
0.0
 11
768.0319898870446
 21
198.722241323297
 31
0.0
  0
LINE
  5
DD1
330
A
100
AcDbEntity
  8
DITRA
  6
Continuous
 62
    15
370
    -1
100
AcDbLine
 10
728.0319898870446
 20
198.722241323297
 30
0.0
 11
742.5319898870446
 21
198.722241323297
 31
0.0
  0
LINE
  5
DD2
330
A
100
AcDbEntity
  8
DITRA
  6
Continuous
 62
    15
370
    -1
100
AcDbLine
 10
725.2819898870443
 20
198.2951361425918
 30
0.0
 11
755.2819898870446
 21
198.2951361425918
 31
0.0
  0
LINE
  5
DD3
330
A
100
AcDbEntity
  8
DITRA
  6
Continuous
 62
    15
370
    -1
100
AcDbLine
 10
725.2819898870446
 20
198.2951361425918
 30
0.0
 11
695.2819898870445
 21
198.2951361425918
 31
0.0
  0
LINE
  5
DD4
330
A
100
AcDbEntity
  8
DITRA
  6
Continuous
 62
    15
370
    -1
100
AcDbLine
 10
722.5319898870446
 20
198.722241323297
 30
0.0
 11
708.0319898870445
 21
198.722241323297
 31
0.0
  0
LINE
  5
DD5
330
A
100
AcDbEntity
  8
DITRA
  6
Continuous
 62
    15
370
    -1
100
AcDbLine
 10
708.7819898870445
 20
201.722241323297
 30
0.0
 11
708.0319898870445
 21
198.722241323297
 31
0.0
  0
LINE
  5
DD6
330
A
100
AcDbEntity
  8
DITRA
  6
Continuous
 62
    15
370
    -1
100
AcDbLine
 10
702.5319898870445
 20
198.722241323297
 30
0.0
 11
695.2819898870445
 21
198.722241323297
 31
0.0
  0
LINE
  5
DD7
330
A
100
AcDbEntity
  8
DITRA
  6
Continuous
 62
    15
370
    -1
100
AcDbLine
 10
701.7819898870445
 20
201.722241323297
 30
0.0
 11
702.5319898870445
 21
198.722241323297
 31
0.0
  0
LINE
  5
DD8
330
A
100
AcDbEntity
  8
DITRA
  6
Continuous
 62
    15
370
    -1
100
AcDbLine
 10
708.7819898870445
 20
201.722241323297
 30
0.0
 11
701.7819898870445
 21
201.722241323297
 31
0.0
  0
LINE
  5
DD9
330
A
100
AcDbEntity
  8
DITRA
  6
Continuous
 62
    15
370
    -1
100
AcDbLine
 10
688.7819898870445
 20
201.722241323297
 30
0.0
 11
688.0319898870445
 21
198.722241323297
 31
0.0
  0
LINE
  5
DDA
330
A
100
AcDbEntity
  8
DITRA
  6
Continuous
 62
    15
370
    -1
100
AcDbLine
 10
688.0319898870445
 20
198.722241323297
 30
0.0
 11
695.2819898870445
 21
198.722241323297
 31
0.0
  0
LINE
  5
DDB
330
A
100
AcDbEntity
  8
DITRA
  6
Continuous
 62
    15
370
    -1
100
AcDbLine
 10
728.7819898870446
 20
201.722241323297
 30
0.0
 11
728.0319898870446
 21
198.722241323297
 31
0.0
  0
LINE
  5
DDC
330
A
100
AcDbEntity
  8
DITRA
  6
Continuous
 62
    15
370
    -1
100
AcDbLine
 10
725.2819898870446
 20
201.722241323297
 30
0.0
 11
728.7819898870446
 21
201.722241323297
 31
0.0
  0
LINE
  5
DDD
330
A
100
AcDbEntity
  8
DITRA
  6
Continuous
 62
    15
370
    -1
100
AcDbLine
 10
721.7819898870446
 20
201.722241323297
 30
0.0
 11
722.5319898870446
 21
198.722241323297
 31
0.0
  0
LINE
  5
DDE
330
A
100
AcDbEntity
  8
DITRA
  6
Continuous
 62
    15
370
    -1
100
AcDbLine
 10
725.2819898870446
 20
201.722241323297
 30
0.0
 11
721.7819898870446
 21
201.722241323297
 31
0.0
  0
LINE
  5
DDF
330
A
100
AcDbEntity
  8
DITRA
  6
Continuous
 62
    15
370
    -1
100
AcDbLine
 10
762.5319898870446
 20
198.722241323297
 30
0.0
 11
755.2819898870446
 21
198.722241323297
 31
0.0
  0
LINE
  5
DE0
330
A
100
AcDbEntity
  8
DITRA
  6
Continuous
 62
    15
370
    -1
100
AcDbLine
 10
748.7819898870446
 20
201.722241323297
 30
0.0
 11
748.0319898870446
 21
198.722241323297
 31
0.0
  0
LINE
  5
DE1
330
A
100
AcDbEntity
  8
DITRA
  6
Continuous
 62
    15
370
    -1
100
AcDbLine
 10
741.7819898870446
 20
201.722241323297
 30
0.0
 11
742.5319898870446
 21
198.722241323297
 31
0.0
  0
LINE
  5
DE2
330
A
100
AcDbEntity
  8
DITRA
  6
Continuous
 62
    15
370
    -1
100
AcDbLine
 10
741.7819898870446
 20
201.722241323297
 30
0.0
 11
748.7819898870446
 21
201.722241323297
 31
0.0
  0
LINE
  5
DE3
330
A
100
AcDbEntity
  8
DITRA
  6
Continuous
 62
    15
370
    -1
100
AcDbLine
 10
748.0319898870446
 20
198.722241323297
 30
0.0
 11
755.2819898870446
 21
198.722241323297
 31
0.0
  0
LINE
  5
DE4
330
A
100
AcDbEntity
  8
DITRA
  6
Continuous
 62
    15
370
    -1
100
AcDbLine
 10
768.7819898870446
 20
201.722241323297
 30
0.0
 11
768.0319898870446
 21
198.722241323297
 31
0.0
  0
LINE
  5
DE5
330
A
100
AcDbEntity
  8
DITRA
  6
Continuous
 62
    15
370
    -1
100
AcDbLine
 10
761.7819898870446
 20
201.722241323297
 30
0.0
 11
762.5319898870446
 21
198.722241323297
 31
0.0
  0
LINE
  5
DE6
330
A
100
AcDbEntity
  8
DITRA
  6
Continuous
 62
    15
370
    -1
100
AcDbLine
 10
768.7819898870446
 20
201.722241323297
 30
0.0
 11
761.7819898870446
 21
201.722241323297
 31
0.0
  0
LINE
  5
E0C
330
A
100
AcDbEntity
  8
DITRA
  6
Continuous
 62
    15
370
    -1
100
AcDbLine
 10
788.0319898870446
 20
198.722241323297
 30
0.0
 11
802.5319898870446
 21
198.722241323297
 31
0.0
  0
LINE
  5
E0D
330
A
100
AcDbEntity
  8
DITRA
  6
Continuous
 62
    15
370
    -1
100
AcDbLine
 10
785.2819898870443
 20
198.2951361425918
 30
0.0
 11
810.615653328209
 21
198.2951361425918
 31
0.0
  0
LINE
  5
E0E
330
A
100
AcDbEntity
  8
DITRA
  6
Continuous
 62
    15
370
    -1
100
AcDbLine
 10
788.7819898870446
 20
201.722241323297
 30
0.0
 11
788.0319898870446
 21
198.722241323297
 31
0.0
  0
LINE
  5
E0F
330
A
100
AcDbEntity
  8
DITRA
  6
Continuous
 62
    15
370
    -1
100
AcDbLine
 10
785.2819898870446
 20
201.722241323297
 30
0.0
 11
788.7819898870446
 21
201.722241323297
 31
0.0
  0
LINE
  5
E10
330
A
100
AcDbEntity
  8
DITRA
  6
Continuous
 62
    15
370
    -1
100
AcDbLine
 10
781.7819898870446
 20
201.722241323297
 30
0.0
 11
782.5319898870446
 21
198.722241323297
 31
0.0
  0
LINE
  5
E11
330
A
100
AcDbEntity
  8
DITRA
  6
Continuous
 62
    15
370
    -1
100
AcDbLine
 10
785.2819898870446
 20
201.722241323297
 30
0.0
 11
781.7819898870446
 21
201.722241323297
 31
0.0
  0
LINE
  5
E12
330
A
100
AcDbEntity
  8
DITRA
  6
Continuous
 62
    15
370
    -1
100
AcDbLine
 10
808.7819898870446
 20
201.722241323297
 30
0.0
 11
808.0319898870446
 21
198.722241323297
 31
0.0
  0
LINE
  5
E13
330
A
100
AcDbEntity
  8
DITRA
  6
Continuous
 62
    15
370
    -1
100
AcDbLine
 10
801.7819898870446
 20
201.722241323297
 30
0.0
 11
802.5319898870446
 21
198.722241323297
 31
0.0
  0
LINE
  5
E14
330
A
100
AcDbEntity
  8
DITRA
  6
Continuous
 62
    15
370
    -1
100
AcDbLine
 10
801.7819898870446
 20
201.722241323297
 30
0.0
 11
808.7819898870446
 21
201.722241323297
 31
0.0
  0
LINE
  5
E15
330
A
100
AcDbEntity
  8
DITRA
  6
Continuous
 62
    15
370
    -1
100
AcDbLine
 10
808.0319898870446
 20
198.722241323297
 30
0.0
 11
810.615653328209
 21
198.722241323297
 31
0.0
  0
ARC
  5
E16
330
A
100
AcDbEntity
  8
INSTALLED
  6
Continuous
 62
     1
370
    -1
100
AcDbCircle
 10
600.615653328209
 20
134.222241323297
 30
0.0
 40
7.5
100
AcDbArc
 50
323.1301023541546
 51
90.0
  0
ARC
  5
E17
330
A
100
AcDbEntity
  8
INSTALLED
  6
Continuous
 62
     1
370
    -1
100
AcDbCircle
 10
608.115653328209
 20
119.222241323297
 30
0.0
 40
7.5
100
AcDbArc
 50
143.1301023541547
 51
270.0
  0
LINE
  5
E18
330
A
100
AcDbEntity
  8
INSTALLED
  6
Continuous
 62
     1
370
    -1
100
AcDbLine
 10
602.115653328209
 20
123.722241323297
 30
0.0
 11
606.615653328209
 21
129.722241323297
 31
0.0
  0
ARC
  5
E19
330
A
100
AcDbEntity
  8
INSTALLED
  6
Continuous
 62
     1
370
    -1
100
AcDbCircle
 10
608.115653328209
 20
119.222241323297
 30
0.0
 40
7.5
100
AcDbArc
 50
270.0
 51
36.86989764584531
  0
ARC
  5
E1A
330
A
100
AcDbEntity
  8
INSTALLED
  6
Continuous
 62
     1
370
    -1
100
AcDbCircle
 10
615.615653328209
 20
134.222241323297
 30
0.0
 40
7.5
100
AcDbArc
 50
90.0
 51
216.8698976458453
  0
LINE
  5
E1B
330
A
100
AcDbEntity
  8
INSTALLED
  6
Continuous
 62
     1
370
    -1
100
AcDbLine
 10
614.115653328209
 20
123.722241323297
 30
0.0
 11
609.615653328209
 21
129.722241323297
 31
0.0
  0
ARC
  5
E1C
330
A
100
AcDbEntity
  8
INSTALLED
  6
Continuous
 62
     1
370
    -1
100
AcDbCircle
 10
615.615653328209
 20
134.222241323297
 30
0.0
 40
7.5
100
AcDbArc
 50
323.1301023541546
 51
90.0
  0
ARC
  5
E1D
330
A
100
AcDbEntity
  8
INSTALLED
  6
Continuous
 62
     1
370
    -1
100
AcDbCircle
 10
623.115653328209
 20
119.222241323297
 30
0.0
 40
7.5
100
AcDbArc
 50
270.0
 51
36.86989764584531
  0
ARC
  5
E1E
330
A
100
AcDbEntity
  8
INSTALLED
  6
Continuous
 62
     1
370
    -1
100
AcDbCircle
 10
630.615653328209
 20
134.222241323297
 30
0.0
 40
7.5
100
AcDbArc
 50
90.0
 51
216.8698976458453
  0
LINE
  5
E1F
330
A
100
AcDbEntity
  8
INSTALLED
  6
Continuous
 62
     1
370
    -1
100
AcDbLine
 10
629.115653328209
 20
123.722241323297
 30
0.0
 11
624.615653328209
 21
129.722241323297
 31
0.0
  0
ARC
  5
E20
330
A
100
AcDbEntity
  8
INSTALLED
  6
Continuous
 62
     1
370
    -1
100
AcDbCircle
 10
623.115653328209
 20
119.222241323297
 30
0.0
 40
7.5
100
AcDbArc
 50
143.1301023541547
 51
270.0
  0
LINE
  5
E21
330
A
100
AcDbEntity
  8
INSTALLED
  6
Continuous
 62
     1
370
    -1
100
AcDbLine
 10
617.115653328209
 20
123.722241323297
 30
0.0
 11
621.615653328209
 21
129.722241323297
 31
0.0
  0
ARC
  5
E22
330
A
100
AcDbEntity
  8
INSTALLED
  6
Continuous
 62
     1
370
    -1
100
AcDbCircle
 10
645.615653328209
 20
134.222241323297
 30
0.0
 40
7.5
100
AcDbArc
 50
323.1301023541546
 51
90.0
  0
ARC
  5
E23
330
A
100
AcDbEntity
  8
INSTALLED
  6
Continuous
 62
     1
370
    -1
100
AcDbCircle
 10
653.115653328209
 20
119.222241323297
 30
0.0
 40
7.5
100
AcDbArc
 50
270.0
 51
36.86989764584531
  0
ARC
  5
E24
330
A
100
AcDbEntity
  8
INSTALLED
  6
Continuous
 62
     1
370
    -1
100
AcDbCircle
 10
660.615653328209
 20
134.222241323297
 30
0.0
 40
7.5
100
AcDbArc
 50
90.0
 51
216.8698976458453
  0
LINE
  5
E25
330
A
100
AcDbEntity
  8
INSTALLED
  6
Continuous
 62
     1
370
    -1
100
AcDbLine
 10
659.115653328209
 20
123.722241323297
 30
0.0
 11
654.615653328209
 21
129.722241323297
 31
0.0
  0
ARC
  5
E26
330
A
100
AcDbEntity
  8
INSTALLED
  6
Continuous
 62
     1
370
    -1
100
AcDbCircle
 10
638.115653328209
 20
119.222241323297
 30
0.0
 40
7.5
100
AcDbArc
 50
270.0
 51
36.86989764584531
  0
ARC
  5
E27
330
A
100
AcDbEntity
  8
INSTALLED
  6
Continuous
 62
     1
370
    -1
100
AcDbCircle
 10
638.115653328209
 20
119.222241323297
 30
0.0
 40
7.5
100
AcDbArc
 50
143.1301023541547
 51
270.0
  0
ARC
  5
E28
330
A
100
AcDbEntity
  8
INSTALLED
  6
Continuous
 62
     1
370
    -1
100
AcDbCircle
 10
653.115653328209
 20
119.222241323297
 30
0.0
 40
7.5
100
AcDbArc
 50
143.1301023541547
 51
270.0
  0
ARC
  5
E29
330
A
100
AcDbEntity
  8
INSTALLED
  6
Continuous
 62
     1
370
    -1
100
AcDbCircle
 10
630.615653328209
 20
134.222241323297
 30
0.0
 40
7.5
100
AcDbArc
 50
323.1301023541546
 51
90.0
  0
ARC
  5
E2A
330
A
100
AcDbEntity
  8
INSTALLED
  6
Continuous
 62
     1
370
    -1
100
AcDbCircle
 10
645.615653328209
 20
134.222241323297
 30
0.0
 40
7.5
100
AcDbArc
 50
90.0
 51
216.8698976458453
  0
LINE
  5
E2B
330
A
100
AcDbEntity
  8
INSTALLED
  6
Continuous
 62
     1
370
    -1
100
AcDbLine
 10
647.115653328209
 20
123.722241323297
 30
0.0
 11
651.615653328209
 21
129.722241323297
 31
0.0
  0
LINE
  5
E2C
330
A
100
AcDbEntity
  8
INSTALLED
  6
Continuous
 62
     1
370
    -1
100
AcDbLine
 10
644.115653328209
 20
123.722241323297
 30
0.0
 11
639.615653328209
 21
129.722241323297
 31
0.0
  0
LINE
  5
E2D
330
A
100
AcDbEntity
  8
INSTALLED
  6
Continuous
 62
     1
370
    -1
100
AcDbLine
 10
632.115653328209
 20
123.722241323297
 30
0.0
 11
636.615653328209
 21
129.722241323297
 31
0.0
  0
ARC
  5
E2E
330
A
100
AcDbEntity
  8
INSTALLED
  6
Continuous
 62
     1
370
    -1
100
AcDbCircle
 10
705.615653328209
 20
134.222241323297
 30
0.0
 40
7.5
100
AcDbArc
 50
323.1301023541546
 51
90.0
  0
ARC
  5
E2F
330
A
100
AcDbEntity
  8
INSTALLED
  6
Continuous
 62
     1
370
    -1
100
AcDbCircle
 10
713.115653328209
 20
119.222241323297
 30
0.0
 40
7.5
100
AcDbArc
 50
270.0
 51
36.86989764584531
  0
ARC
  5
E30
330
A
100
AcDbEntity
  8
INSTALLED
  6
Continuous
 62
     1
370
    -1
100
AcDbCircle
 10
720.615653328209
 20
134.222241323297
 30
0.0
 40
7.5
100
AcDbArc
 50
90.0
 51
216.8698976458453
  0
LINE
  5
E31
330
A
100
AcDbEntity
  8
INSTALLED
  6
Continuous
 62
     1
370
    -1
100
AcDbLine
 10
719.115653328209
 20
123.722241323297
 30
0.0
 11
714.615653328209
 21
129.722241323297
 31
0.0
  0
LINE
  5
E32
330
A
100
AcDbEntity
  8
INSTALLED
  6
Continuous
 62
     1
370
    -1
100
AcDbLine
 10
677.115653328209
 20
123.722241323297
 30
0.0
 11
681.615653328209
 21
129.722241323297
 31
0.0
  0
ARC
  5
E33
330
A
100
AcDbEntity
  8
INSTALLED
  6
Continuous
 62
     1
370
    -1
100
AcDbCircle
 10
675.615653328209
 20
134.222241323297
 30
0.0
 40
7.5
100
AcDbArc
 50
323.1301023541546
 51
90.0
  0
ARC
  5
E34
330
A
100
AcDbEntity
  8
INSTALLED
  6
Continuous
 62
     1
370
    -1
100
AcDbCircle
 10
683.115653328209
 20
119.222241323297
 30
0.0
 40
7.5
100
AcDbArc
 50
143.1301023541547
 51
270.0
  0
ARC
  5
E35
330
A
100
AcDbEntity
  8
INSTALLED
  6
Continuous
 62
     1
370
    -1
100
AcDbCircle
 10
683.115653328209
 20
119.222241323297
 30
0.0
 40
7.5
100
AcDbArc
 50
270.0
 51
36.86989764584531
  0
ARC
  5
E36
330
A
100
AcDbEntity
  8
INSTALLED
  6
Continuous
 62
     1
370
    -1
100
AcDbCircle
 10
698.115653328209
 20
119.222241323297
 30
0.0
 40
7.5
100
AcDbArc
 50
270.0
 51
36.86989764584531
  0
ARC
  5
E37
330
A
100
AcDbEntity
  8
INSTALLED
  6
Continuous
 62
     1
370
    -1
100
AcDbCircle
 10
698.115653328209
 20
119.222241323297
 30
0.0
 40
7.5
100
AcDbArc
 50
143.1301023541547
 51
270.0
  0
ARC
  5
E38
330
A
100
AcDbEntity
  8
INSTALLED
  6
Continuous
 62
     1
370
    -1
100
AcDbCircle
 10
713.115653328209
 20
119.222241323297
 30
0.0
 40
7.5
100
AcDbArc
 50
143.1301023541547
 51
270.0
  0
ARC
  5
E39
330
A
100
AcDbEntity
  8
INSTALLED
  6
Continuous
 62
     1
370
    -1
100
AcDbCircle
 10
690.615653328209
 20
134.222241323297
 30
0.0
 40
7.5
100
AcDbArc
 50
323.1301023541546
 51
90.0
  0
ARC
  5
E3A
330
A
100
AcDbEntity
  8
INSTALLED
  6
Continuous
 62
     1
370
    -1
100
AcDbCircle
 10
705.615653328209
 20
134.222241323297
 30
0.0
 40
7.5
100
AcDbArc
 50
90.0
 51
216.8698976458453
  0
LINE
  5
E3B
330
A
100
AcDbEntity
  8
INSTALLED
  6
Continuous
 62
     1
370
    -1
100
AcDbLine
 10
707.115653328209
 20
123.722241323297
 30
0.0
 11
711.615653328209
 21
129.722241323297
 31
0.0
  0
LINE
  5
E3C
330
A
100
AcDbEntity
  8
INSTALLED
  6
Continuous
 62
     1
370
    -1
100
AcDbLine
 10
704.115653328209
 20
123.722241323297
 30
0.0
 11
699.615653328209
 21
129.722241323297
 31
0.0
  0
ARC
  5
E3D
330
A
100
AcDbEntity
  8
INSTALLED
  6
Continuous
 62
     1
370
    -1
100
AcDbCircle
 10
690.615653328209
 20
134.222241323297
 30
0.0
 40
7.5
100
AcDbArc
 50
90.0
 51
216.8698976458453
  0
LINE
  5
E3E
330
A
100
AcDbEntity
  8
INSTALLED
  6
Continuous
 62
     1
370
    -1
100
AcDbLine
 10
689.115653328209
 20
123.722241323297
 30
0.0
 11
684.615653328209
 21
129.722241323297
 31
0.0
  0
LINE
  5
E3F
330
A
100
AcDbEntity
  8
INSTALLED
  6
Continuous
 62
     1
370
    -1
100
AcDbLine
 10
692.115653328209
 20
123.722241323297
 30
0.0
 11
696.615653328209
 21
129.722241323297
 31
0.0
  0
ARC
  5
E40
330
A
100
AcDbEntity
  8
INSTALLED
  6
Continuous
 62
     1
370
    -1
100
AcDbCircle
 10
668.115653328209
 20
119.222241323297
 30
0.0
 40
7.5
100
AcDbArc
 50
270.0
 51
36.86989764584531
  0
ARC
  5
E41
330
A
100
AcDbEntity
  8
INSTALLED
  6
Continuous
 62
     1
370
    -1
100
AcDbCircle
 10
668.115653328209
 20
119.222241323297
 30
0.0
 40
7.5
100
AcDbArc
 50
143.1301023541547
 51
270.0
  0
LINE
  5
E42
330
A
100
AcDbEntity
  8
INSTALLED
  6
Continuous
 62
     1
370
    -1
100
AcDbLine
 10
662.115653328209
 20
123.722241323297
 30
0.0
 11
666.615653328209
 21
129.722241323297
 31
0.0
  0
ARC
  5
E43
330
A
100
AcDbEntity
  8
INSTALLED
  6
Continuous
 62
     1
370
    -1
100
AcDbCircle
 10
660.615653328209
 20
134.222241323297
 30
0.0
 40
7.5
100
AcDbArc
 50
323.1301023541546
 51
90.0
  0
ARC
  5
E44
330
A
100
AcDbEntity
  8
INSTALLED
  6
Continuous
 62
     1
370
    -1
100
AcDbCircle
 10
675.615653328209
 20
134.222241323297
 30
0.0
 40
7.5
100
AcDbArc
 50
90.0
 51
216.8698976458453
  0
LINE
  5
E45
330
A
100
AcDbEntity
  8
INSTALLED
  6
Continuous
 62
     1
370
    -1
100
AcDbLine
 10
674.115653328209
 20
123.722241323297
 30
0.0
 11
669.615653328209
 21
129.722241323297
 31
0.0
  0
LINE
  5
E46
330
A
100
AcDbEntity
  8
INSTALLED
  6
Continuous
 62
     1
370
    -1
100
AcDbLine
 10
767.115653328209
 20
123.722241323297
 30
0.0
 11
771.615653328209
 21
129.722241323297
 31
0.0
  0
ARC
  5
E47
330
A
100
AcDbEntity
  8
INSTALLED
  6
Continuous
 62
     1
370
    -1
100
AcDbCircle
 10
773.115653328209
 20
119.222241323297
 30
0.0
 40
7.5
100
AcDbArc
 50
143.1301023541547
 51
270.0
  0
ARC
  5
E48
330
A
100
AcDbEntity
  8
INSTALLED
  6
Continuous
 62
     1
370
    -1
100
AcDbCircle
 10
758.115653328209
 20
119.222241323297
 30
0.0
 40
7.5
100
AcDbArc
 50
270.0
 51
36.86989764584531
  0
LINE
  5
E49
330
A
100
AcDbEntity
  8
INSTALLED
  6
Continuous
 62
     1
370
    -1
100
AcDbLine
 10
797.115653328209
 20
123.722241323297
 30
0.0
 11
801.615653328209
 21
129.722241323297
 31
0.0
  0
ARC
  5
E4A
330
A
100
AcDbEntity
  8
INSTALLED
  6
Continuous
 62
     1
370
    -1
100
AcDbCircle
 10
803.115653328209
 20
119.222241323297
 30
0.0
 40
7.5
100
AcDbArc
 50
143.1301023541547
 51
270.0
  0
ARC
  5
E4B
330
A
100
AcDbEntity
  8
INSTALLED
  6
Continuous
 62
     1
370
    -1
100
AcDbCircle
 10
803.115653328209
 20
119.222241323297
 30
0.0
 40
7.5
100
AcDbArc
 50
270.0
 51
36.86989764584531
  0
LINE
  5
E4C
330
A
100
AcDbEntity
  8
INSTALLED
  6
Continuous
 62
     1
370
    -1
100
AcDbLine
 10
809.115653328209
 20
123.722241323297
 30
0.0
 11
804.615653328209
 21
129.722241323297
 31
0.0
  0
ARC
  5
E4D
330
A
100
AcDbEntity
  8
INSTALLED
  6
Continuous
 62
     1
370
    -1
100
AcDbCircle
 10
773.115653328209
 20
119.222241323297
 30
0.0
 40
7.5
100
AcDbArc
 50
270.0
 51
36.86989764584531
  0
ARC
  5
E4E
330
A
100
AcDbEntity
  8
INSTALLED
  6
Continuous
 62
     1
370
    -1
100
AcDbCircle
 10
788.115653328209
 20
119.222241323297
 30
0.0
 40
7.5
100
AcDbArc
 50
270.0
 51
36.86989764584531
  0
ARC
  5
E4F
330
A
100
AcDbEntity
  8
INSTALLED
  6
Continuous
 62
     1
370
    -1
100
AcDbCircle
 10
788.115653328209
 20
119.222241323297
 30
0.0
 40
7.5
100
AcDbArc
 50
143.1301023541547
 51
270.0
  0
LINE
  5
E50
330
A
100
AcDbEntity
  8
INSTALLED
  6
Continuous
 62
     1
370
    -1
100
AcDbLine
 10
782.115653328209
 20
123.722241323297
 30
0.0
 11
786.615653328209
 21
129.722241323297
 31
0.0
  0
LINE
  5
E51
330
A
100
AcDbEntity
  8
INSTALLED
  6
Continuous
 62
     1
370
    -1
100
AcDbLine
 10
794.115653328209
 20
123.722241323297
 30
0.0
 11
789.615653328209
 21
129.722241323297
 31
0.0
  0
LINE
  5
E52
330
A
100
AcDbEntity
  8
INSTALLED
  6
Continuous
 62
     1
370
    -1
100
AcDbLine
 10
779.115653328209
 20
123.722241323297
 30
0.0
 11
774.615653328209
 21
129.722241323297
 31
0.0
  0
ARC
  5
E53
330
A
100
AcDbEntity
  8
INSTALLED
  6
Continuous
 62
     1
370
    -1
100
AcDbCircle
 10
728.115653328209
 20
119.222241323297
 30
0.0
 40
7.5
100
AcDbArc
 50
270.0
 51
36.86989764584531
  0
ARC
  5
E54
330
A
100
AcDbEntity
  8
INSTALLED
  6
Continuous
 62
     1
370
    -1
100
AcDbCircle
 10
743.115653328209
 20
119.222241323297
 30
0.0
 40
7.5
100
AcDbArc
 50
143.1301023541547
 51
270.0
  0
ARC
  5
E55
330
A
100
AcDbEntity
  8
INSTALLED
  6
Continuous
 62
     1
370
    -1
100
AcDbCircle
 10
743.115653328209
 20
119.222241323297
 30
0.0
 40
7.5
100
AcDbArc
 50
270.0
 51
36.86989764584531
  0
ARC
  5
E56
330
A
100
AcDbEntity
  8
INSTALLED
  6
Continuous
 62
     1
370
    -1
100
AcDbCircle
 10
758.115653328209
 20
119.222241323297
 30
0.0
 40
7.5
100
AcDbArc
 50
143.1301023541547
 51
270.0
  0
LINE
  5
E57
330
A
100
AcDbEntity
  8
INSTALLED
  6
Continuous
 62
     1
370
    -1
100
AcDbLine
 10
764.115653328209
 20
123.722241323297
 30
0.0
 11
759.615653328209
 21
129.722241323297
 31
0.0
  0
LINE
  5
E58
330
A
100
AcDbEntity
  8
INSTALLED
  6
Continuous
 62
     1
370
    -1
100
AcDbLine
 10
752.115653328209
 20
123.722241323297
 30
0.0
 11
756.615653328209
 21
129.722241323297
 31
0.0
  0
LINE
  5
E59
330
A
100
AcDbEntity
  8
INSTALLED
  6
Continuous
 62
     1
370
    -1
100
AcDbLine
 10
749.115653328209
 20
123.722241323297
 30
0.0
 11
744.615653328209
 21
129.722241323297
 31
0.0
  0
LINE
  5
E5A
330
A
100
AcDbEntity
  8
INSTALLED
  6
Continuous
 62
     1
370
    -1
100
AcDbLine
 10
737.115653328209
 20
123.722241323297
 30
0.0
 11
741.615653328209
 21
129.722241323297
 31
0.0
  0
ARC
  5
E5B
330
A
100
AcDbEntity
  8
INSTALLED
  6
Continuous
 62
     1
370
    -1
100
AcDbCircle
 10
728.115653328209
 20
119.222241323297
 30
0.0
 40
7.5
100
AcDbArc
 50
143.1301023541547
 51
270.0
  0
LINE
  5
E5C
330
A
100
AcDbEntity
  8
INSTALLED
  6
Continuous
 62
     1
370
    -1
100
AcDbLine
 10
734.115653328209
 20
123.722241323297
 30
0.0
 11
729.615653328209
 21
129.722241323297
 31
0.0
  0
LINE
  5
E5D
330
A
100
AcDbEntity
  8
INSTALLED
  6
Continuous
 62
     1
370
    -1
100
AcDbLine
 10
722.115653328209
 20
123.722241323297
 30
0.0
 11
726.615653328209
 21
129.722241323297
 31
0.0
  0
ARC
  5
E5E
330
A
100
AcDbEntity
  8
INSTALLED
  6
Continuous
 62
     1
370
    -1
100
AcDbCircle
 10
765.615653328209
 20
134.222241323297
 30
0.0
 40
7.5
100
AcDbArc
 50
323.1301023541546
 51
90.0
  0
ARC
  5
E5F
330
A
100
AcDbEntity
  8
INSTALLED
  6
Continuous
 62
     1
370
    -1
100
AcDbCircle
 10
795.615653328209
 20
134.222241323297
 30
0.0
 40
7.5
100
AcDbArc
 50
323.1301023541546
 51
90.0
  0
ARC
  5
E60
330
A
100
AcDbEntity
  8
INSTALLED
  6
Continuous
 62
     1
370
    -1
100
AcDbCircle
 10
810.615653328209
 20
134.222241323297
 30
0.0
 40
7.5
100
AcDbArc
 50
90.0
 51
216.8698976458453
  0
ARC
  5
E61
330
A
100
AcDbEntity
  8
INSTALLED
  6
Continuous
 62
     1
370
    -1
100
AcDbCircle
 10
780.615653328209
 20
134.222241323297
 30
0.0
 40
7.5
100
AcDbArc
 50
323.1301023541546
 51
90.0
  0
ARC
  5
E62
330
A
100
AcDbEntity
  8
INSTALLED
  6
Continuous
 62
     1
370
    -1
100
AcDbCircle
 10
795.615653328209
 20
134.222241323297
 30
0.0
 40
7.5
100
AcDbArc
 50
90.0
 51
216.8698976458453
  0
ARC
  5
E63
330
A
100
AcDbEntity
  8
INSTALLED
  6
Continuous
 62
     1
370
    -1
100
AcDbCircle
 10
780.615653328209
 20
134.222241323297
 30
0.0
 40
7.5
100
AcDbArc
 50
90.0
 51
216.8698976458453
  0
ARC
  5
E64
330
A
100
AcDbEntity
  8
INSTALLED
  6
Continuous
 62
     1
370
    -1
100
AcDbCircle
 10
735.615653328209
 20
134.222241323297
 30
0.0
 40
7.5
100
AcDbArc
 50
90.0
 51
216.8698976458453
  0
ARC
  5
E65
330
A
100
AcDbEntity
  8
INSTALLED
  6
Continuous
 62
     1
370
    -1
100
AcDbCircle
 10
750.615653328209
 20
134.222241323297
 30
0.0
 40
7.5
100
AcDbArc
 50
323.1301023541546
 51
90.0
  0
ARC
  5
E66
330
A
100
AcDbEntity
  8
INSTALLED
  6
Continuous
 62
     1
370
    -1
100
AcDbCircle
 10
765.615653328209
 20
134.222241323297
 30
0.0
 40
7.5
100
AcDbArc
 50
90.0
 51
216.8698976458453
  0
ARC
  5
E67
330
A
100
AcDbEntity
  8
INSTALLED
  6
Continuous
 62
     1
370
    -1
100
AcDbCircle
 10
735.615653328209
 20
134.222241323297
 30
0.0
 40
7.5
100
AcDbArc
 50
323.1301023541546
 51
90.0
  0
ARC
  5
E68
330
A
100
AcDbEntity
  8
INSTALLED
  6
Continuous
 62
     1
370
    -1
100
AcDbCircle
 10
750.615653328209
 20
134.222241323297
 30
0.0
 40
7.5
100
AcDbArc
 50
90.0
 51
216.8698976458453
  0
ARC
  5
E69
330
A
100
AcDbEntity
  8
INSTALLED
  6
Continuous
 62
     1
370
    -1
100
AcDbCircle
 10
720.615653328209
 20
134.222241323297
 30
0.0
 40
7.5
100
AcDbArc
 50
323.1301023541546
 51
90.0
  0
ARC
  5
E6A
330
A
100
AcDbEntity
  8
INSTALLED
  6
Continuous
 62
     1
370
    -1
100
AcDbCircle
 10
465.615653328209
 20
134.222241323297
 30
0.0
 40
7.5
100
AcDbArc
 50
323.1301023541566
 51
90.0
  0
ARC
  5
E6B
330
A
100
AcDbEntity
  8
INSTALLED
  6
Continuous
 62
     1
370
    -1
100
AcDbCircle
 10
473.115653328209
 20
119.222241323297
 30
0.0
 40
7.5
100
AcDbArc
 50
143.1301023541567
 51
270.0
  0
ARC
  5
E6C
330
A
100
AcDbEntity
  8
INSTALLED
  6
Continuous
 62
     1
370
    -1
100
AcDbCircle
 10
458.115653328209
 20
119.222241323297
 30
0.0
 40
7.5
100
AcDbArc
 50
270.0
 51
36.86989764584339
  0
LINE
  5
E6D
330
A
100
AcDbEntity
  8
INSTALLED
  6
Continuous
 62
     1
370
    -1
100
AcDbLine
 10
599.115653328209
 20
123.722241323297
 30
0.0
 11
594.615653328209
 21
129.722241323297
 31
0.0
  0
ARC
  5
E6E
330
A
100
AcDbEntity
  8
INSTALLED
  6
Continuous
 62
     1
370
    -1
100
AcDbCircle
 10
600.615653328209
 20
134.222241323297
 30
0.0
 40
7.5
100
AcDbArc
 50
90.0
 51
216.8698976458453
  0
ARC
  5
E6F
330
A
100
AcDbEntity
  8
INSTALLED
  6
Continuous
 62
     1
370
    -1
100
AcDbCircle
 10
593.115653328209
 20
119.222241323297
 30
0.0
 40
7.5
100
AcDbArc
 50
270.0
 51
36.86989764584531
  0
ARC
  5
E70
330
A
100
AcDbEntity
  8
INSTALLED
  6
Continuous
 62
     1
370
    -1
100
AcDbCircle
 10
540.615653328209
 20
134.222241323297
 30
0.0
 40
7.5
100
AcDbArc
 50
90.0
 51
216.8698976458453
  0
ARC
  5
E71
330
A
100
AcDbEntity
  8
INSTALLED
  6
Continuous
 62
     1
370
    -1
100
AcDbCircle
 10
533.115653328209
 20
119.222241323297
 30
0.0
 40
7.5
100
AcDbArc
 50
143.1301023541547
 51
270.0
  0
ARC
  5
E72
330
A
100
AcDbEntity
  8
INSTALLED
  6
Continuous
 62
     1
370
    -1
100
AcDbCircle
 10
525.615653328209
 20
134.222241323297
 30
0.0
 40
7.5
100
AcDbArc
 50
323.1301023541546
 51
90.0
  0
LINE
  5
E73
330
A
100
AcDbEntity
  8
INSTALLED
  6
Continuous
 62
     1
370
    -1
100
AcDbLine
 10
569.115653328209
 20
123.722241323297
 30
0.0
 11
564.615653328209
 21
129.722241323297
 31
0.0
  0
ARC
  5
E74
330
A
100
AcDbEntity
  8
INSTALLED
  6
Continuous
 62
     1
370
    -1
100
AcDbCircle
 10
570.615653328209
 20
134.222241323297
 30
0.0
 40
7.5
100
AcDbArc
 50
90.0
 51
216.8698976458453
  0
ARC
  5
E75
330
A
100
AcDbEntity
  8
INSTALLED
  6
Continuous
 62
     1
370
    -1
100
AcDbCircle
 10
563.115653328209
 20
119.222241323297
 30
0.0
 40
7.5
100
AcDbArc
 50
270.0
 51
36.86989764584531
  0
ARC
  5
E76
330
A
100
AcDbEntity
  8
INSTALLED
  6
Continuous
 62
     1
370
    -1
100
AcDbCircle
 10
555.615653328209
 20
134.222241323297
 30
0.0
 40
7.5
100
AcDbArc
 50
323.1301023541546
 51
90.0
  0
ARC
  5
E77
330
A
100
AcDbEntity
  8
INSTALLED
  6
Continuous
 62
     1
370
    -1
100
AcDbCircle
 10
593.115653328209
 20
119.222241323297
 30
0.0
 40
7.5
100
AcDbArc
 50
143.1301023541547
 51
270.0
  0
ARC
  5
E78
330
A
100
AcDbEntity
  8
INSTALLED
  6
Continuous
 62
     1
370
    -1
100
AcDbCircle
 10
578.115653328209
 20
119.222241323297
 30
0.0
 40
7.5
100
AcDbArc
 50
143.1301023541547
 51
270.0
  0
ARC
  5
E79
330
A
100
AcDbEntity
  8
INSTALLED
  6
Continuous
 62
     1
370
    -1
100
AcDbCircle
 10
578.115653328209
 20
119.222241323297
 30
0.0
 40
7.5
100
AcDbArc
 50
270.0
 51
36.86989764584531
  0
LINE
  5
E7A
330
A
100
AcDbEntity
  8
INSTALLED
  6
Continuous
 62
     1
370
    -1
100
AcDbLine
 10
584.115653328209
 20
123.722241323297
 30
0.0
 11
579.615653328209
 21
129.722241323297
 31
0.0
  0
ARC
  5
E7B
330
A
100
AcDbEntity
  8
INSTALLED
  6
Continuous
 62
     1
370
    -1
100
AcDbCircle
 10
585.615653328209
 20
134.222241323297
 30
0.0
 40
7.5
100
AcDbArc
 50
90.0
 51
216.8698976458453
  0
ARC
  5
E7C
330
A
100
AcDbEntity
  8
INSTALLED
  6
Continuous
 62
     1
370
    -1
100
AcDbCircle
 10
585.615653328209
 20
134.222241323297
 30
0.0
 40
7.5
100
AcDbArc
 50
323.1301023541546
 51
90.0
  0
LINE
  5
E7D
330
A
100
AcDbEntity
  8
INSTALLED
  6
Continuous
 62
     1
370
    -1
100
AcDbLine
 10
587.115653328209
 20
123.722241323297
 30
0.0
 11
591.615653328209
 21
129.722241323297
 31
0.0
  0
ARC
  5
E7E
330
A
100
AcDbEntity
  8
INSTALLED
  6
Continuous
 62
     1
370
    -1
100
AcDbCircle
 10
570.615653328209
 20
134.222241323297
 30
0.0
 40
7.5
100
AcDbArc
 50
323.1301023541546
 51
90.0
  0
LINE
  5
E7F
330
A
100
AcDbEntity
  8
INSTALLED
  6
Continuous
 62
     1
370
    -1
100
AcDbLine
 10
572.115653328209
 20
123.722241323297
 30
0.0
 11
576.615653328209
 21
129.722241323297
 31
0.0
  0
ARC
  5
E80
330
A
100
AcDbEntity
  8
INSTALLED
  6
Continuous
 62
     1
370
    -1
100
AcDbCircle
 10
548.115653328209
 20
119.222241323297
 30
0.0
 40
7.5
100
AcDbArc
 50
143.1301023541547
 51
270.0
  0
ARC
  5
E81
330
A
100
AcDbEntity
  8
INSTALLED
  6
Continuous
 62
     1
370
    -1
100
AcDbCircle
 10
548.115653328209
 20
119.222241323297
 30
0.0
 40
7.5
100
AcDbArc
 50
270.0
 51
36.86989764584531
  0
ARC
  5
E82
330
A
100
AcDbEntity
  8
INSTALLED
  6
Continuous
 62
     1
370
    -1
100
AcDbCircle
 10
533.115653328209
 20
119.222241323297
 30
0.0
 40
7.5
100
AcDbArc
 50
270.0
 51
36.86989764584531
  0
ARC
  5
E83
330
A
100
AcDbEntity
  8
INSTALLED
  6
Continuous
 62
     1
370
    -1
100
AcDbCircle
 10
563.115653328209
 20
119.222241323297
 30
0.0
 40
7.5
100
AcDbArc
 50
143.1301023541547
 51
270.0
  0
ARC
  5
E84
330
A
100
AcDbEntity
  8
INSTALLED
  6
Continuous
 62
     1
370
    -1
100
AcDbCircle
 10
555.615653328209
 20
134.222241323297
 30
0.0
 40
7.5
100
AcDbArc
 50
90.0
 51
216.8698976458453
  0
ARC
  5
E85
330
A
100
AcDbEntity
  8
INSTALLED
  6
Continuous
 62
     1
370
    -1
100
AcDbCircle
 10
540.615653328209
 20
134.222241323297
 30
0.0
 40
7.5
100
AcDbArc
 50
323.1301023541546
 51
90.0
  0
LINE
  5
E86
330
A
100
AcDbEntity
  8
INSTALLED
  6
Continuous
 62
     1
370
    -1
100
AcDbLine
 10
557.115653328209
 20
123.722241323297
 30
0.0
 11
561.615653328209
 21
129.722241323297
 31
0.0
  0
LINE
  5
E87
330
A
100
AcDbEntity
  8
INSTALLED
  6
Continuous
 62
     1
370
    -1
100
AcDbLine
 10
554.115653328209
 20
123.722241323297
 30
0.0
 11
549.615653328209
 21
129.722241323297
 31
0.0
  0
LINE
  5
E88
330
A
100
AcDbEntity
  8
INSTALLED
  6
Continuous
 62
     1
370
    -1
100
AcDbLine
 10
542.115653328209
 20
123.722241323297
 30
0.0
 11
546.615653328209
 21
129.722241323297
 31
0.0
  0
LINE
  5
E89
330
A
100
AcDbEntity
  8
INSTALLED
  6
Continuous
 62
     1
370
    -1
100
AcDbLine
 10
539.115653328209
 20
123.722241323297
 30
0.0
 11
534.615653328209
 21
129.722241323297
 31
0.0
  0
LINE
  5
E8A
330
A
100
AcDbEntity
  8
INSTALLED
  6
Continuous
 62
     1
370
    -1
100
AcDbLine
 10
497.115653328209
 20
123.722241323297
 30
0.0
 11
501.615653328209
 21
129.722241323297
 31
0.0
  0
ARC
  5
E8B
330
A
100
AcDbEntity
  8
INSTALLED
  6
Continuous
 62
     1
370
    -1
100
AcDbCircle
 10
495.615653328209
 20
134.222241323297
 30
0.0
 40
7.5
100
AcDbArc
 50
323.1301023541566
 51
90.0
  0
ARC
  5
E8C
330
A
100
AcDbEntity
  8
INSTALLED
  6
Continuous
 62
     1
370
    -1
100
AcDbCircle
 10
503.115653328209
 20
119.222241323297
 30
0.0
 40
7.5
100
AcDbArc
 50
143.1301023541567
 51
270.0
  0
ARC
  5
E8D
330
A
100
AcDbEntity
  8
INSTALLED
  6
Continuous
 62
     1
370
    -1
100
AcDbCircle
 10
518.115653328209
 20
119.222241323297
 30
0.0
 40
7.5
100
AcDbArc
 50
143.1301023541547
 51
270.0
  0
ARC
  5
E8E
330
A
100
AcDbEntity
  8
INSTALLED
  6
Continuous
 62
     1
370
    -1
100
AcDbCircle
 10
503.115653328209
 20
119.222241323297
 30
0.0
 40
7.5
100
AcDbArc
 50
270.0
 51
36.86989764584339
  0
ARC
  5
E8F
330
A
100
AcDbEntity
  8
INSTALLED
  6
Continuous
 62
     1
370
    -1
100
AcDbCircle
 10
518.115653328209
 20
119.222241323297
 30
0.0
 40
7.5
100
AcDbArc
 50
270.0
 51
36.86989764584531
  0
LINE
  5
E90
330
A
100
AcDbEntity
  8
INSTALLED
  6
Continuous
 62
     1
370
    -1
100
AcDbLine
 10
512.115653328209
 20
123.722241323297
 30
0.0
 11
516.615653328209
 21
129.722241323297
 31
0.0
  0
ARC
  5
E91
330
A
100
AcDbEntity
  8
INSTALLED
  6
Continuous
 62
     1
370
    -1
100
AcDbCircle
 10
510.615653328209
 20
134.222241323297
 30
0.0
 40
7.5
100
AcDbArc
 50
323.1301023541566
 51
90.0
  0
ARC
  5
E92
330
A
100
AcDbEntity
  8
INSTALLED
  6
Continuous
 62
     1
370
    -1
100
AcDbCircle
 10
525.615653328209
 20
134.222241323297
 30
0.0
 40
7.5
100
AcDbArc
 50
90.0
 51
216.8698976458453
  0
LINE
  5
E93
330
A
100
AcDbEntity
  8
INSTALLED
  6
Continuous
 62
     1
370
    -1
100
AcDbLine
 10
524.115653328209
 20
123.722241323297
 30
0.0
 11
519.615653328209
 21
129.722241323297
 31
0.0
  0
LINE
  5
E94
330
A
100
AcDbEntity
  8
INSTALLED
  6
Continuous
 62
     1
370
    -1
100
AcDbLine
 10
527.115653328209
 20
123.722241323297
 30
0.0
 11
531.615653328209
 21
129.722241323297
 31
0.0
  0
ARC
  5
E95
330
A
100
AcDbEntity
  8
INSTALLED
  6
Continuous
 62
     1
370
    -1
100
AcDbCircle
 10
510.615653328209
 20
134.222241323297
 30
0.0
 40
7.5
100
AcDbArc
 50
90.0
 51
216.8698976458433
  0
LINE
  5
E96
330
A
100
AcDbEntity
  8
INSTALLED
  6
Continuous
 62
     1
370
    -1
100
AcDbLine
 10
509.115653328209
 20
123.722241323297
 30
0.0
 11
504.615653328209
 21
129.722241323297
 31
0.0
  0
ARC
  5
E97
330
A
100
AcDbEntity
  8
INSTALLED
  6
Continuous
 62
     1
370
    -1
100
AcDbCircle
 10
488.115653328209
 20
119.222241323297
 30
0.0
 40
7.5
100
AcDbArc
 50
143.1301023541567
 51
270.0
  0
ARC
  5
E98
330
A
100
AcDbEntity
  8
INSTALLED
  6
Continuous
 62
     1
370
    -1
100
AcDbCircle
 10
473.115653328209
 20
119.222241323297
 30
0.0
 40
7.5
100
AcDbArc
 50
270.0
 51
36.86989764584339
  0
ARC
  5
E99
330
A
100
AcDbEntity
  8
INSTALLED
  6
Continuous
 62
     1
370
    -1
100
AcDbCircle
 10
488.115653328209
 20
119.222241323297
 30
0.0
 40
7.5
100
AcDbArc
 50
270.0
 51
36.86989764584339
  0
LINE
  5
E9A
330
A
100
AcDbEntity
  8
INSTALLED
  6
Continuous
 62
     1
370
    -1
100
AcDbLine
 10
482.115653328209
 20
123.722241323297
 30
0.0
 11
486.615653328209
 21
129.722241323297
 31
0.0
  0
ARC
  5
E9B
330
A
100
AcDbEntity
  8
INSTALLED
  6
Continuous
 62
     1
370
    -1
100
AcDbCircle
 10
480.615653328209
 20
134.222241323297
 30
0.0
 40
7.5
100
AcDbArc
 50
323.1301023541566
 51
90.0
  0
ARC
  5
E9C
330
A
100
AcDbEntity
  8
INSTALLED
  6
Continuous
 62
     1
370
    -1
100
AcDbCircle
 10
495.615653328209
 20
134.222241323297
 30
0.0
 40
7.5
100
AcDbArc
 50
90.0
 51
216.8698976458433
  0
LINE
  5
E9D
330
A
100
AcDbEntity
  8
INSTALLED
  6
Continuous
 62
     1
370
    -1
100
AcDbLine
 10
494.115653328209
 20
123.722241323297
 30
0.0
 11
489.615653328209
 21
129.722241323297
 31
0.0
  0
ARC
  5
E9E
330
A
100
AcDbEntity
  8
INSTALLED
  6
Continuous
 62
     1
370
    -1
100
AcDbCircle
 10
480.615653328209
 20
134.222241323297
 30
0.0
 40
7.5
100
AcDbArc
 50
90.0
 51
216.8698976458433
  0
LINE
  5
E9F
330
A
100
AcDbEntity
  8
INSTALLED
  6
Continuous
 62
     1
370
    -1
100
AcDbLine
 10
479.115653328209
 20
123.722241323297
 30
0.0
 11
474.615653328209
 21
129.722241323297
 31
0.0
  0
LINE
  5
EA0
330
A
100
AcDbEntity
  8
INSTALLED
  6
Continuous
 62
     1
370
    -1
100
AcDbLine
 10
467.115653328209
 20
123.722241323297
 30
0.0
 11
471.615653328209
 21
129.722241323297
 31
0.0
  0
LINE
  5
EA1
330
A
100
AcDbEntity
  8
INSTALLED
  6
Continuous
 62
     1
370
    -1
100
AcDbLine
 10
434.115653328209
 20
123.722241323297
 30
0.0
 11
429.615653328209
 21
129.722241323297
 31
0.0
  0
ARC
  5
EA2
330
A
100
AcDbEntity
  8
INSTALLED
  6
Continuous
 62
     1
370
    -1
100
AcDbCircle
 10
443.115653328209
 20
119.222241323297
 30
0.0
 40
7.5
100
AcDbArc
 50
143.1301023541567
 51
270.0
  0
ARC
  5
EA3
330
A
100
AcDbEntity
  8
INSTALLED
  6
Continuous
 62
     1
370
    -1
100
AcDbCircle
 10
428.115653328209
 20
119.222241323297
 30
0.0
 40
7.5
100
AcDbArc
 50
270.0
 51
36.86989764584339
  0
ARC
  5
EA4
330
A
100
AcDbEntity
  8
INSTALLED
  6
Continuous
 62
     1
370
    -1
100
AcDbCircle
 10
435.615653328209
 20
134.222241323297
 30
0.0
 40
7.5
100
AcDbArc
 50
90.0
 51
216.8698976458433
  0
ARC
  5
EA5
330
A
100
AcDbEntity
  8
INSTALLED
  6
Continuous
 62
     1
370
    -1
100
AcDbCircle
 10
458.115653328209
 20
119.222241323297
 30
0.0
 40
7.5
100
AcDbArc
 50
143.1301023541567
 51
270.0
  0
ARC
  5
EA6
330
A
100
AcDbEntity
  8
INSTALLED
  6
Continuous
 62
     1
370
    -1
100
AcDbCircle
 10
443.115653328209
 20
119.222241323297
 30
0.0
 40
7.5
100
AcDbArc
 50
270.0
 51
36.86989764584339
  0
ARC
  5
EA7
330
A
100
AcDbEntity
  8
INSTALLED
  6
Continuous
 62
     1
370
    -1
100
AcDbCircle
 10
450.615653328209
 20
134.222241323297
 30
0.0
 40
7.5
100
AcDbArc
 50
90.0
 51
216.8698976458433
  0
ARC
  5
EA8
330
A
100
AcDbEntity
  8
INSTALLED
  6
Continuous
 62
     1
370
    -1
100
AcDbCircle
 10
450.615653328209
 20
134.222241323297
 30
0.0
 40
7.5
100
AcDbArc
 50
323.1301023541566
 51
90.0
  0
ARC
  5
EA9
330
A
100
AcDbEntity
  8
INSTALLED
  6
Continuous
 62
     1
370
    -1
100
AcDbCircle
 10
465.615653328209
 20
134.222241323297
 30
0.0
 40
7.5
100
AcDbArc
 50
90.0
 51
216.8698976458433
  0
LINE
  5
EAA
330
A
100
AcDbEntity
  8
INSTALLED
  6
Continuous
 62
     1
370
    -1
100
AcDbLine
 10
464.115653328209
 20
123.722241323297
 30
0.0
 11
459.615653328209
 21
129.722241323297
 31
0.0
  0
LINE
  5
EAB
330
A
100
AcDbEntity
  8
INSTALLED
  6
Continuous
 62
     1
370
    -1
100
AcDbLine
 10
452.115653328209
 20
123.722241323297
 30
0.0
 11
456.615653328209
 21
129.722241323297
 31
0.0
  0
ARC
  5
EAC
330
A
100
AcDbEntity
  8
INSTALLED
  6
Continuous
 62
     1
370
    -1
100
AcDbCircle
 10
435.615653328209
 20
134.222241323297
 30
0.0
 40
7.5
100
AcDbArc
 50
323.1301023541566
 51
90.0
  0
LINE
  5
EAD
330
A
100
AcDbEntity
  8
INSTALLED
  6
Continuous
 62
     1
370
    -1
100
AcDbLine
 10
449.115653328209
 20
123.722241323297
 30
0.0
 11
444.615653328209
 21
129.722241323297
 31
0.0
  0
LINE
  5
EAE
330
A
100
AcDbEntity
  8
INSTALLED
  6
Continuous
 62
     1
370
    -1
100
AcDbLine
 10
437.115653328209
 20
123.722241323297
 30
0.0
 11
441.615653328209
 21
129.722241323297
 31
0.0
  0
ARC
  5
EAF
330
A
100
AcDbEntity
  8
INSTALLED
  6
Continuous
 62
     1
370
    -1
100
AcDbCircle
 10
428.115653328209
 20
119.222241323297
 30
0.0
 40
7.5
100
AcDbArc
 50
143.1301023541567
 51
270.0
  0
ARC
  5
EB0
330
A
100
AcDbEntity
  8
INSTALLED
  6
Continuous
 62
     1
370
    -1
100
AcDbCircle
 10
413.115653328209
 20
119.222241323297
 30
0.0
 40
7.5
100
AcDbArc
 50
143.1301023541567
 51
270.0
  0
ARC
  5
EB1
330
A
100
AcDbEntity
  8
INSTALLED
  6
Continuous
 62
     1
370
    -1
100
AcDbCircle
 10
413.115653328209
 20
119.222241323297
 30
0.0
 40
7.5
100
AcDbArc
 50
270.0
 51
36.86989764584339
  0
LINE
  5
EB2
330
A
100
AcDbEntity
  8
INSTALLED
  6
Continuous
 62
     1
370
    -1
100
AcDbLine
 10
419.115653328209
 20
123.722241323297
 30
0.0
 11
414.615653328209
 21
129.722241323297
 31
0.0
  0
ARC
  5
EB3
330
A
100
AcDbEntity
  8
INSTALLED
  6
Continuous
 62
     1
370
    -1
100
AcDbCircle
 10
420.615653328209
 20
134.222241323297
 30
0.0
 40
7.5
100
AcDbArc
 50
90.0
 51
216.8698976458433
  0
ARC
  5
EB4
330
A
100
AcDbEntity
  8
INSTALLED
  6
Continuous
 62
     1
370
    -1
100
AcDbCircle
 10
420.615653328209
 20
134.222241323297
 30
0.0
 40
7.5
100
AcDbArc
 50
323.1301023541566
 51
90.0
  0
LINE
  5
EB5
330
A
100
AcDbEntity
  8
INSTALLED
  6
Continuous
 62
     1
370
    -1
100
AcDbLine
 10
422.115653328209
 20
123.722241323297
 30
0.0
 11
426.615653328209
 21
129.722241323297
 31
0.0
  0
ARC
  5
EB6
330
A
100
AcDbEntity
  8
INSTALLED
  6
Continuous
 62
     1
370
    -1
100
AcDbCircle
 10
405.615653328209
 20
134.222241323297
 30
0.0
 40
7.5
100
AcDbArc
 50
323.1301023541566
 51
90.0
  0
LINE
  5
EB7
330
A
100
AcDbEntity
  8
INSTALLED
  6
Continuous
 62
     1
370
    -1
100
AcDbLine
 10
407.115653328209
 20
123.722241323297
 30
0.0
 11
411.615653328209
 21
129.722241323297
 31
0.0
  0
CIRCLE
  5
EB8
330
A
100
AcDbEntity
  8
INSTALLED
  6
Continuous
 62
     1
370
    -1
100
AcDbCircle
 10
408.4749693108242
 20
176.222241323297
 30
0.0
 40
6.0
  0
LINE
  5
EBC
330
A
100
AcDbEntity
  8
DITRA
  6
Continuous
 62
    15
370
    -1
100
AcDbLine
 10
810.615653328209
 20
198.722241323297
 30
0.0
 11
810.615653328209
 21
198.2951361425918
 31
0.0
  0
TEXT
  5
ECA
102
{ACAD_REACTORS
330
18AB
102
}
330
A
100
AcDbEntity
  8
TEXT
  6
Continuous
 62
     7
370
    -1
100
AcDbText
 10
153.4083855943338
 20
208.3811118629158
 30
0.0
 40
5.0
  1
Tile or Stone
  7
STYLE1
100
AcDbText
  0
TEXT
  5
ECB
102
{ACAD_REACTORS
330
18AB
102
}
330
A
100
AcDbEntity
  8
TEXT
  6
Continuous
 62
     7
370
    -1
100
AcDbText
 10
418.8758120449511
 20
208.3811118629158
 30
0.0
 40
5.0
  1
Tile or Stone
  7
STYLE1
100
AcDbText
  0
TEXT
  5
ECC
102
{ACAD_REACTORS
330
18AB
102
}
330
A
100
AcDbEntity
  8
TEXT
  6
Continuous
 62
     7
370
    -1
100
AcDbText
 10
678.0752173149162
 20
208.3811118629158
 30
0.0
 40
5.0
  1
Tile or Stone
  7
STYLE1
100
AcDbText
  0
LINE
  5
ED4
330
A
100
AcDbEntity
  8
TEXT
  6
Continuous
 62
     7
370
    -1
100
AcDbLine
 10
810.615653328209
 20
198.5086887329444
 30
0.0
 11
840.615653328209
 21
198.5086887329444
 31
0.0
  0
LINE
  5
ED5
330
A
100
AcDbEntity
  8
TEXT
  6
Continuous
 62
     7
370
    -1
100
AcDbLine
 10
810.615653328209
 20
166.7222412040877
 30
0.0
 11
840.615653328209
 21
166.7222412040877
 31
0.0
  0
LINE
  5
ED6
330
A
100
AcDbEntity
  8
TEXT
  6
Continuous
 62
     7
370
    -1
100
AcDbLine
 10
810.615653328209
 20
143.222241323297
 30
0.0
 11
840.615653328209
 21
143.222241323297
 31
0.0
  0
TEXT
  5
ED7
330
A
100
AcDbEntity
  8
TEXT
  6
Continuous
 62
     7
370
    -1
100
AcDbText
 10
840.615653328209
 20
198.5086887329444
 30
0.0
 40
10.0
  1
Schluter - DITRA
  7
STYLE1
100
AcDbText
  0
TEXT
  5
ED8
330
A
100
AcDbEntity
  8
TEXT
  6
Continuous
 62
     7
370
    -1
100
AcDbText
 10
840.615653328209
 20
166.7222412040877
 30
0.0
 40
10.0
  1
Schluter - BEKOTEC-EN
  7
STYLE1
100
AcDbText
  0
TEXT
  5
ED9
330
A
100
AcDbEntity
  8
TEXT
  6
Continuous
 62
     7
370
    -1
100
AcDbText
 10
840.615653328209
 20
143.222241323297
 30
0.0
 40
10.0
  1
PE Sheet
  7
STYLE1
100
AcDbText
  0
TEXT
  5
EDA
330
A
100
AcDbEntity
  8
TEXT
  6
Continuous
 62
     7
370
    -1
100
AcDbText
 10
392.115653328209
 20
123.722241323297
 30
0.0
 40
10.0
  1
Insulating Panel
  7
STYLE1
100
AcDbText
  0
TEXT
  5
EDD
330
A
100
AcDbEntity
  8
TEXT
  6
Continuous
 62
   250
370
    -1
100
AcDbText
 10
349.8670636106733
 20
156.8221168632865
 30
0.0
 40
5.0
  1
Heating Tube
  7
STYLE1
100
AcDbText
  0
LINE
  5
EDE
330
A
100
AcDbEntity
  8
TEXT
  6
Continuous
 62
   250
370
    -1
100
AcDbLine
 10
394.5894564649705
 20
160.7935305175465
 30
0.0
 11
403.1872910678033
 21
172.4419690052909
 31
0.0
  0
LINE
  5
EE3
102
{ACAD_REACTORS
330
EEE
102
}
330
A
100
AcDbEntity
  8
INSTALLED
  6
Continuous
 62
     1
370
    -1
100
AcDbLine
 10
810.615653328209
 20
81.722241323297
 30
0.0
 11
65.281989887044
 21
81.722241323297
 31
0.0
  0
LINE
  5
EE4
102
{ACAD_REACTORS
330
EEE
102
}
330
A
100
AcDbEntity
  8
INSTALLED
  6
Continuous
 62
     1
370
    -1
100
AcDbLine
 10
810.615653328209
 20
111.722241323297
 30
0.0
 11
810.615653328209
 21
81.722241323297
 31
0.0
  0
LINE
  5
EE5
102
{ACAD_REACTORS
330
EEE
102
}
330
A
100
AcDbEntity
  8
INSTALLED
  6
Continuous
 62
     1
370
    -1
100
AcDbLine
 10
65.281989887044
 20
111.722241323297
 30
0.0
 11
65.281989887044
 21
81.722241323297
 31
0.0
  0
TEXT
  5
EE6
102
{ACAD_REACTORS
330
EEE
102
}
330
A
100
AcDbEntity
  8
TEXT
  6
Continuous
 62
     7
370
    -1
100
AcDbText
 10
409.0680212534748
 20
91.05683639449296
 30
0.0
 40
10.0
  1
Substrate
  7
STYLE1
100
AcDbText
  0
HATCH
  5
EEE
330
A
100
AcDbEntity
  8
HATCH
  6
Continuous
 62
     7
370
    -1
100
AcDbHatch
 10
0.0
 20
0.0
 30
0.0
210
0.0
220
0.0
230
1.0
  2
DASH
 70
     0
 71
     1
 91
        2
 92
        7
 72
     0
 73
     1
 93
        4
 10
810.615653328209
 20
111.722241323297
 10
65.281989887044
 20
111.722241323297
 10
65.281989887044
 20
81.722241323297
 10
810.6156533282089
 20
81.722241323297
 97
        4
330
A29
330
EE5
330
EE3
330
EE4
 92
       24
 93
        4
 72
     1
 10
407.1103132043615
 20
88.30103830445204
 11
470.8688398073629
 21
88.30103830445204
 72
     1
 10
470.8688398073629
 20
88.30103830445204
 11
470.8688398073629
 21
103.8126344845339
 72
     1
 10
470.8688398073629
 20
103.8126344845339
 11
407.1103132043615
 21
103.8126344845339
 72
     1
 10
407.1103132043615
 20
103.8126344845339
 11
407.1103132043615
 21
88.30103830445204
 97
        1
330
EE6
 75
     0
 76
     1
 52
45.0
 41
50.0
 77
     0
 78
     1
 53
45.0
 43
0.0
 44
0.0
 45
0.0000000000000009
 46
8.838834764831844
 79
     2
 49
6.25
 49
-6.25
 47
1.462202275080779
 98
        1
 10
655.6329372945377
 20
98.50749242358597
  0
HATCH
  5
1151
330
A
100
AcDbEntity
  8
HATCH
  6
Continuous
 62
     7
370
    -1
100
AcDbHatch
 10
0.0
 20
0.0
 30
0.0
210
0.0
220
0.0
230
1.0
  2
AR-SAND
 70
     0
 71
     0
 91
        1
 92
        7
 72
     0
 73
     1
 93
        4
 10
592.2168427882787
 20
204.722241323297
 10
596.2168427882787
 20
204.722241323297
 10
596.2168427882787
 20
214.722241323297
 10
592.2168427882787
 20
214.722241323297
 97
        0
 75
     0
 76
     1
 52
0.0
 41
1.0
 77
     0
 78
     4
 53
37.5
 43
0.0
 44
0.0
 45
-0.0629933581096082
 46
1.926823769013159
 79
     6
 49
0.0
 49
-1.52
 49
0.0
 49
-1.7
 49
0.0
 49
-1.625
 53
7.5
 43
0.0
 44
0.0
 45
1.769776705267727
 46
2.82214606522974
 79
     6
 49
0.0
 49
-0.82
 49
0.0
 49
-1.37
 49
0.0
 49
-0.525
 53
327.5
 43
-1.23
 44
0.0
 45
3.114141861751495
 46
0.0056590535369645
 79
     6
 49
0.0
 49
-0.5
 49
0.0
 49
-1.8
 49
0.0
 49
-2.35
 53
317.5
 43
-1.23
 44
0.0
 45
3.006126604572293
 46
0.8776755649342491
 79
     6
 49
0.0
 49
-0.25
 49
0.0
 49
-1.18
 49
0.0
 49
-1.35
 47
0.0515035816564199
 98
        1
 10
593.263604726417
 20
210.1096329319244
  0
HATCH
  5
1156
330
A
100
AcDbEntity
  8
HATCH
  6
Continuous
 62
     7
370
    -1
100
AcDbHatch
 10
0.0
 20
0.0
 30
0.0
210
0.0
220
0.0
230
1.0
  2
AR-SAND
 70
     0
 71
     0
 91
        1
 92
        7
 72
     0
 73
     1
 93
        4
 10
296.2168427882787
 20
214.722241323297
 10
292.2168427882787
 20
214.722241323297
 10
292.2168427882787
 20
204.722241323297
 10
296.2168427882787
 20
204.722241323297
 97
        0
 75
     0
 76
     1
 52
0.0
 41
1.0
 77
     0
 78
     4
 53
37.5
 43
0.0
 44
0.0
 45
-0.0629933581096082
 46
1.926823769013159
 79
     6
 49
0.0
 49
-1.52
 49
0.0
 49
-1.7
 49
0.0
 49
-1.625
 53
7.5
 43
0.0
 44
0.0
 45
1.769776705267727
 46
2.82214606522974
 79
     6
 49
0.0
 49
-0.82
 49
0.0
 49
-1.37
 49
0.0
 49
-0.525
 53
327.5
 43
-1.23
 44
0.0
 45
3.114141861751495
 46
0.0056590535369645
 79
     6
 49
0.0
 49
-0.5
 49
0.0
 49
-1.8
 49
0.0
 49
-2.35
 53
317.5
 43
-1.23
 44
0.0
 45
3.006126604572293
 46
0.8776755649342491
 79
     6
 49
0.0
 49
-0.25
 49
0.0
 49
-1.18
 49
0.0
 49
-1.35
 47
0.074602155771961
 98
        1
 10
293.3155662752731
 20
209.2065241231585
  0
ARC
  5
148E
330
A
100
AcDbEntity
  8
SCHLÜTER-BEKOTEC-EN
  6
Continuous
 62
   253
370
    -1
100
AcDbCircle
 10
621.3656497519304
 20
188.722241323297
 30
0.0
 40
8.000000000000114
100
AcDbArc
 50
0.0
 51
180.0
  0
ARC
  5
148F
330
A
100
AcDbEntity
  8
SCHLÜTER-BEKOTEC-EN
  6
Continuous
 62
   253
370
    -1
100
AcDbCircle
 10
272.3656497519301
 20
188.722241323297
 30
0.0
 40
8.000000000000043
100
AcDbArc
 50
0.0
 51
180.0
  0
LINE
  5
1490
330
A
100
AcDbEntity
  8
SCHLÜTER-BEKOTEC-EN
  6
Continuous
 62
   253
370
    -1
100
AcDbLine
 10
111.8107383768843
 20
188.7222410848784
 30
0.0
 11
175.920540622978
 21
188.7222410848784
 31
0.0
  0
POLYLINE
  5
1491
330
A
100
AcDbEntity
  8
SCHLÜTER-BEKOTEC-EN
  6
Continuous
 62
   253
370
    -1
100
AcDb3dPolyline
 66
     1
 10
0.0
 20
0.0
 30
0.0
 70
     8
  0
VERTEX
  5
1492
330
1491
100
AcDbEntity
  8
SCHLÜTER-BEKOTEC-EN
  6
Continuous
 62
   253
370
    -1
100
AcDbVertex
100
AcDb3dPolylineVertex
 10
111.0694354098127
 20
176.93623469383
 30
0.0
 70
    32
  0
VERTEX
  5
1493
330
1491
100
AcDbEntity
  8
SCHLÜTER-BEKOTEC-EN
  6
Continuous
 62
   253
370
    -1
100
AcDbVertex
100
AcDb3dPolylineVertex
 10
111.2281327765272
 20
175.7805285713124
 30
0.0
 70
    32
  0
VERTEX
  5
1494
330
1491
100
AcDbEntity
  8
SCHLÜTER-BEKOTEC-EN
  6
Continuous
 62
   253
370
    -1
100
AcDbVertex
100
AcDb3dPolylineVertex
 10
111.1777072470472
 20
174.6150659135031
 30
0.0
 70
    32
  0
VERTEX
  5
1495
330
1491
100
AcDbEntity
  8
SCHLÜTER-BEKOTEC-EN
  6
Continuous
 62
   253
370
    -1
100
AcDbVertex
100
AcDb3dPolylineVertex
 10
110.9197681467817
 20
173.477388333385
 30
0.0
 70
    32
  0
VERTEX
  5
1496
330
1491
100
AcDbEntity
  8
SCHLÜTER-BEKOTEC-EN
  6
Continuous
 62
   253
370
    -1
100
AcDbVertex
100
AcDb3dPolylineVertex
 10
110.4626005213545
 20
172.4041396489787
 30
0.0
 70
    32
  0
VERTEX
  5
1497
330
1491
100
AcDbEntity
  8
SCHLÜTER-BEKOTEC-EN
  6
Continuous
 62
   253
370
    -1
100
AcDbVertex
100
AcDb3dPolylineVertex
 10
109.8209863226698
 20
171.4298868289637
 30
0.0
 70
    32
  0
VERTEX
  5
1498
330
1491
100
AcDbEntity
  8
SCHLÜTER-BEKOTEC-EN
  6
Continuous
 62
   253
370
    -1
100
AcDbVertex
100
AcDb3dPolylineVertex
 10
109.0155487578199
 20
170.5860117188143
 30
0.0
 70
    32
  0
VERTEX
  5
1499
330
1491
100
AcDbEntity
  8
SCHLÜTER-BEKOTEC-EN
  6
Continuous
 62
   253
370
    -1
100
AcDbVertex
100
AcDb3dPolylineVertex
 10
108.0722456496047
 20
169.8996958991933
 30
0.0
 70
    32
  0
VERTEX
  5
149A
330
1491
100
AcDbEntity
  8
SCHLÜTER-BEKOTEC-EN
  6
Continuous
 62
   253
370
    -1
100
AcDbVertex
100
AcDb3dPolylineVertex
 10
107.7559237997817
 20
169.7222416958261
 30
0.0
 70
    32
  0
SEQEND
  5
149B
330
1491
100
AcDbEntity
  8
SCHLÜTER-BEKOTEC-EN
  6
Continuous
 62
   253
370
    -1
  0
LINE
  5
149C
330
A
100
AcDbEntity
  8
SCHLÜTER-BEKOTEC-EN
  6
Continuous
 62
   253
370
    -1
100
AcDbLine
 10
109.1308837454603
 20
185.355167250936
 30
0.0
 11
111.0694354098127
 21
176.93623469383
 31
0.0
  0
ARC
  5
149D
330
A
100
AcDbEntity
  8
SCHLÜTER-BEKOTEC-EN
  6
Continuous
 62
   253
370
    -1
100
AcDbCircle
 10
111.8107457029951
 20
185.972241323297
 30
0.0
 40
2.749999999999956
100
AcDbArc
 50
90.0
 51
192.9670839831233
  0
POLYLINE
  5
149E
330
A
100
AcDbEntity
  8
SCHLÜTER-BEKOTEC-EN
  6
Continuous
 62
   253
370
    -1
100
AcDb3dPolyline
 66
     1
 10
0.0
 20
0.0
 30
0.0
 70
     8
  0
VERTEX
  5
149F
330
149E
100
AcDbEntity
  8
SCHLÜTER-BEKOTEC-EN
  6
Continuous
 62
   253
370
    -1
100
AcDbVertex
100
AcDb3dPolylineVertex
 10
179.9029343311423
 20
169.7222416958261
 30
0.0
 70
    32
  0
VERTEX
  5
14A0
330
149E
100
AcDbEntity
  8
SCHLÜTER-BEKOTEC-EN
  6
Continuous
 62
   253
370
    -1
100
AcDbVertex
100
AcDb3dPolylineVertex
 10
178.7157302420425
 20
170.5860117188143
 30
0.0
 70
    32
  0
VERTEX
  5
14A1
330
149E
100
AcDbEntity
  8
SCHLÜTER-BEKOTEC-EN
  6
Continuous
 62
   253
370
    -1
100
AcDbVertex
100
AcDb3dPolylineVertex
 10
177.910322479515
 20
171.4298868289637
 30
0.0
 70
    32
  0
VERTEX
  5
14A2
330
149E
100
AcDbEntity
  8
SCHLÜTER-BEKOTEC-EN
  6
Continuous
 62
   253
370
    -1
100
AcDbVertex
100
AcDb3dPolylineVertex
 10
177.2686784785079
 20
172.4041396489787
 30
0.0
 70
    32
  0
VERTEX
  5
14A3
330
149E
100
AcDbEntity
  8
SCHLÜTER-BEKOTEC-EN
  6
Continuous
 62
   253
370
    -1
100
AcDbVertex
100
AcDb3dPolylineVertex
 10
176.811540655403
 20
173.477388333385
 30
0.0
 70
    32
  0
VERTEX
  5
14A4
330
149E
100
AcDbEntity
  8
SCHLÜTER-BEKOTEC-EN
  6
Continuous
 62
   253
370
    -1
100
AcDbVertex
100
AcDb3dPolylineVertex
 10
176.5536015551374
 20
174.6150659135031
 30
0.0
 70
    32
  0
VERTEX
  5
14A5
330
149E
100
AcDbEntity
  8
SCHLÜTER-BEKOTEC-EN
  6
Continuous
 62
   253
370
    -1
100
AcDbVertex
100
AcDb3dPolylineVertex
 10
176.5031462233352
 20
175.7805285713124
 30
0.0
 70
    32
  0
VERTEX
  5
14A6
330
149E
100
AcDbEntity
  8
SCHLÜTER-BEKOTEC-EN
  6
Continuous
 62
   253
370
    -1
100
AcDbVertex
100
AcDb3dPolylineVertex
 10
176.6618435900497
 20
176.93623469383
 30
0.0
 70
    32
  0
SEQEND
  5
14A7
330
149E
100
AcDbEntity
  8
SCHLÜTER-BEKOTEC-EN
  6
Continuous
 62
   253
370
    -1
  0
LINE
  5
14A8
330
A
100
AcDbEntity
  8
SCHLÜTER-BEKOTEC-EN
  6
Continuous
 62
   253
370
    -1
100
AcDbLine
 10
176.6618435900497
 20
176.93623469383
 30
0.0
 11
178.6004250567244
 21
185.355167250936
 31
0.0
  0
ARC
  5
14A9
330
A
100
AcDbEntity
  8
SCHLÜTER-BEKOTEC-EN
  6
Continuous
 62
   253
370
    -1
100
AcDbCircle
 10
175.920553800865
 20
185.972241323297
 30
0.0
 40
2.749999999999921
100
AcDbArc
 50
347.0329160168767
 51
90.0
  0
LINE
  5
14AA
330
A
100
AcDbEntity
  8
SCHLÜTER-BEKOTEC-EN
  6
Continuous
 62
   253
370
    -1
100
AcDbLine
 10
179.9029343311423
 20
169.7222416958261
 30
0.0
 11
107.7559237997817
 21
169.7222416958261
 31
0.0
  0
LINE
  5
14AB
330
A
100
AcDbEntity
  8
SCHLÜTER-BEKOTEC-EN
  6
Continuous
 62
   253
370
    -1
100
AcDbLine
 10
717.8107445757673
 20
188.7222410848784
 30
0.0
 11
781.9205468218611
 21
188.7222410848784
 31
0.0
  0
POLYLINE
  5
14AC
330
A
100
AcDbEntity
  8
SCHLÜTER-BEKOTEC-EN
  6
Continuous
 62
   253
370
    -1
100
AcDb3dPolyline
 66
     1
 10
0.0
 20
0.0
 30
0.0
 70
     8
  0
VERTEX
  5
14AD
330
14AC
100
AcDbEntity
  8
SCHLÜTER-BEKOTEC-EN
  6
Continuous
 62
   253
370
    -1
100
AcDbVertex
100
AcDb3dPolylineVertex
 10
717.0694416086958
 20
176.93623469383
 30
0.0
 70
    32
  0
VERTEX
  5
14AE
330
14AC
100
AcDbEntity
  8
SCHLÜTER-BEKOTEC-EN
  6
Continuous
 62
   253
370
    -1
100
AcDbVertex
100
AcDb3dPolylineVertex
 10
717.2281389754103
 20
175.7805285713124
 30
0.0
 70
    32
  0
VERTEX
  5
14AF
330
14AC
100
AcDbEntity
  8
SCHLÜTER-BEKOTEC-EN
  6
Continuous
 62
   253
370
    -1
100
AcDbVertex
100
AcDb3dPolylineVertex
 10
717.1777134459303
 20
174.6150659135031
 30
0.0
 70
    32
  0
VERTEX
  5
14B0
330
14AC
100
AcDbEntity
  8
SCHLÜTER-BEKOTEC-EN
  6
Continuous
 62
   253
370
    -1
100
AcDbVertex
100
AcDb3dPolylineVertex
 10
716.9197743456648
 20
173.477388333385
 30
0.0
 70
    32
  0
VERTEX
  5
14B1
330
14AC
100
AcDbEntity
  8
SCHLÜTER-BEKOTEC-EN
  6
Continuous
 62
   253
370
    -1
100
AcDbVertex
100
AcDb3dPolylineVertex
 10
716.4626067202375
 20
172.4041396489787
 30
0.0
 70
    32
  0
VERTEX
  5
14B2
330
14AC
100
AcDbEntity
  8
SCHLÜTER-BEKOTEC-EN
  6
Continuous
 62
   253
370
    -1
100
AcDbVertex
100
AcDb3dPolylineVertex
 10
715.8209925215529
 20
171.4298868289637
 30
0.0
 70
    32
  0
VERTEX
  5
14B3
330
14AC
100
AcDbEntity
  8
SCHLÜTER-BEKOTEC-EN
  6
Continuous
 62
   253
370
    -1
100
AcDbVertex
100
AcDb3dPolylineVertex
 10
715.015554956703
 20
170.5860117188143
 30
0.0
 70
    32
  0
VERTEX
  5
14B4
330
14AC
100
AcDbEntity
  8
SCHLÜTER-BEKOTEC-EN
  6
Continuous
 62
   253
370
    -1
100
AcDbVertex
100
AcDb3dPolylineVertex
 10
714.0722518484878
 20
169.8996958991933
 30
0.0
 70
    32
  0
VERTEX
  5
14B5
330
14AC
100
AcDbEntity
  8
SCHLÜTER-BEKOTEC-EN
  6
Continuous
 62
   253
370
    -1
100
AcDbVertex
100
AcDb3dPolylineVertex
 10
713.7559299986647
 20
169.7222416958261
 30
0.0
 70
    32
  0
SEQEND
  5
14B6
330
14AC
100
AcDbEntity
  8
SCHLÜTER-BEKOTEC-EN
  6
Continuous
 62
   253
370
    -1
  0
LINE
  5
14B7
330
A
100
AcDbEntity
  8
SCHLÜTER-BEKOTEC-EN
  6
Continuous
 62
   253
370
    -1
100
AcDbLine
 10
715.1308899443434
 20
185.355167250936
 30
0.0
 11
717.0694416086958
 21
176.93623469383
 31
0.0
  0
ARC
  5
14B8
330
A
100
AcDbEntity
  8
SCHLÜTER-BEKOTEC-EN
  6
Continuous
 62
   253
370
    -1
100
AcDbCircle
 10
717.8107519018781
 20
185.972241323297
 30
0.0
 40
2.749999999999956
100
AcDbArc
 50
90.0
 51
192.9670839831226
  0
POLYLINE
  5
14B9
330
A
100
AcDbEntity
  8
SCHLÜTER-BEKOTEC-EN
  6
Continuous
 62
   253
370
    -1
100
AcDb3dPolyline
 66
     1
 10
0.0
 20
0.0
 30
0.0
 70
     8
  0
VERTEX
  5
14BA
330
14B9
100
AcDbEntity
  8
SCHLÜTER-BEKOTEC-EN
  6
Continuous
 62
   253
370
    -1
100
AcDbVertex
100
AcDb3dPolylineVertex
 10
785.9029405300253
 20
169.7222416958261
 30
0.0
 70
    32
  0
VERTEX
  5
14BB
330
14B9
100
AcDbEntity
  8
SCHLÜTER-BEKOTEC-EN
  6
Continuous
 62
   253
370
    -1
100
AcDbVertex
100
AcDb3dPolylineVertex
 10
784.7157364409255
 20
170.5860117188143
 30
0.0
 70
    32
  0
VERTEX
  5
14BC
330
14B9
100
AcDbEntity
  8
SCHLÜTER-BEKOTEC-EN
  6
Continuous
 62
   253
370
    -1
100
AcDbVertex
100
AcDb3dPolylineVertex
 10
783.9103286783981
 20
171.4298868289637
 30
0.0
 70
    32
  0
VERTEX
  5
14BD
330
14B9
100
AcDbEntity
  8
SCHLÜTER-BEKOTEC-EN
  6
Continuous
 62
   253
370
    -1
100
AcDbVertex
100
AcDb3dPolylineVertex
 10
783.268684677391
 20
172.4041396489787
 30
0.0
 70
    32
  0
VERTEX
  5
14BE
330
14B9
100
AcDbEntity
  8
SCHLÜTER-BEKOTEC-EN
  6
Continuous
 62
   253
370
    -1
100
AcDbVertex
100
AcDb3dPolylineVertex
 10
782.811546854286
 20
173.477388333385
 30
0.0
 70
    32
  0
VERTEX
  5
14BF
330
14B9
100
AcDbEntity
  8
SCHLÜTER-BEKOTEC-EN
  6
Continuous
 62
   253
370
    -1
100
AcDbVertex
100
AcDb3dPolylineVertex
 10
782.5536077540205
 20
174.6150659135031
 30
0.0
 70
    32
  0
VERTEX
  5
14C0
330
14B9
100
AcDbEntity
  8
SCHLÜTER-BEKOTEC-EN
  6
Continuous
 62
   253
370
    -1
100
AcDbVertex
100
AcDb3dPolylineVertex
 10
782.5031524222182
 20
175.7805285713124
 30
0.0
 70
    32
  0
VERTEX
  5
14C1
330
14B9
100
AcDbEntity
  8
SCHLÜTER-BEKOTEC-EN
  6
Continuous
 62
   253
370
    -1
100
AcDbVertex
100
AcDb3dPolylineVertex
 10
782.6618497889327
 20
176.93623469383
 30
0.0
 70
    32
  0
SEQEND
  5
14C2
330
14B9
100
AcDbEntity
  8
SCHLÜTER-BEKOTEC-EN
  6
Continuous
 62
   253
370
    -1
  0
LINE
  5
14C3
330
A
100
AcDbEntity
  8
SCHLÜTER-BEKOTEC-EN
  6
Continuous
 62
   253
370
    -1
100
AcDbLine
 10
782.6618497889327
 20
176.93623469383
 30
0.0
 11
784.6004312556074
 21
185.355167250936
 31
0.0
  0
ARC
  5
14C4
330
A
100
AcDbEntity
  8
SCHLÜTER-BEKOTEC-EN
  6
Continuous
 62
   253
370
    -1
100
AcDbCircle
 10
781.9205599997481
 20
185.972241323297
 30
0.0
 40
2.749999999999921
100
AcDbArc
 50
347.0329160168774
 51
90.0
  0
LINE
  5
14C5
330
A
100
AcDbEntity
  8
SCHLÜTER-BEKOTEC-EN
  6
Continuous
 62
   253
370
    -1
100
AcDbLine
 10
785.9029405300253
 20
169.7222416958261
 30
0.0
 11
713.7559299986647
 21
169.7222416958261
 31
0.0
  0
LINE
  5
14C6
330
A
100
AcDbEntity
  8
SCHLÜTER-BEKOTEC-EN
  6
Continuous
 62
   253
370
    -1
100
AcDbLine
 10
566.3107504766273
 20
188.7222410848784
 30
0.0
 11
630.420552722721
 21
188.7222410848784
 31
0.0
  0
POLYLINE
  5
14C7
330
A
100
AcDbEntity
  8
SCHLÜTER-BEKOTEC-EN
  6
Continuous
 62
   253
370
    -1
100
AcDb3dPolyline
 66
     1
 10
0.0
 20
0.0
 30
0.0
 70
     8
  0
VERTEX
  5
14C8
330
14C7
100
AcDbEntity
  8
SCHLÜTER-BEKOTEC-EN
  6
Continuous
 62
   253
370
    -1
100
AcDbVertex
100
AcDb3dPolylineVertex
 10
565.5694475095557
 20
176.93623469383
 30
0.0
 70
    32
  0
VERTEX
  5
14C9
330
14C7
100
AcDbEntity
  8
SCHLÜTER-BEKOTEC-EN
  6
Continuous
 62
   253
370
    -1
100
AcDbVertex
100
AcDb3dPolylineVertex
 10
565.7281448762702
 20
175.7805285713124
 30
0.0
 70
    32
  0
VERTEX
  5
14CA
330
14C7
100
AcDbEntity
  8
SCHLÜTER-BEKOTEC-EN
  6
Continuous
 62
   253
370
    -1
100
AcDbVertex
100
AcDb3dPolylineVertex
 10
565.6777193467902
 20
174.6150659135031
 30
0.0
 70
    32
  0
VERTEX
  5
14CB
330
14C7
100
AcDbEntity
  8
SCHLÜTER-BEKOTEC-EN
  6
Continuous
 62
   253
370
    -1
100
AcDbVertex
100
AcDb3dPolylineVertex
 10
565.4197802465247
 20
173.477388333385
 30
0.0
 70
    32
  0
VERTEX
  5
14CC
330
14C7
100
AcDbEntity
  8
SCHLÜTER-BEKOTEC-EN
  6
Continuous
 62
   253
370
    -1
100
AcDbVertex
100
AcDb3dPolylineVertex
 10
564.9626126210975
 20
172.4041396489787
 30
0.0
 70
    32
  0
VERTEX
  5
14CD
330
14C7
100
AcDbEntity
  8
SCHLÜTER-BEKOTEC-EN
  6
Continuous
 62
   253
370
    -1
100
AcDbVertex
100
AcDb3dPolylineVertex
 10
564.3209984224128
 20
171.4298868289637
 30
0.0
 70
    32
  0
VERTEX
  5
14CE
330
14C7
100
AcDbEntity
  8
SCHLÜTER-BEKOTEC-EN
  6
Continuous
 62
   253
370
    -1
100
AcDbVertex
100
AcDb3dPolylineVertex
 10
563.515560857563
 20
170.5860117188143
 30
0.0
 70
    32
  0
VERTEX
  5
14CF
330
14C7
100
AcDbEntity
  8
SCHLÜTER-BEKOTEC-EN
  6
Continuous
 62
   253
370
    -1
100
AcDbVertex
100
AcDb3dPolylineVertex
 10
562.5722577493477
 20
169.8996958991933
 30
0.0
 70
    32
  0
VERTEX
  5
14D0
330
14C7
100
AcDbEntity
  8
SCHLÜTER-BEKOTEC-EN
  6
Continuous
 62
   253
370
    -1
100
AcDbVertex
100
AcDb3dPolylineVertex
 10
562.2559358995247
 20
169.7222416958261
 30
0.0
 70
    32
  0
SEQEND
  5
14D1
330
14C7
100
AcDbEntity
  8
SCHLÜTER-BEKOTEC-EN
  6
Continuous
 62
   253
370
    -1
  0
LINE
  5
14D2
330
A
100
AcDbEntity
  8
SCHLÜTER-BEKOTEC-EN
  6
Continuous
 62
   253
370
    -1
100
AcDbLine
 10
563.6308958452033
 20
185.355167250936
 30
0.0
 11
565.5694475095557
 21
176.93623469383
 31
0.0
  0
ARC
  5
14D3
330
A
100
AcDbEntity
  8
SCHLÜTER-BEKOTEC-EN
  6
Continuous
 62
   253
370
    -1
100
AcDbCircle
 10
566.3107578027381
 20
185.972241323297
 30
0.0
 40
2.749999999999956
100
AcDbArc
 50
90.0
 51
192.9670839831226
  0
POLYLINE
  5
14D4
330
A
100
AcDbEntity
  8
SCHLÜTER-BEKOTEC-EN
  6
Continuous
 62
   253
370
    -1
100
AcDb3dPolyline
 66
     1
 10
0.0
 20
0.0
 30
0.0
 70
     8
  0
VERTEX
  5
14D5
330
14D4
100
AcDbEntity
  8
SCHLÜTER-BEKOTEC-EN
  6
Continuous
 62
   253
370
    -1
100
AcDbVertex
100
AcDb3dPolylineVertex
 10
634.4029464308853
 20
169.7222416958261
 30
0.0
 70
    32
  0
VERTEX
  5
14D6
330
14D4
100
AcDbEntity
  8
SCHLÜTER-BEKOTEC-EN
  6
Continuous
 62
   253
370
    -1
100
AcDbVertex
100
AcDb3dPolylineVertex
 10
633.2157423417855
 20
170.5860117188143
 30
0.0
 70
    32
  0
VERTEX
  5
14D7
330
14D4
100
AcDbEntity
  8
SCHLÜTER-BEKOTEC-EN
  6
Continuous
 62
   253
370
    -1
100
AcDbVertex
100
AcDb3dPolylineVertex
 10
632.410334579258
 20
171.4298868289637
 30
0.0
 70
    32
  0
VERTEX
  5
14D8
330
14D4
100
AcDbEntity
  8
SCHLÜTER-BEKOTEC-EN
  6
Continuous
 62
   253
370
    -1
100
AcDbVertex
100
AcDb3dPolylineVertex
 10
631.7686905782509
 20
172.4041396489787
 30
0.0
 70
    32
  0
VERTEX
  5
14D9
330
14D4
100
AcDbEntity
  8
SCHLÜTER-BEKOTEC-EN
  6
Continuous
 62
   253
370
    -1
100
AcDbVertex
100
AcDb3dPolylineVertex
 10
631.311552755146
 20
173.477388333385
 30
0.0
 70
    32
  0
VERTEX
  5
14DA
330
14D4
100
AcDbEntity
  8
SCHLÜTER-BEKOTEC-EN
  6
Continuous
 62
   253
370
    -1
100
AcDbVertex
100
AcDb3dPolylineVertex
 10
631.0536136548805
 20
174.6150659135031
 30
0.0
 70
    32
  0
VERTEX
  5
14DB
330
14D4
100
AcDbEntity
  8
SCHLÜTER-BEKOTEC-EN
  6
Continuous
 62
   253
370
    -1
100
AcDbVertex
100
AcDb3dPolylineVertex
 10
631.0031583230782
 20
175.7805285713124
 30
0.0
 70
    32
  0
VERTEX
  5
14DC
330
14D4
100
AcDbEntity
  8
SCHLÜTER-BEKOTEC-EN
  6
Continuous
 62
   253
370
    -1
100
AcDbVertex
100
AcDb3dPolylineVertex
 10
631.1618556897927
 20
176.93623469383
 30
0.0
 70
    32
  0
SEQEND
  5
14DD
330
14D4
100
AcDbEntity
  8
SCHLÜTER-BEKOTEC-EN
  6
Continuous
 62
   253
370
    -1
  0
LINE
  5
14DE
330
A
100
AcDbEntity
  8
SCHLÜTER-BEKOTEC-EN
  6
Continuous
 62
   253
370
    -1
100
AcDbLine
 10
631.1618556897927
 20
176.93623469383
 30
0.0
 11
633.1004371564674
 21
185.355167250936
 31
0.0
  0
ARC
  5
14DF
330
A
100
AcDbEntity
  8
SCHLÜTER-BEKOTEC-EN
  6
Continuous
 62
   253
370
    -1
100
AcDbCircle
 10
630.420565900608
 20
185.972241323297
 30
0.0
 40
2.749999999999921
100
AcDbArc
 50
347.0329160168774
 51
90.0
  0
LINE
  5
14E0
330
A
100
AcDbEntity
  8
SCHLÜTER-BEKOTEC-EN
  6
Continuous
 62
   253
370
    -1
100
AcDbLine
 10
634.4029464308853
 20
169.7222416958261
 30
0.0
 11
562.2559358995246
 21
169.7222416958261
 31
0.0
  0
LINE
  5
14E1
330
A
100
AcDbEntity
  8
SCHLÜTER-BEKOTEC-EN
  6
Continuous
 62
   253
370
    -1
100
AcDbLine
 10
414.8107489269066
 20
188.7222410848784
 30
0.0
 11
478.9205511730004
 21
188.7222410848784
 31
0.0
  0
POLYLINE
  5
14E2
330
A
100
AcDbEntity
  8
SCHLÜTER-BEKOTEC-EN
  6
Continuous
 62
   253
370
    -1
100
AcDb3dPolyline
 66
     1
 10
0.0
 20
0.0
 30
0.0
 70
     8
  0
VERTEX
  5
14E3
330
14E2
100
AcDbEntity
  8
SCHLÜTER-BEKOTEC-EN
  6
Continuous
 62
   253
370
    -1
100
AcDbVertex
100
AcDb3dPolylineVertex
 10
414.0694459598351
 20
176.93623469383
 30
0.0
 70
    32
  0
VERTEX
  5
14E4
330
14E2
100
AcDbEntity
  8
SCHLÜTER-BEKOTEC-EN
  6
Continuous
 62
   253
370
    -1
100
AcDbVertex
100
AcDb3dPolylineVertex
 10
414.2281433265496
 20
175.7805285713124
 30
0.0
 70
    32
  0
VERTEX
  5
14E5
330
14E2
100
AcDbEntity
  8
SCHLÜTER-BEKOTEC-EN
  6
Continuous
 62
   253
370
    -1
100
AcDbVertex
100
AcDb3dPolylineVertex
 10
414.1777177970696
 20
174.6150659135031
 30
0.0
 70
    32
  0
VERTEX
  5
14E6
330
14E2
100
AcDbEntity
  8
SCHLÜTER-BEKOTEC-EN
  6
Continuous
 62
   253
370
    -1
100
AcDbVertex
100
AcDb3dPolylineVertex
 10
413.9197786968041
 20
173.477388333385
 30
0.0
 70
    32
  0
VERTEX
  5
14E7
330
14E2
100
AcDbEntity
  8
SCHLÜTER-BEKOTEC-EN
  6
Continuous
 62
   253
370
    -1
100
AcDbVertex
100
AcDb3dPolylineVertex
 10
413.4626110713768
 20
172.4041396489787
 30
0.0
 70
    32
  0
VERTEX
  5
14E8
330
14E2
100
AcDbEntity
  8
SCHLÜTER-BEKOTEC-EN
  6
Continuous
 62
   253
370
    -1
100
AcDbVertex
100
AcDb3dPolylineVertex
 10
412.8209968726921
 20
171.4298868289637
 30
0.0
 70
    32
  0
VERTEX
  5
14E9
330
14E2
100
AcDbEntity
  8
SCHLÜTER-BEKOTEC-EN
  6
Continuous
 62
   253
370
    -1
100
AcDbVertex
100
AcDb3dPolylineVertex
 10
412.0155593078423
 20
170.5860117188143
 30
0.0
 70
    32
  0
VERTEX
  5
14EA
330
14E2
100
AcDbEntity
  8
SCHLÜTER-BEKOTEC-EN
  6
Continuous
 62
   253
370
    -1
100
AcDbVertex
100
AcDb3dPolylineVertex
 10
411.0722561996271
 20
169.8996958991933
 30
0.0
 70
    32
  0
VERTEX
  5
14EB
330
14E2
100
AcDbEntity
  8
SCHLÜTER-BEKOTEC-EN
  6
Continuous
 62
   253
370
    -1
100
AcDbVertex
100
AcDb3dPolylineVertex
 10
410.755934349804
 20
169.7222416958261
 30
0.0
 70
    32
  0
SEQEND
  5
14EC
330
14E2
100
AcDbEntity
  8
SCHLÜTER-BEKOTEC-EN
  6
Continuous
 62
   253
370
    -1
  0
LINE
  5
14ED
330
A
100
AcDbEntity
  8
SCHLÜTER-BEKOTEC-EN
  6
Continuous
 62
   253
370
    -1
100
AcDbLine
 10
412.1308942954827
 20
185.355167250936
 30
0.0
 11
414.0694459598351
 21
176.93623469383
 31
0.0
  0
ARC
  5
14EE
330
A
100
AcDbEntity
  8
SCHLÜTER-BEKOTEC-EN
  6
Continuous
 62
   253
370
    -1
100
AcDbCircle
 10
414.8107562530174
 20
185.972241323297
 30
0.0
 40
2.749999999999956
100
AcDbArc
 50
90.0
 51
192.9670839831233
  0
POLYLINE
  5
14EF
330
A
100
AcDbEntity
  8
SCHLÜTER-BEKOTEC-EN
  6
Continuous
 62
   253
370
    -1
100
AcDb3dPolyline
 66
     1
 10
0.0
 20
0.0
 30
0.0
 70
     8
  0
VERTEX
  5
14F0
330
14EF
100
AcDbEntity
  8
SCHLÜTER-BEKOTEC-EN
  6
Continuous
 62
   253
370
    -1
100
AcDbVertex
100
AcDb3dPolylineVertex
 10
482.9029448811646
 20
169.7222416958261
 30
0.0
 70
    32
  0
VERTEX
  5
14F1
330
14EF
100
AcDbEntity
  8
SCHLÜTER-BEKOTEC-EN
  6
Continuous
 62
   253
370
    -1
100
AcDbVertex
100
AcDb3dPolylineVertex
 10
481.7157407920648
 20
170.5860117188143
 30
0.0
 70
    32
  0
VERTEX
  5
14F2
330
14EF
100
AcDbEntity
  8
SCHLÜTER-BEKOTEC-EN
  6
Continuous
 62
   253
370
    -1
100
AcDbVertex
100
AcDb3dPolylineVertex
 10
480.9103330295374
 20
171.4298868289637
 30
0.0
 70
    32
  0
VERTEX
  5
14F3
330
14EF
100
AcDbEntity
  8
SCHLÜTER-BEKOTEC-EN
  6
Continuous
 62
   253
370
    -1
100
AcDbVertex
100
AcDb3dPolylineVertex
 10
480.2686890285303
 20
172.4041396489787
 30
0.0
 70
    32
  0
VERTEX
  5
14F4
330
14EF
100
AcDbEntity
  8
SCHLÜTER-BEKOTEC-EN
  6
Continuous
 62
   253
370
    -1
100
AcDbVertex
100
AcDb3dPolylineVertex
 10
479.8115512054253
 20
173.477388333385
 30
0.0
 70
    32
  0
VERTEX
  5
14F5
330
14EF
100
AcDbEntity
  8
SCHLÜTER-BEKOTEC-EN
  6
Continuous
 62
   253
370
    -1
100
AcDbVertex
100
AcDb3dPolylineVertex
 10
479.5536121051598
 20
174.6150659135031
 30
0.0
 70
    32
  0
VERTEX
  5
14F6
330
14EF
100
AcDbEntity
  8
SCHLÜTER-BEKOTEC-EN
  6
Continuous
 62
   253
370
    -1
100
AcDbVertex
100
AcDb3dPolylineVertex
 10
479.5031567733575
 20
175.7805285713124
 30
0.0
 70
    32
  0
VERTEX
  5
14F7
330
14EF
100
AcDbEntity
  8
SCHLÜTER-BEKOTEC-EN
  6
Continuous
 62
   253
370
    -1
100
AcDbVertex
100
AcDb3dPolylineVertex
 10
479.661854140072
 20
176.93623469383
 30
0.0
 70
    32
  0
SEQEND
  5
14F8
330
14EF
100
AcDbEntity
  8
SCHLÜTER-BEKOTEC-EN
  6
Continuous
 62
   253
370
    -1
  0
LINE
  5
14F9
330
A
100
AcDbEntity
  8
SCHLÜTER-BEKOTEC-EN
  6
Continuous
 62
   253
370
    -1
100
AcDbLine
 10
479.661854140072
 20
176.93623469383
 30
0.0
 11
481.6004356067467
 21
185.355167250936
 31
0.0
  0
ARC
  5
14FA
330
A
100
AcDbEntity
  8
SCHLÜTER-BEKOTEC-EN
  6
Continuous
 62
   253
370
    -1
100
AcDbCircle
 10
478.9205643508874
 20
185.972241323297
 30
0.0
 40
2.749999999999921
100
AcDbArc
 50
347.0329160168767
 51
90.0
  0
LINE
  5
14FB
330
A
100
AcDbEntity
  8
SCHLÜTER-BEKOTEC-EN
  6
Continuous
 62
   253
370
    -1
100
AcDbLine
 10
482.9029448811646
 20
169.7222416958261
 30
0.0
 11
410.755934349804
 21
169.7222416958261
 31
0.0
  0
LINE
  5
14FC
330
A
100
AcDbEntity
  8
SCHLÜTER-BEKOTEC-EN
  6
Continuous
 62
   253
370
    -1
100
AcDbLine
 10
263.3107473771859
 20
188.7222410848784
 30
0.0
 11
327.4205496232796
 21
188.7222410848784
 31
0.0
  0
POLYLINE
  5
14FD
330
A
100
AcDbEntity
  8
SCHLÜTER-BEKOTEC-EN
  6
Continuous
 62
   253
370
    -1
100
AcDb3dPolyline
 66
     1
 10
0.0
 20
0.0
 30
0.0
 70
     8
  0
VERTEX
  5
14FE
330
14FD
100
AcDbEntity
  8
SCHLÜTER-BEKOTEC-EN
  6
Continuous
 62
   253
370
    -1
100
AcDbVertex
100
AcDb3dPolylineVertex
 10
262.5694444101143
 20
176.93623469383
 30
0.0
 70
    32
  0
VERTEX
  5
14FF
330
14FD
100
AcDbEntity
  8
SCHLÜTER-BEKOTEC-EN
  6
Continuous
 62
   253
370
    -1
100
AcDbVertex
100
AcDb3dPolylineVertex
 10
262.7281417768288
 20
175.7805285713124
 30
0.0
 70
    32
  0
VERTEX
  5
1500
330
14FD
100
AcDbEntity
  8
SCHLÜTER-BEKOTEC-EN
  6
Continuous
 62
   253
370
    -1
100
AcDbVertex
100
AcDb3dPolylineVertex
 10
262.6777162473488
 20
174.6150659135031
 30
0.0
 70
    32
  0
VERTEX
  5
1501
330
14FD
100
AcDbEntity
  8
SCHLÜTER-BEKOTEC-EN
  6
Continuous
 62
   253
370
    -1
100
AcDbVertex
100
AcDb3dPolylineVertex
 10
262.4197771470833
 20
173.477388333385
 30
0.0
 70
    32
  0
VERTEX
  5
1502
330
14FD
100
AcDbEntity
  8
SCHLÜTER-BEKOTEC-EN
  6
Continuous
 62
   253
370
    -1
100
AcDbVertex
100
AcDb3dPolylineVertex
 10
261.9626095216561
 20
172.4041396489787
 30
0.0
 70
    32
  0
VERTEX
  5
1503
330
14FD
100
AcDbEntity
  8
SCHLÜTER-BEKOTEC-EN
  6
Continuous
 62
   253
370
    -1
100
AcDbVertex
100
AcDb3dPolylineVertex
 10
261.3209953229714
 20
171.4298868289637
 30
0.0
 70
    32
  0
VERTEX
  5
1504
330
14FD
100
AcDbEntity
  8
SCHLÜTER-BEKOTEC-EN
  6
Continuous
 62
   253
370
    -1
100
AcDbVertex
100
AcDb3dPolylineVertex
 10
260.5155577581215
 20
170.5860117188143
 30
0.0
 70
    32
  0
VERTEX
  5
1505
330
14FD
100
AcDbEntity
  8
SCHLÜTER-BEKOTEC-EN
  6
Continuous
 62
   253
370
    -1
100
AcDbVertex
100
AcDb3dPolylineVertex
 10
259.5722546499063
 20
169.8996958991933
 30
0.0
 70
    32
  0
VERTEX
  5
1506
330
14FD
100
AcDbEntity
  8
SCHLÜTER-BEKOTEC-EN
  6
Continuous
 62
   253
370
    -1
100
AcDbVertex
100
AcDb3dPolylineVertex
 10
259.2559328000833
 20
169.7222416958261
 30
0.0
 70
    32
  0
SEQEND
  5
1507
330
14FD
100
AcDbEntity
  8
SCHLÜTER-BEKOTEC-EN
  6
Continuous
 62
   253
370
    -1
  0
LINE
  5
1508
330
A
100
AcDbEntity
  8
SCHLÜTER-BEKOTEC-EN
  6
Continuous
 62
   253
370
    -1
100
AcDbLine
 10
260.6308927457619
 20
185.355167250936
 30
0.0
 11
262.5694444101143
 21
176.93623469383
 31
0.0
  0
ARC
  5
1509
330
A
100
AcDbEntity
  8
SCHLÜTER-BEKOTEC-EN
  6
Continuous
 62
   253
370
    -1
100
AcDbCircle
 10
263.3107547032967
 20
185.972241323297
 30
0.0
 40
2.749999999999956
100
AcDbArc
 50
90.0
 51
192.9670839831233
  0
POLYLINE
  5
150A
330
A
100
AcDbEntity
  8
SCHLÜTER-BEKOTEC-EN
  6
Continuous
 62
   253
370
    -1
100
AcDb3dPolyline
 66
     1
 10
0.0
 20
0.0
 30
0.0
 70
     8
  0
VERTEX
  5
150B
330
150A
100
AcDbEntity
  8
SCHLÜTER-BEKOTEC-EN
  6
Continuous
 62
   253
370
    -1
100
AcDbVertex
100
AcDb3dPolylineVertex
 10
331.4029433314439
 20
169.7222416958261
 30
0.0
 70
    32
  0
VERTEX
  5
150C
330
150A
100
AcDbEntity
  8
SCHLÜTER-BEKOTEC-EN
  6
Continuous
 62
   253
370
    -1
100
AcDbVertex
100
AcDb3dPolylineVertex
 10
330.2157392423441
 20
170.5860117188143
 30
0.0
 70
    32
  0
VERTEX
  5
150D
330
150A
100
AcDbEntity
  8
SCHLÜTER-BEKOTEC-EN
  6
Continuous
 62
   253
370
    -1
100
AcDbVertex
100
AcDb3dPolylineVertex
 10
329.4103314798166
 20
171.4298868289637
 30
0.0
 70
    32
  0
VERTEX
  5
150E
330
150A
100
AcDbEntity
  8
SCHLÜTER-BEKOTEC-EN
  6
Continuous
 62
   253
370
    -1
100
AcDbVertex
100
AcDb3dPolylineVertex
 10
328.7686874788095
 20
172.4041396489787
 30
0.0
 70
    32
  0
VERTEX
  5
150F
330
150A
100
AcDbEntity
  8
SCHLÜTER-BEKOTEC-EN
  6
Continuous
 62
   253
370
    -1
100
AcDbVertex
100
AcDb3dPolylineVertex
 10
328.3115496557045
 20
173.477388333385
 30
0.0
 70
    32
  0
VERTEX
  5
1510
330
150A
100
AcDbEntity
  8
SCHLÜTER-BEKOTEC-EN
  6
Continuous
 62
   253
370
    -1
100
AcDbVertex
100
AcDb3dPolylineVertex
 10
328.053610555439
 20
174.6150659135031
 30
0.0
 70
    32
  0
VERTEX
  5
1511
330
150A
100
AcDbEntity
  8
SCHLÜTER-BEKOTEC-EN
  6
Continuous
 62
   253
370
    -1
100
AcDbVertex
100
AcDb3dPolylineVertex
 10
328.0031552236368
 20
175.7805285713124
 30
0.0
 70
    32
  0
VERTEX
  5
1512
330
150A
100
AcDbEntity
  8
SCHLÜTER-BEKOTEC-EN
  6
Continuous
 62
   253
370
    -1
100
AcDbVertex
100
AcDb3dPolylineVertex
 10
328.1618525903513
 20
176.93623469383
 30
0.0
 70
    32
  0
SEQEND
  5
1513
330
150A
100
AcDbEntity
  8
SCHLÜTER-BEKOTEC-EN
  6
Continuous
 62
   253
370
    -1
  0
LINE
  5
1514
330
A
100
AcDbEntity
  8
SCHLÜTER-BEKOTEC-EN
  6
Continuous
 62
   253
370
    -1
100
AcDbLine
 10
328.1618525903513
 20
176.93623469383
 30
0.0
 11
330.100434057026
 21
185.355167250936
 31
0.0
  0
ARC
  5
1515
330
A
100
AcDbEntity
  8
SCHLÜTER-BEKOTEC-EN
  6
Continuous
 62
   253
370
    -1
100
AcDbCircle
 10
327.4205628011666
 20
185.972241323297
 30
0.0
 40
2.749999999999921
100
AcDbArc
 50
347.0329160168767
 51
90.0
  0
LINE
  5
1516
330
A
100
AcDbEntity
  8
SCHLÜTER-BEKOTEC-EN
  6
Continuous
 62
   253
370
    -1
100
AcDbLine
 10
331.4029433314439
 20
169.7222416958261
 30
0.0
 11
259.2559328000833
 21
169.7222416958261
 31
0.0
  0
HATCH
  5
1672
330
A
100
AcDbEntity
  8
HATCH
  6
Continuous
 62
     7
370
    -1
100
AcDbHatch
 10
0.0
 20
0.0
 30
0.0
210
0.0
220
0.0
230
1.0
  2
SOLID
 70
     1
 71
     0
 91
        1
 92
        7
 72
     1
 73
     1
 93
       95
 10
562.9906525533486
 20
164.7222408762622
 42
0.0
 10
562.9906525533486
 20
169.222240682547
 42
0.0
 10
562.4906515400696
 20
169.722241695826
 42
0.0
 10
560.7846540650062
 20
169.722241695826
 42
-0.4825265124414438
 10
554.4494250619107
 20
177.6860554951285
 42
0.0
 10
556.2163278557332
 20
185.3594878813993
 42
0.4816689211930961
 10
553.5354635884785
 20
188.7222413232971
 42
0.0
 10
537.6156516592793
 20
188.7222413232971
 42
0.0
 10
531.6156467120936
 20
182.722240101402
 42
0.0
 10
513.615647486954
 20
182.722240101402
 42
0.0
 10
507.6156499903492
 20
188.7222413232971
 42
0.0
 10
491.6958359153821
 20
188.7222413232971
 42
0.4817909912947665
 10
489.0152146995766
 20
185.3584254735717
 42
0.0
 10
490.7827631505764
 20
177.682205263263
 42
-0.4823391610299195
 10
484.4466454388254
 20
169.722241695826
 42
0.0
 10
482.7406501095583
 20
169.722241695826
 42
0.0
 10
482.2406490962794
 20
169.222240682547
 42
0.0
 10
482.2406490962794
 20
164.7222408762622
 42
0.0
 10
411.490651003628
 20
164.7222408762622
 42
0.0
 10
411.4906510036279
 20
169.2222406825471
 42
0.0
 10
410.990649990349
 20
169.722241695826
 42
0.0
 10
408.4771699646466
 20
169.722241695826
 42
-0.4143127284029166
 10
401.9749693108242
 20
176.222241323297
 42
-0.0826359857084077
 10
402.3252616089032
 20
178.3272579932865
 42
0.0
 10
404.6372614511091
 20
185.0816573475322
 42
0.5144589352043681
 10
402.0354620387578
 20
188.7222413232971
 42
0.0
 10
386.1156501095585
 20
188.7222413232971
 42
0.0
 10
380.1156488876631
 20
182.722240101402
 42
0.0
 10
362.1156533878138
 20
182.722240101402
 42
0.0
 10
356.1156484406282
 20
188.7222413232971
 42
0.0
 10
340.1958343656614
 20
188.7222413232971
 42
0.4817909912947665
 10
337.515213149856
 20
185.3584254735717
 42
0.0
 10
339.2827616008558
 20
177.682205263263
 42
-0.4823391610299195
 10
332.9466438891047
 20
169.722241695826
 42
0.0
 10
331.2406485598377
 20
169.722241695826
 42
0.0
 10
330.7406475465587
 20
169.222240682547
 42
0.0
 10
330.7406475465587
 20
164.7222408762622
 42
0.0
 10
259.9906494539071
 20
164.7222408762622
 42
0.0
 10
259.9906494539071
 20
169.2222406825471
 42
0.0
 10
259.4906484406281
 20
169.722241695826
 42
0.0
 10
257.7846509655566
 20
169.722241695826
 42
-0.4825265124408756
 10
251.4494219624683
 20
177.6860554951246
 42
0.0
 10
253.2163247562918
 20
185.3594878813996
 42
0.4816689211930656
 10
250.535460489037
 20
188.7222413232971
 42
0.0
 10
234.6156485598376
 20
188.7222413232971
 42
0.0
 10
228.6156510632327
 20
182.722240101402
 42
0.0
 10
210.6156443875126
 20
182.722240101402
 42
0.0
 10
204.6156468909075
 20
188.7222413232971
 42
0.0
 10
188.6958328159406
 20
188.7222413232971
 42
0.4817909912947697
 10
186.0152116001351
 20
185.3584254735717
 42
0.0
 10
187.7827600511464
 20
177.6822052632135
 42
-0.4823391610257478
 10
181.4466423394211
 20
169.722241695826
 42
0.0
 10
179.7406470101169
 20
169.722241695826
 42
0.0
 10
179.2406459968379
 20
169.2222406825471
 42
0.0
 10
179.240645996838
 20
164.7222408762622
 42
0.0
 10
108.4906479041863
 20
164.7222408762622
 42
0.0
 10
108.4906479041863
 20
169.222240682547
 42
0.0
 10
107.9906468909074
 20
169.722241695826
 42
0.0
 10
106.2846494158358
 20
169.722241695826
 42
-0.4825265124408126
 10
99.9494204127472
 20
177.6860554951233
 42
0.0
 10
101.716323206571
 20
185.3594878813994
 42
0.4816689235680387
 10
99.0354589181113
 20
188.7222413232971
 42
0.0
 10
83.11566178852277
 20
188.7222412005416
 42
0.0
 10
79.11565356662766
 20
184.7222404292273
 42
0.0
 10
68.1156461756517
 20
184.7222404292273
 42
0.0
 10
68.1156461756517
 20
173.722240488832
 42
0.0
 10
65.281989887044
 20
173.722240488832
 42
0.0
 10
65.281989887044
 20
144.722241323297
 42
0.0
 10
810.615653328209
 20
144.722241323297
 42
0.0
 10
810.615653328209
 20
188.7222410848784
 42
0.0
 10
794.6958316054275
 20
188.7222413232971
 42
0.4817909959118861
 10
792.0152103484455
 20
185.358425473537
 42
0.0
 10
793.7827587994486
 20
177.6822052632142
 42
-0.4823391610260138
 10
787.4466410877186
 20
169.722241695826
 42
0.0
 10
785.7406457584193
 20
169.722241695826
 42
0.0
 10
785.2406447451403
 20
169.2222406825471
 42
0.0
 10
785.2406447451402
 20
164.7222408762622
 42
0.0
 10
714.4906541030693
 20
164.7222408762622
 42
0.0
 10
714.4906541030693
 20
169.2222406825471
 42
0.0
 10
713.9906530897905
 20
169.722241695826
 42
0.0
 10
712.284655614727
 20
169.722241695826
 42
-0.4825265124414438
 10
705.9494266116315
 20
177.6860554951285
 42
0.0
 10
707.716329405454
 20
185.3594878813993
 42
0.4816689211930961
 10
705.0354651381992
 20
188.7222413232971
 42
0.0
 10
689.1156532089996
 20
188.7222413232971
 42
0.0
 10
683.1156557123946
 20
182.722240101402
 42
0.0
 10
665.1156490366745
 20
182.722240101402
 42
0.0
 10
659.11565154007
 20
188.7222413232971
 42
0.0
 10
643.1958374651028
 20
188.7222413232971
 42
0.4817909912987592
 10
640.5152162493054
 20
185.358425473537
 42
0.0
 10
642.2827647003085
 20
177.6822052632142
 42
-0.4823391610260138
 10
635.9466469885784
 20
169.722241695826
 42
0.0
 10
634.2406516592791
 20
169.722241695826
 42
0.0
 10
633.7406506460002
 20
169.2222406825471
 42
0.0
 10
633.7406506460003
 20
164.7222408762622
 42
0.0
 97
        0
 75
     0
 76
     1
 47
1.305557673613197
 98
        1
 10
589.8917330053778
 20
156.0560034227558
  0
LINE
  5
1757
330
A
100
AcDbEntity
  8
SCHLÜTER-BEKOTEC-EN-BACK
  6
Continuous
 62
     7
370
    -1
100
AcDbLine
 10
404.6372614511091
 20
185.0816573475322
 30
0.0
 11
402.3252616089032
 21
178.3272579932865
 31
0.0
  0
ARC
  5
1758
330
A
100
AcDbEntity
  8
SCHLÜTER-BEKOTEC-EN-BACK
  6
Continuous
 62
     7
370
    -1
100
AcDbCircle
 10
408.4749693108242
 20
176.222241323297
 30
0.0
 40
6.5
100
AcDbArc
 50
161.1041604661693
 51
270.0193981813351
  0
LINE
  5
1759
330
A
100
AcDbEntity
  8
SCHLÜTER-BEKOTEC-EN-BACK
  6
Continuous
 62
     7
370
    -1
100
AcDbLine
 10
179.2406459968379
 20
164.7222408762622
 30
0.0
 11
108.4906479041863
 21
164.7222408762622
 31
0.0
  0
LINE
  5
175A
330
A
100
AcDbEntity
  8
SCHLÜTER-BEKOTEC-EN-BACK
  6
Continuous
 62
     7
370
    -1
100
AcDbLine
 10
330.7406475465588
 20
164.7222408762622
 30
0.0
 11
259.9906494539071
 21
164.7222408762622
 31
0.0
  0
LINE
  5
175B
330
A
100
AcDbEntity
  8
SCHLÜTER-BEKOTEC-EN-BACK
  6
Continuous
 62
     7
370
    -1
100
AcDbLine
 10
482.2406490962794
 20
164.7222408762622
 30
0.0
 11
411.4906510036279
 21
164.7222408762622
 31
0.0
  0
LINE
  5
175C
330
A
100
AcDbEntity
  8
SCHLÜTER-BEKOTEC-EN-BACK
  6
Continuous
 62
     7
370
    -1
100
AcDbLine
 10
633.7406506460002
 20
164.7222408762622
 30
0.0
 11
562.9906525533486
 21
164.7222408762622
 31
0.0
  0
LINE
  5
175D
330
A
100
AcDbEntity
  8
SCHLÜTER-BEKOTEC-EN-BACK
  6
Continuous
 62
     7
370
    -1
100
AcDbLine
 10
785.2406447451403
 20
164.7222408762622
 30
0.0
 11
714.4906541030693
 21
164.7222408762622
 31
0.0
  0
LINE
  5
175E
330
A
100
AcDbEntity
  8
SCHLÜTER-BEKOTEC-EN-BACK
  6
Continuous
 62
     7
370
    -1
100
AcDbLine
 10
810.615653328209
 20
188.7222410848784
 30
0.0
 11
794.695831564243
 21
188.7222413232971
 31
0.0
  0
LINE
  5
175F
330
A
100
AcDbEntity
  8
SCHLÜTER-BEKOTEC-EN-BACK
  6
Continuous
 62
     7
370
    -1
100
AcDbLine
 10
705.0354651381992
 20
188.7222413232971
 30
0.0
 11
643.1958374651028
 21
188.7222413232971
 31
0.0
  0
LINE
  5
1760
330
A
100
AcDbEntity
  8
SCHLÜTER-BEKOTEC-EN-BACK
  6
Continuous
 62
     7
370
    -1
100
AcDbLine
 10
553.5354635884785
 20
188.7222413232971
 30
0.0
 11
491.6958359153821
 21
188.7222413232971
 31
0.0
  0
LINE
  5
1761
330
A
100
AcDbEntity
  8
SCHLÜTER-BEKOTEC-EN-BACK
  6
Continuous
 62
     7
370
    -1
100
AcDbLine
 10
340.1958343656614
 20
188.7222413232971
 30
0.0
 11
402.0354620387578
 21
188.7222413232971
 31
0.0
  0
LINE
  5
1762
330
A
100
AcDbEntity
  8
SCHLÜTER-BEKOTEC-EN-BACK
  6
Continuous
 62
     7
370
    -1
100
AcDbLine
 10
188.6958328159406
 20
188.7222413232971
 30
0.0
 11
250.535460489037
 21
188.7222413232971
 31
0.0
  0
LINE
  5
1763
330
A
100
AcDbEntity
  8
SCHLÜTER-BEKOTEC-EN-BACK
  6
Continuous
 62
     7
370
    -1
100
AcDbLine
 10
68.1156461756517
 20
188.7222410848784
 30
0.0
 11
99.03545893931619
 21
188.7222413232971
 31
0.0
  0
LINE
  5
1764
330
A
100
AcDbEntity
  8
SCHLÜTER-BEKOTEC-EN-BACK
  6
Continuous
 62
     7
370
    -1
100
AcDbLine
 10
68.11564617565169
 20
173.722240488832
 30
0.0
 11
65.281989887044
 21
173.722240488832
 31
0.0
  0
LINE
  5
1765
330
A
100
AcDbEntity
  8
SCHLÜTER-BEKOTEC-EN-BACK
  6
Continuous
 62
     7
370
    -1
100
AcDbLine
 10
810.615653328209
 20
144.722241323297
 30
0.0
 11
65.281989887044
 21
144.722241323297
 31
0.0
  0
LINE
  5
1766
330
A
100
AcDbEntity
  8
SCHLÜTER-BEKOTEC-EN-BACK
  6
Continuous
 62
     7
370
    -1
100
AcDbLine
 10
68.1156461756517
 20
173.722240488832
 30
0.0
 11
68.1156461756517
 21
188.7222410848784
 31
0.0
  0
LINE
  5
1767
330
A
100
AcDbEntity
  8
SCHLÜTER-BEKOTEC-EN-BACK
  6
Continuous
 62
     7
370
    -1
100
AcDbLine
 10
810.615653328209
 20
144.722241323297
 30
0.0
 11
810.615653328209
 21
188.7222410848784
 31
0.0
  0
LINE
  5
1768
330
A
100
AcDbEntity
  8
SCHLÜTER-BEKOTEC-EN-BACK
  6
Continuous
 62
     7
370
    -1
100
AcDbLine
 10
65.281989887044
 20
144.722241323297
 30
0.0
 11
65.281989887044
 21
173.722240488832
 31
0.0
  0
LINE
  5
1769
330
A
100
AcDbEntity
  8
SCHLÜTER-BEKOTEC-EN-BACK
  6
Continuous
 62
     7
370
    -1
100
AcDbLine
 10
785.2406447451403
 20
169.2222406825471
 30
0.0
 11
785.2406447451403
 21
164.7222408762622
 31
0.0
  0
ARC
  5
176A
330
A
100
AcDbEntity
  8
SCHLÜTER-BEKOTEC-EN-BACK
  6
Continuous
 62
     7
370
    -1
100
AcDbCircle
 10
794.695831564243
 20
185.972241323297
 30
0.0
 40
2.75000000000006
100
AcDbArc
 50
90.0
 51
192.9670839831226
  0
LINE
  5
176B
330
A
100
AcDbEntity
  8
SCHLÜTER-BEKOTEC-EN-BACK
  6
Continuous
 62
     7
370
    -1
100
AcDbLine
 10
792.0159605961135
 20
185.355167250936
 30
0.0
 11
793.7830855768016
 21
177.680786114042
 31
0.0
  0
ARC
  5
176C
330
A
100
AcDbEntity
  8
SCHLÜTER-BEKOTEC-EN-BACK
  6
Continuous
 62
     7
370
    -1
100
AcDbCircle
 10
787.4488417417234
 20
176.222241323297
 30
0.0
 40
6.500000000000055
100
AcDbArc
 50
270.0
 51
12.96708398312259
  0
LINE
  5
176D
330
A
100
AcDbEntity
  8
SCHLÜTER-BEKOTEC-EN-BACK
  6
Continuous
 62
     7
370
    -1
100
AcDbLine
 10
787.448840371876
 20
169.722241695826
 30
0.0
 11
785.7406457584193
 21
169.722241695826
 31
0.0
  0
LINE
  5
176E
330
A
100
AcDbEntity
  8
SCHLÜTER-BEKOTEC-EN-BACK
  6
Continuous
 62
     7
370
    -1
100
AcDbLine
 10
785.2406447451403
 20
169.2222406825471
 30
0.0
 11
785.7406457584193
 21
169.722241695826
 31
0.0
  0
LINE
  5
176F
330
A
100
AcDbEntity
  8
SCHLÜTER-BEKOTEC-EN-BACK
  6
Continuous
 62
     7
370
    -1
100
AcDbLine
 10
108.4906479041863
 20
164.7222408762622
 30
0.0
 11
108.4906479041863
 21
169.2222406825471
 31
0.0
  0
ARC
  5
1770
330
A
100
AcDbEntity
  8
SCHLÜTER-BEKOTEC-EN-BACK
  6
Continuous
 62
     7
370
    -1
100
AcDbCircle
 10
99.03545893931619
 20
185.972241323297
 30
0.0
 40
2.750000000000129
100
AcDbArc
 50
347.0329160168767
 51
90.0
  0
LINE
  5
1771
330
A
100
AcDbEntity
  8
SCHLÜTER-BEKOTEC-EN-BACK
  6
Continuous
 62
     7
370
    -1
100
AcDbLine
 10
107.9906468909073
 20
169.722241695826
 30
0.0
 11
108.4906479041863
 21
169.2222406825471
 31
0.0
  0
LINE
  5
1772
330
A
100
AcDbEntity
  8
SCHLÜTER-BEKOTEC-EN-BACK
  6
Continuous
 62
     7
370
    -1
100
AcDbLine
 10
107.9906468909073
 20
169.722241695826
 30
0.0
 11
106.2824522774506
 21
169.722241695826
 31
0.0
  0
ARC
  5
1773
330
A
100
AcDbEntity
  8
SCHLÜTER-BEKOTEC-EN-BACK
  6
Continuous
 62
     7
370
    -1
100
AcDbCircle
 10
106.2824487618359
 20
176.222241323297
 30
0.0
 40
6.500000000000055
100
AcDbArc
 50
167.0329160168767
 51
270.0
  0
LINE
  5
1774
330
A
100
AcDbEntity
  8
SCHLÜTER-BEKOTEC-EN-BACK
  6
Continuous
 62
     7
370
    -1
100
AcDbLine
 10
99.94820707252529
 20
177.680786114042
 30
0.0
 11
101.7153283279231
 21
185.355167250936
 31
0.0
  0
LINE
  5
1775
330
A
100
AcDbEntity
  8
SCHLÜTER-BEKOTEC-EN-BACK
  6
Continuous
 62
     7
370
    -1
100
AcDbLine
 10
259.9906494539071
 20
164.7222408762622
 30
0.0
 11
259.9906494539071
 21
169.2222406825471
 31
0.0
  0
ARC
  5
1776
330
A
100
AcDbEntity
  8
SCHLÜTER-BEKOTEC-EN-BACK
  6
Continuous
 62
     7
370
    -1
100
AcDbCircle
 10
250.535460489037
 20
185.972241323297
 30
0.0
 40
2.750000000000129
100
AcDbArc
 50
347.0329160168767
 51
90.0
  0
LINE
  5
1777
330
A
100
AcDbEntity
  8
SCHLÜTER-BEKOTEC-EN-BACK
  6
Continuous
 62
     7
370
    -1
100
AcDbLine
 10
259.4906484406281
 20
169.722241695826
 30
0.0
 11
259.9906494539071
 21
169.2222406825471
 31
0.0
  0
LINE
  5
1778
330
A
100
AcDbEntity
  8
SCHLÜTER-BEKOTEC-EN-BACK
  6
Continuous
 62
     7
370
    -1
100
AcDbLine
 10
259.4906484406281
 20
169.722241695826
 30
0.0
 11
257.7824538271714
 21
169.722241695826
 31
0.0
  0
ARC
  5
1779
330
A
100
AcDbEntity
  8
SCHLÜTER-BEKOTEC-EN-BACK
  6
Continuous
 62
     7
370
    -1
100
AcDbCircle
 10
257.7824503115567
 20
176.222241323297
 30
0.0
 40
6.500000000000055
100
AcDbArc
 50
167.0329160168767
 51
270.0
  0
LINE
  5
177A
330
A
100
AcDbEntity
  8
SCHLÜTER-BEKOTEC-EN-BACK
  6
Continuous
 62
     7
370
    -1
100
AcDbLine
 10
251.4482086222461
 20
177.680786114042
 30
0.0
 11
253.2153298776439
 21
185.355167250936
 31
0.0
  0
LINE
  5
177B
330
A
100
AcDbEntity
  8
SCHLÜTER-BEKOTEC-EN-BACK
  6
Continuous
 62
     7
370
    -1
100
AcDbLine
 10
179.2406459968379
 20
169.2222406825471
 30
0.0
 11
179.2406459968379
 21
164.7222408762622
 31
0.0
  0
ARC
  5
177C
330
A
100
AcDbEntity
  8
SCHLÜTER-BEKOTEC-EN-BACK
  6
Continuous
 62
     7
370
    -1
100
AcDbCircle
 10
188.6958328159406
 20
185.972241323297
 30
0.0
 40
2.75000000000006
100
AcDbArc
 50
90.0
 51
192.9670839831233
  0
LINE
  5
177D
330
A
100
AcDbEntity
  8
SCHLÜTER-BEKOTEC-EN-BACK
  6
Continuous
 62
     7
370
    -1
100
AcDbLine
 10
186.0159618478111
 20
185.355167250936
 30
0.0
 11
187.7830868284992
 21
177.680786114042
 31
0.0
  0
ARC
  5
177E
330
A
100
AcDbEntity
  8
SCHLÜTER-BEKOTEC-EN-BACK
  6
Continuous
 62
     7
370
    -1
100
AcDbCircle
 10
181.448842993421
 20
176.222241323297
 30
0.0
 40
6.500000000000055
100
AcDbArc
 50
270.0
 51
12.96708398312331
  0
LINE
  5
177F
330
A
100
AcDbEntity
  8
SCHLÜTER-BEKOTEC-EN-BACK
  6
Continuous
 62
     7
370
    -1
100
AcDbLine
 10
181.4488416235736
 20
169.722241695826
 30
0.0
 11
179.7406470101169
 21
169.722241695826
 31
0.0
  0
LINE
  5
1780
330
A
100
AcDbEntity
  8
SCHLÜTER-BEKOTEC-EN-BACK
  6
Continuous
 62
     7
370
    -1
100
AcDbLine
 10
179.2406459968379
 20
169.2222406825471
 30
0.0
 11
179.7406470101169
 21
169.722241695826
 31
0.0
  0
LINE
  5
1781
330
A
100
AcDbEntity
  8
SCHLÜTER-BEKOTEC-EN-BACK
  6
Continuous
 62
     7
370
    -1
100
AcDbLine
 10
411.4906510036279
 20
164.7222408762622
 30
0.0
 11
411.4906510036279
 21
169.2222406825471
 31
0.0
  0
ARC
  5
1782
330
A
100
AcDbEntity
  8
SCHLÜTER-BEKOTEC-EN-BACK
  6
Continuous
 62
     7
370
    -1
100
AcDbCircle
 10
402.0354620387578
 20
185.972241323297
 30
0.0
 40
2.750000000000129
100
AcDbArc
 50
341.1041604661693
 51
90.0
  0
LINE
  5
1783
330
A
100
AcDbEntity
  8
SCHLÜTER-BEKOTEC-EN-BACK
  6
Continuous
 62
     7
370
    -1
100
AcDbLine
 10
410.990649990349
 20
169.722241695826
 30
0.0
 11
411.4906510036279
 21
169.2222406825471
 31
0.0
  0
LINE
  5
1784
330
A
100
AcDbEntity
  8
SCHLÜTER-BEKOTEC-EN-BACK
  6
Continuous
 62
     7
370
    -1
100
AcDbLine
 10
410.990649990349
 20
169.722241695826
 30
0.0
 11
408.4771699646478
 21
169.722241695826
 31
0.0
  0
LINE
  5
1785
330
A
100
AcDbEntity
  8
SCHLÜTER-BEKOTEC-EN-BACK
  6
Continuous
 62
     7
370
    -1
100
AcDbLine
 10
330.7406475465588
 20
169.2222406825471
 30
0.0
 11
330.7406475465588
 21
164.7222408762622
 31
0.0
  0
ARC
  5
1786
330
A
100
AcDbEntity
  8
SCHLÜTER-BEKOTEC-EN-BACK
  6
Continuous
 62
     7
370
    -1
100
AcDbCircle
 10
340.1958343656614
 20
185.972241323297
 30
0.0
 40
2.75000000000006
100
AcDbArc
 50
90.0
 51
192.9670839831233
  0
LINE
  5
1787
330
A
100
AcDbEntity
  8
SCHLÜTER-BEKOTEC-EN-BACK
  6
Continuous
 62
     7
370
    -1
100
AcDbLine
 10
337.5159633975319
 20
185.355167250936
 30
0.0
 11
339.28308837822
 21
177.680786114042
 31
0.0
  0
ARC
  5
1788
330
A
100
AcDbEntity
  8
SCHLÜTER-BEKOTEC-EN-BACK
  6
Continuous
 62
     7
370
    -1
100
AcDbCircle
 10
332.9488445431418
 20
176.222241323297
 30
0.0
 40
6.500000000000055
100
AcDbArc
 50
270.0
 51
12.96708398312331
  0
LINE
  5
1789
330
A
100
AcDbEntity
  8
SCHLÜTER-BEKOTEC-EN-BACK
  6
Continuous
 62
     7
370
    -1
100
AcDbLine
 10
332.9488431732944
 20
169.722241695826
 30
0.0
 11
331.2406485598377
 21
169.722241695826
 31
0.0
  0
LINE
  5
178A
330
A
100
AcDbEntity
  8
SCHLÜTER-BEKOTEC-EN-BACK
  6
Continuous
 62
     7
370
    -1
100
AcDbLine
 10
330.7406475465588
 20
169.2222406825471
 30
0.0
 11
331.2406485598377
 21
169.722241695826
 31
0.0
  0
LINE
  5
178B
330
A
100
AcDbEntity
  8
SCHLÜTER-BEKOTEC-EN-BACK
  6
Continuous
 62
     7
370
    -1
100
AcDbLine
 10
714.4906541030693
 20
164.7222408762622
 30
0.0
 11
714.4906541030693
 21
169.2222406825471
 31
0.0
  0
ARC
  5
178C
330
A
100
AcDbEntity
  8
SCHLÜTER-BEKOTEC-EN-BACK
  6
Continuous
 62
     7
370
    -1
100
AcDbCircle
 10
705.0354651381992
 20
185.972241323297
 30
0.0
 40
2.750000000000129
100
AcDbArc
 50
347.0329160168774
 51
90.0
  0
LINE
  5
178D
330
A
100
AcDbEntity
  8
SCHLÜTER-BEKOTEC-EN-BACK
  6
Continuous
 62
     7
370
    -1
100
AcDbLine
 10
713.9906530897904
 20
169.722241695826
 30
0.0
 11
714.4906541030693
 21
169.2222406825471
 31
0.0
  0
LINE
  5
178E
330
A
100
AcDbEntity
  8
SCHLÜTER-BEKOTEC-EN-BACK
  6
Continuous
 62
     7
370
    -1
100
AcDbLine
 10
713.9906530897904
 20
169.722241695826
 30
0.0
 11
712.2824584763337
 21
169.722241695826
 31
0.0
  0
ARC
  5
178F
330
A
100
AcDbEntity
  8
SCHLÜTER-BEKOTEC-EN-BACK
  6
Continuous
 62
     7
370
    -1
100
AcDbCircle
 10
712.282454960719
 20
176.222241323297
 30
0.0
 40
6.500000000000055
100
AcDbArc
 50
167.0329160168774
 51
270.0
  0
LINE
  5
1790
330
A
100
AcDbEntity
  8
SCHLÜTER-BEKOTEC-EN-BACK
  6
Continuous
 62
     7
370
    -1
100
AcDbLine
 10
705.9482132714083
 20
177.680786114042
 30
0.0
 11
707.7153345268061
 21
185.355167250936
 31
0.0
  0
LINE
  5
1791
330
A
100
AcDbEntity
  8
SCHLÜTER-BEKOTEC-EN-BACK
  6
Continuous
 62
     7
370
    -1
100
AcDbLine
 10
633.7406506460002
 20
169.2222406825471
 30
0.0
 11
633.7406506460002
 21
164.7222408762622
 31
0.0
  0
ARC
  5
1792
330
A
100
AcDbEntity
  8
SCHLÜTER-BEKOTEC-EN-BACK
  6
Continuous
 62
     7
370
    -1
100
AcDbCircle
 10
643.1958374651028
 20
185.972241323297
 30
0.0
 40
2.75000000000006
100
AcDbArc
 50
90.0
 51
192.9670839831226
  0
LINE
  5
1793
330
A
100
AcDbEntity
  8
SCHLÜTER-BEKOTEC-EN-BACK
  6
Continuous
 62
     7
370
    -1
100
AcDbLine
 10
640.5159664969733
 20
185.355167250936
 30
0.0
 11
642.2830914776614
 21
177.680786114042
 31
0.0
  0
ARC
  5
1794
330
A
100
AcDbEntity
  8
SCHLÜTER-BEKOTEC-EN-BACK
  6
Continuous
 62
     7
370
    -1
100
AcDbCircle
 10
635.9488476425832
 20
176.222241323297
 30
0.0
 40
6.500000000000055
100
AcDbArc
 50
270.0
 51
12.96708398312259
  0
LINE
  5
1795
330
A
100
AcDbEntity
  8
SCHLÜTER-BEKOTEC-EN-BACK
  6
Continuous
 62
     7
370
    -1
100
AcDbLine
 10
635.9488462727359
 20
169.722241695826
 30
0.0
 11
634.2406516592791
 21
169.722241695826
 31
0.0
  0
LINE
  5
1796
330
A
100
AcDbEntity
  8
SCHLÜTER-BEKOTEC-EN-BACK
  6
Continuous
 62
     7
370
    -1
100
AcDbLine
 10
633.7406506460002
 20
169.2222406825471
 30
0.0
 11
634.2406516592791
 21
169.722241695826
 31
0.0
  0
LINE
  5
1797
330
A
100
AcDbEntity
  8
SCHLÜTER-BEKOTEC-EN-BACK
  6
Continuous
 62
     7
370
    -1
100
AcDbLine
 10
482.2406490962794
 20
169.2222406825471
 30
0.0
 11
482.7406501095584
 21
169.722241695826
 31
0.0
  0
LINE
  5
1798
330
A
100
AcDbEntity
  8
SCHLÜTER-BEKOTEC-EN-BACK
  6
Continuous
 62
     7
370
    -1
100
AcDbLine
 10
484.4488447230151
 20
169.722241695826
 30
0.0
 11
482.7406501095584
 21
169.722241695826
 31
0.0
  0
ARC
  5
1799
330
A
100
AcDbEntity
  8
SCHLÜTER-BEKOTEC-EN-BACK
  6
Continuous
 62
     7
370
    -1
100
AcDbCircle
 10
484.4488460928625
 20
176.222241323297
 30
0.0
 40
6.500000000000055
100
AcDbArc
 50
270.0
 51
12.96708398312331
  0
LINE
  5
179A
330
A
100
AcDbEntity
  8
SCHLÜTER-BEKOTEC-EN-BACK
  6
Continuous
 62
     7
370
    -1
100
AcDbLine
 10
489.0159649472525
 20
185.355167250936
 30
0.0
 11
490.7830899279406
 21
177.680786114042
 31
0.0
  0
ARC
  5
179B
330
A
100
AcDbEntity
  8
SCHLÜTER-BEKOTEC-EN-BACK
  6
Continuous
 62
     7
370
    -1
100
AcDbCircle
 10
491.6958359153821
 20
185.972241323297
 30
0.0
 40
2.75000000000006
100
AcDbArc
 50
90.0
 51
192.9670839831233
  0
LINE
  5
179C
330
A
100
AcDbEntity
  8
SCHLÜTER-BEKOTEC-EN-BACK
  6
Continuous
 62
     7
370
    -1
100
AcDbLine
 10
482.2406490962794
 20
169.2222406825471
 30
0.0
 11
482.2406490962794
 21
164.7222408762622
 31
0.0
  0
LINE
  5
179D
330
A
100
AcDbEntity
  8
SCHLÜTER-BEKOTEC-EN-BACK
  6
Continuous
 62
     7
370
    -1
100
AcDbLine
 10
554.4482117216876
 20
177.680786114042
 30
0.0
 11
556.2153329770854
 21
185.355167250936
 31
0.0
  0
ARC
  5
179E
330
A
100
AcDbEntity
  8
SCHLÜTER-BEKOTEC-EN-BACK
  6
Continuous
 62
     7
370
    -1
100
AcDbCircle
 10
560.7824534109982
 20
176.222241323297
 30
0.0
 40
6.500000000000055
100
AcDbArc
 50
167.0329160168774
 51
270.0
  0
LINE
  5
179F
330
A
100
AcDbEntity
  8
SCHLÜTER-BEKOTEC-EN-BACK
  6
Continuous
 62
     7
370
    -1
100
AcDbLine
 10
562.4906515400696
 20
169.722241695826
 30
0.0
 11
560.7824569266129
 21
169.722241695826
 31
0.0
  0
LINE
  5
17A0
330
A
100
AcDbEntity
  8
SCHLÜTER-BEKOTEC-EN-BACK
  6
Continuous
 62
     7
370
    -1
100
AcDbLine
 10
562.4906515400696
 20
169.722241695826
 30
0.0
 11
562.9906525533486
 21
169.2222406825471
 31
0.0
  0
ARC
  5
17A1
330
A
100
AcDbEntity
  8
SCHLÜTER-BEKOTEC-EN-BACK
  6
Continuous
 62
     7
370
    -1
100
AcDbCircle
 10
553.5354635884785
 20
185.972241323297
 30
0.0
 40
2.750000000000129
100
AcDbArc
 50
347.0329160168774
 51
90.0
  0
LINE
  5
17A2
330
A
100
AcDbEntity
  8
SCHLÜTER-BEKOTEC-EN-BACK
  6
Continuous
 62
     7
370
    -1
100
AcDbLine
 10
562.9906525533486
 20
164.7222408762622
 30
0.0
 11
562.9906525533486
 21
169.2222406825471
 31
0.0
  0
HATCH
  5
189D
330
A
100
AcDbEntity
  8
HATCH
  6
Continuous
 62
     7
370
    -1
100
AcDbHatch
 10
0.0
 20
0.0
 30
0.0
210
0.0
220
0.0
230
1.0
  2
AR-SAND
 70
     0
 71
     0
 91
        4
 92
        7
 72
     0
 73
     1
 93
        6
 10
65.28198988704399
 20
196.722241323297
 10
65.281989887044
 20
173.722240488832
 10
65.281989887044
 20
144.722241323297
 10
810.615653328209
 20
144.722241323297
 10
810.615653328209
 20
188.7222410848784
 10
810.615653328209
 20
196.722241323297
 97
        0
 92
       22
 72
     1
 73
     1
 93
      225
 10
175.9194086800653
 20
188.7222410848784
 42
-0.4826424076618293
 10
178.599727172957
 20
185.3521364593645
 42
0.0
 10
176.6618435900496
 20
176.9362346938298
 42
0.0
 10
176.5031462233352
 20
175.7805285713125
 42
0.0
 10
176.5536015551375
 20
174.6150659135033
 42
0.0
 10
176.811540655403
 20
173.4773883333849
 42
0.0
 10
177.268678478508
 20
172.4041396489787
 42
0.0
 10
177.9103224795151
 20
171.4298868289636
 42
0.0
 10
178.7157302420422
 20
170.5860117188145
 42
0.0
 10
179.9029343311423
 20
169.722241695826
 42
0.0
 10
181.4510436474193
 20
169.722241695826
 42
0.4819921211359518
 10
187.7834152080149
 20
177.6793600068968
 42
0.0
 10
186.0167123981895
 20
185.3519077137049
 42
-0.4825403771576788
 10
188.6958328159406
 20
188.7222413232971
 42
0.0
 10
250.535460489037
 20
188.7222413232971
 42
-0.4826622463414229
 10
253.2143354242696
 20
185.3508484673813
 42
0.0
 10
251.4469921190742
 20
177.6755029966742
 42
0.4818045640412854
 10
257.7802496575568
 20
169.722241695826
 42
0.0
 10
259.2559328000833
 20
169.7222416958261
 42
0.0
 10
259.5722546499062
 20
169.8996958991932
 42
0.0
 10
260.5155577581214
 20
170.5860117188143
 42
0.0
 10
261.3209953229714
 20
171.4298868289637
 42
0.0
 10
261.9626095216561
 20
172.4041396489787
 42
0.0
 10
262.4197771470833
 20
173.4773883333847
 42
0.0
 10
262.6777162473488
 20
174.6150659135029
 42
0.0
 10
262.7281417768288
 20
175.7805285713125
 42
0.0
 10
262.5694444101142
 20
176.9362346938302
 42
0.0
 10
260.6326218711338
 20
185.3476578354501
 42
-0.4831578723622011
 10
263.3118998241906
 20
188.7222410848784
 42
0.0
 10
327.4194176803937
 20
188.7222410848784
 42
-0.4826424076576936
 10
330.0997361732609
 20
185.3521364593744
 42
0.0
 10
328.1618525903513
 20
176.9362346938306
 42
0.0
 10
328.0031552236368
 20
175.7805285713126
 42
0.0
 10
328.053610555439
 20
174.6150659135033
 42
0.0
 10
328.3115496557045
 20
173.477388333385
 42
0.0
 10
328.7686874788095
 20
172.4041396489787
 42
0.0
 10
329.4103314798163
 20
171.4298868289642
 42
0.0
 10
330.2157392423439
 20
170.5860117188146
 42
0.0
 10
331.4029433314439
 20
169.7222416958261
 42
0.0
 10
332.9510451971723
 20
169.722241695826
 42
0.4819921211320009
 10
339.2834167577472
 20
177.6793600068469
 42
0.0
 10
337.5167139479103
 20
185.3519077137048
 42
-0.4825403771576948
 10
340.1958343656614
 20
188.7222413232971
 42
0.0
 10
402.0354620387578
 20
188.7222413232971
 42
-0.514458935204373
 10
404.6372614511091
 20
185.0816573475322
 42
0.0
 10
402.3252616089032
 20
178.3272579932865
 42
-0.5648310316010892
 10
413.2080027040765
 20
180.677395069057
 42
0.0
 10
412.1326234208545
 20
185.3476578354501
 42
-0.4831578723623405
 10
414.8119013739125
 20
188.7222410848784
 42
0.0
 10
478.919419230114
 20
188.7222410848784
 42
-0.4826424076577854
 10
481.5997377229816
 20
185.352136459374
 42
0.0
 10
479.661854140072
 20
176.936234693829
 42
0.0
 10
479.5031567733576
 20
175.7805285713125
 42
0.0
 10
479.5536121051599
 20
174.6150659135032
 42
0.0
 10
479.8115512054254
 20
173.4773883333846
 42
0.0
 10
480.2686890285304
 20
172.4041396489784
 42
0.0
 10
480.9103330295374
 20
171.4298868289637
 42
0.0
 10
481.715740792065
 20
170.5860117188143
 42
0.0
 10
482.9029448811646
 20
169.722241695826
 42
0.0
 10
484.4510467468963
 20
169.722241695826
 42
0.481992121132077
 10
490.7834183074668
 20
177.6793600068517
 42
0.0
 10
489.016715497631
 20
185.3519077137049
 42
-0.4825403771576869
 10
491.6958359153821
 20
188.7222413232971
 42
0.0
 10
553.5354635884785
 20
188.7222413232971
 42
-0.482662246341382
 10
556.2143385237111
 20
185.3508484673816
 42
0.0
 10
554.4469952185148
 20
177.6755029966701
 42
0.481804564040704
 10
560.7802527569902
 20
169.722241695826
 42
0.0
 10
562.2559358995246
 20
169.722241695826
 42
0.0
 10
562.5722577493476
 20
169.8996958991933
 42
0.0
 10
563.515560857563
 20
170.5860117188144
 42
0.0
 10
564.3209984224129
 20
171.4298868289636
 42
0.0
 10
564.9626126210974
 20
172.4041396489785
 42
0.0
 10
565.4197802465245
 20
173.4773883333844
 42
0.0
 10
565.6777193467904
 20
174.6150659135032
 42
0.0
 10
565.7281448762702
 20
175.7805285713123
 42
0.0
 10
565.5694475095561
 20
176.9362346938281
 42
0.0
 10
563.6326249705847
 20
185.3476578354085
 42
-0.4831578723693872
 10
566.3119029236532
 20
188.7222410848784
 42
0.0
 10
630.4194207798363
 20
188.7222410848784
 42
-0.4826424076574693
 10
633.0997392727025
 20
185.3521364593752
 42
0.0
 10
631.1618556897927
 20
176.9362346938299
 42
0.0
 10
631.0031583230782
 20
175.7805285713119
 42
0.0
 10
631.0536136548805
 20
174.6150659135033
 42
0.0
 10
631.311552755146
 20
173.4773883333849
 42
0.0
 10
631.7686905782509
 20
172.4041396489785
 42
0.0
 10
632.4103345792582
 20
171.4298868289641
 42
0.0
 10
633.2157423417854
 20
170.5860117188148
 42
0.0
 10
634.4029464308854
 20
169.722241695826
 42
0.0
 10
635.9510482965865
 20
169.722241695826
 42
0.4819921211354866
 10
642.2834198571783
 20
177.679360006892
 42
0.0
 10
640.5167170473437
 20
185.3519077137397
 42
-0.4825403771536828
 10
643.1958374651028
 20
188.7222413232971
 42
0.0
 10
705.0354651381992
 20
188.7222413232971
 42
-0.482662246341382
 10
707.7143400734319
 20
185.3508484673816
 42
0.0
 10
705.9469967682355
 20
177.6755029966701
 42
0.481804564040704
 10
712.280254306711
 20
169.722241695826
 42
0.0
 10
713.7559299986646
 20
169.722241695826
 42
0.0
 10
714.0722518484883
 20
169.8996958991935
 42
0.0
 10
715.0155549567029
 20
170.5860117188145
 42
0.0
 10
715.820992521553
 20
171.4298868289638
 42
0.0
 10
716.4626067202377
 20
172.4041396489785
 42
0.0
 10
716.9197743456649
 20
173.4773883333855
 42
0.0
 10
717.1777134459303
 20
174.6150659135031
 42
0.0
 10
717.2281389754103
 20
175.7805285713127
 42
0.0
 10
717.069441608696
 20
176.9362346938296
 42
0.0
 10
715.1326190697159
 20
185.347657835447
 42
-0.4831578723650891
 10
717.8118970227946
 20
188.7222410848784
 42
0.0
 10
781.9194148789763
 20
188.7222410848784
 42
-0.4826424076574693
 10
784.5997333718426
 20
185.3521364593752
 42
0.0
 10
782.6618497889326
 20
176.9362346938309
 42
0.0
 10
782.5031524222184
 20
175.7805285713128
 42
0.0
 10
782.5536077540205
 20
174.6150659135031
 42
0.0
 10
782.811546854286
 20
173.4773883333847
 42
0.0
 10
783.268684677391
 20
172.4041396489784
 42
0.0
 10
783.9103286783982
 20
171.4298868289632
 42
0.0
 10
784.7157364409252
 20
170.5860117188144
 42
0.0
 10
785.9029405300253
 20
169.722241695826
 42
0.0
 10
787.4510423957266
 20
169.722241695826
 42
0.4819921211354866
 10
793.7834139563184
 20
177.679360006892
 42
0.0
 10
792.0167111464839
 20
185.3519077137397
 42
-0.0006080290649539
 10
792.0152103484455
 20
185.358425473537
 42
0.0
 10
793.7827587994486
 20
177.6822052632142
 42
-0.4823391610260138
 10
787.4466410877186
 20
169.722241695826
 42
0.0
 10
785.7406457584193
 20
169.722241695826
 42
0.0
 10
785.2406447451403
 20
169.2222406825471
 42
0.0
 10
785.2406447451402
 20
164.7222408762622
 42
0.0
 10
714.4906541030693
 20
164.7222408762622
 42
0.0
 10
714.4906541030693
 20
169.2222406825471
 42
0.0
 10
713.9906530897905
 20
169.722241695826
 42
0.0
 10
712.284655614727
 20
169.722241695826
 42
-0.4825265124414438
 10
705.9494266116315
 20
177.6860554951285
 42
0.0
 10
707.716329405454
 20
185.3594878813993
 42
0.4816689211930961
 10
705.0354651381992
 20
188.7222413232971
 42
0.0
 10
689.1156532089996
 20
188.7222413232971
 42
0.0
 10
683.1156557123946
 20
182.722240101402
 42
0.0
 10
665.1156490366745
 20
182.722240101402
 42
0.0
 10
659.11565154007
 20
188.7222413232971
 42
0.0
 10
643.1958374651028
 20
188.7222413232971
 42
0.4817909912987592
 10
640.5152162493054
 20
185.358425473537
 42
0.0
 10
642.2827647003085
 20
177.6822052632142
 42
-0.4823391610260138
 10
635.9466469885784
 20
169.722241695826
 42
0.0
 10
634.2406516592791
 20
169.722241695826
 42
0.0
 10
633.7406506460002
 20
169.2222406825471
 42
0.0
 10
633.7406506460003
 20
164.7222408762622
 42
0.0
 10
562.9906525533487
 20
164.7222408762622
 42
0.0
 10
562.9906525533486
 20
169.222240682547
 42
0.0
 10
562.4906515400696
 20
169.722241695826
 42
0.0
 10
560.7846540650062
 20
169.722241695826
 42
-0.4825265124414438
 10
554.4494250619107
 20
177.6860554951285
 42
0.0
 10
556.2163278557332
 20
185.3594878813993
 42
0.4816689211930961
 10
553.5354635884785
 20
188.7222413232971
 42
0.0
 10
537.6156516592793
 20
188.7222413232971
 42
0.0
 10
531.6156467120936
 20
182.722240101402
 42
0.0
 10
513.615647486954
 20
182.722240101402
 42
0.0
 10
507.6156499903492
 20
188.7222413232971
 42
0.0
 10
491.6958359153821
 20
188.7222413232971
 42
0.4817909912947665
 10
489.0152146995766
 20
185.3584254735717
 42
0.0
 10
490.7827631505764
 20
177.682205263263
 42
-0.4823391610299195
 10
484.4466454388254
 20
169.722241695826
 42
0.0
 10
482.7406501095583
 20
169.722241695826
 42
0.0
 10
482.2406490962794
 20
169.222240682547
 42
0.0
 10
482.2406490962794
 20
164.7222408762622
 42
0.0
 10
411.490651003628
 20
164.7222408762622
 42
0.0
 10
411.4906510036279
 20
169.2222406825471
 42
0.0
 10
410.990649990349
 20
169.722241695826
 42
0.0
 10
408.4771699646466
 20
169.722241695826
 42
-0.4143127284029166
 10
401.9749693108242
 20
176.222241323297
 42
-0.0826359857084077
 10
402.3252616089032
 20
178.3272579932865
 42
0.0
 10
404.6372614511091
 20
185.0816573475322
 42
0.5144589352043681
 10
402.0354620387578
 20
188.7222413232971
 42
0.0
 10
386.1156501095585
 20
188.7222413232971
 42
0.0
 10
380.1156488876631
 20
182.722240101402
 42
0.0
 10
362.1156533878138
 20
182.722240101402
 42
0.0
 10
356.1156484406282
 20
188.7222413232971
 42
0.0
 10
340.1958343656614
 20
188.7222413232971
 42
0.4817909912947665
 10
337.515213149856
 20
185.3584254735717
 42
0.0
 10
339.2827616008558
 20
177.682205263263
 42
-0.4823391610299195
 10
332.9466438891047
 20
169.722241695826
 42
0.0
 10
331.2406485598377
 20
169.722241695826
 42
0.0
 10
330.7406475465587
 20
169.222240682547
 42
0.0
 10
330.7406475465587
 20
164.7222408762622
 42
0.0
 10
259.9906494539071
 20
164.7222408762622
 42
0.0
 10
259.9906494539071
 20
169.2222406825471
 42
0.0
 10
259.4906484406281
 20
169.722241695826
 42
0.0
 10
257.7846509655566
 20
169.722241695826
 42
-0.4825265124408756
 10
251.4494219624683
 20
177.6860554951246
 42
0.0
 10
253.2163247562918
 20
185.3594878813996
 42
0.4816689211930656
 10
250.535460489037
 20
188.7222413232971
 42
0.0
 10
234.6156485598376
 20
188.7222413232971
 42
0.0
 10
228.6156510632327
 20
182.722240101402
 42
0.0
 10
210.6156443875126
 20
182.722240101402
 42
0.0
 10
204.6156468909075
 20
188.7222413232971
 42
0.0
 10
188.6958328159406
 20
188.7222413232971
 42
0.4817909912947697
 10
186.0152116001351
 20
185.3584254735717
 42
0.0
 10
187.7827600511464
 20
177.6822052632135
 42
-0.4823391610257478
 10
181.4466423394211
 20
169.722241695826
 42
0.0
 10
179.7406470101169
 20
169.722241695826
 42
0.0
 10
179.2406459968379
 20
169.2222406825471
 42
0.0
 10
179.240645996838
 20
164.7222408762622
 42
0.0
 10
108.4906479041863
 20
164.7222408762622
 42
0.0
 10
108.4906479041863
 20
169.222240682547
 42
0.0
 10
107.9906468909074
 20
169.722241695826
 42
0.0
 10
106.2846494158358
 20
169.722241695826
 42
-0.4825265124408126
 10
99.9494204127472
 20
177.6860554951233
 42
0.0
 10
101.716323206571
 20
185.3594878813994
 42
0.4816689235680387
 10
99.0354589181113
 20
188.7222413232971
 42
0.0
 10
83.11566178852277
 20
188.7222412005416
 42
0.0
 10
79.11565356662766
 20
184.7222404292273
 42
0.0
 10
68.1156461756517
 20
184.7222404292273
 42
0.0
 10
68.1156461756517
 20
188.7222410848784
 42
0.0
 10
99.03545891811129
 20
188.7222413232971
 42
-0.4826622487182274
 10
101.7143338745488
 20
185.3508484673813
 42
0.0
 10
99.94699056935337
 20
177.6755029966742
 42
0.481804564041284
 10
106.2802481078359
 20
169.722241695826
 42
0.0
 10
107.7559237997816
 20
169.722241695826
 42
0.0
 10
108.0722456496047
 20
169.8996958991933
 42
0.0
 10
109.0155487578199
 20
170.5860117188143
 42
0.0
 10
109.8209863226698
 20
171.4298868289637
 42
0.0
 10
110.4626005213545
 20
172.4041396489787
 42
0.0
 10
110.9197681467817
 20
173.477388333385
 42
0.0
 10
111.1777072470472
 20
174.6150659135031
 42
0.0
 10
111.2281327765272
 20
175.7805285713123
 42
0.0
 10
111.0694354098128
 20
176.9362346938298
 42
0.0
 10
109.1326128708322
 20
185.3476578354502
 42
-0.4831578723624584
 10
111.8118908238913
 20
188.7222410848784
 42
0.0
 97
        0
 92
       22
 72
     1
 73
     1
 93
        2
 10
414.4749693108242
 20
176.222241323297
 42
-1.0
 10
402.4749693108242
 20
176.222241323297
 42
-1.0
 97
        0
 92
       24
 93
        4
 72
     1
 10
347.9357880308643
 20
153.7346339164925
 11
393.1318998998957
 21
153.7346339164925
 72
     1
 10
393.1318998998957
 20
153.7346339164925
 11
393.1318998998957
 21
163.4396134526453
 72
     1
 10
393.1318998998957
 20
163.4396134526453
 11
347.9357880308643
 21
163.4396134526453
 72
     1
 10
347.9357880308643
 20
163.4396134526453
 11
347.9357880308643
 21
153.7346339164925
 97
        0
 75
     0
 76
     1
 52
0.0
 41
10.0
 77
     0
 78
     4
 53
37.5
 43
0.0
 44
0.0
 45
-0.6299335810960816
 46
19.26823769013158
 79
     6
 49
0.0
 49
-15.2
 49
0.0
 49
-17.0
 49
0.0
 49
-16.25
 53
7.5
 43
0.0
 44
0.0
 45
17.69776705267727
 46
28.2214606522974
 79
     6
 49
0.0
 49
-8.2
 49
0.0
 49
-13.7
 49
0.0
 49
-5.25
 53
327.5
 43
-12.3
 44
0.0
 45
31.14141861751495
 46
0.056590535369645
 79
     6
 49
0.0
 49
-5.0
 49
0.0
 49
-18.0
 49
0.0
 49
-23.5
 53
317.5
 43
-12.3
 44
0.0
 45
30.06126604572293
 46
8.77675564934249
 79
     6
 49
0.0
 49
-2.5
 49
0.0
 49
-11.8
 49
0.0
 49
-13.5
 47
0.191180679214118
 98
        3
 10
155.951427831036
 20
192.6014312917964
 10
155.951427831036
 20
192.6014312917964
 10
155.951427831036
 20
192.6014312917964
  0
HATCH
  5
18AB
330
A
100
AcDbEntity
  8
HATCH
  6
Continuous
 62
     9
370
    -1
100
AcDbHatch
 10
0.0
 20
0.0
 30
0.0
210
0.0
220
0.0
230
1.0
  2
SOLID
 70
     1
 71
     1
 91
        6
 92
        7
 72
     0
 73
     1
 93
        4
 10
65.281989887044
 20
214.722241323297
 10
65.281989887044
 20
204.722241323297
 10
292.2168427882787
 20
204.722241323297
 10
292.2168427882787
 20
214.722241323297
 97
        4
330
997
330
991
330
996
330
B59
 92
        7
 72
     0
 73
     1
 93
        4
 10
296.2168427882787
 20
214.7222413232971
 10
296.2168427882787
 20
204.722241323297
 10
592.2168427882787
 20
204.722241323297
 10
592.2168427882787
 20
214.722241323297
 97
        4
330
995
330
B58
330
994
330
CE3
 92
        7
 72
     0
 73
     1
 93
        4
 10
596.2168427882787
 20
214.722241323297
 10
596.2168427882788
 20
204.722241323297
 10
810.615653328209
 20
204.722241323297
 10
810.6156533282091
 20
214.722241323297
 97
        4
330
A27
330
D3E
330
A24
330
993
 92
      137
 93
        4
 72
     1
 10
152.2794633569532
 20
207.0032128178953
 11
194.0120690868304
 21
207.0032128178953
 72
     1
 10
194.0120690868304
 20
207.0032128178953
 11
194.0120690868304
 21
214.7590109079362
 72
     1
 10
194.0120690868304
 20
214.7590109079362
 11
152.2794633569532
 21
214.7590109079362
 72
     1
 10
152.2794633569532
 20
214.7590109079362
 11
152.2794633569532
 21
207.0032128178953
 97
        1
330
ECA
 92
      137
 93
        4
 72
     1
 10
417.7468898075705
 20
207.0032128178953
 11
459.4794955374477
 21
207.0032128178953
 72
     1
 10
459.4794955374477
 20
207.0032128178953
 11
459.4794955374477
 21
214.7590109079362
 72
     1
 10
459.4794955374477
 20
214.7590109079362
 11
417.7468898075705
 21
214.7590109079362
 72
     1
 10
417.7468898075705
 20
214.7590109079362
 11
417.7468898075705
 21
207.0032128178953
 97
        1
330
ECB
 92
      137
 93
        4
 72
     1
 10
676.9462950775356
 20
207.0032128178953
 11
718.6789008074128
 21
207.0032128178953
 72
     1
 10
718.6789008074128
 20
207.0032128178953
 11
718.6789008074128
 21
214.7590109079362
 72
     1
 10
718.6789008074128
 20
214.7590109079362
 11
676.9462950775356
 21
214.7590109079362
 72
     1
 10
676.9462950775356
 20
214.7590109079362
 11
676.9462950775356
 21
207.0032128178953
 97
        1
330
ECC
 75
     0
 76
     1
 47
1.318545845532136
 98
        3
 10
267.1688477516652
 20
210.1895020042325
 10
334.4809158903543
 20
211.5080478306365
 10
627.4863857299426
 20
210.1895020042325
  0
HATCH
  5
1963
330
A
100
AcDbEntity
  8
HATCH
  6
Continuous
 62
     7
370
    -1
100
AcDbHatch
 10
0.0
 20
0.0
 30
0.0
210
0.0
220
0.0
230
1.0
  2
AR-SAND
 70
     0
 71
     0
 91
        1
 92
        7
 72
     0
 73
     1
 93
      182
 10
810.6156533282089
 20
204.722241323297
 10
596.2168427882787
 20
204.722241323297
 10
592.2168427882787
 20
204.722241323297
 10
296.2168427882787
 20
204.722241323297
 10
292.2168427882787
 20
204.722241323297
 10
65.281989887044
 20
204.722241323297
 10
65.281989887044
 20
201.722241323297
 10
68.781989887044
 20
201.722241323297
 10
68.031989887044
 20
198.722241323297
 10
82.53198988704399
 20
198.722241323297
 10
81.78198988704402
 20
201.722241323297
 10
88.781989887044
 20
201.722241323297
 10
88.031989887044
 20
198.722241323297
 10
95.281989887044
 20
198.722241323297
 10
102.531989887044
 20
198.722241323297
 10
101.781989887044
 20
201.722241323297
 10
108.781989887044
 20
201.722241323297
 10
108.031989887044
 20
198.722241323297
 10
122.531989887044
 20
198.722241323297
 10
121.781989887044
 20
201.722241323297
 10
125.281989887044
 20
201.722241323297
 10
128.781989887044
 20
201.722241323297
 10
128.031989887044
 20
198.722241323297
 10
142.531989887044
 20
198.722241323297
 10
141.781989887044
 20
201.722241323297
 10
148.781989887044
 20
201.722241323297
 10
148.031989887044
 20
198.722241323297
 10
155.281989887044
 20
198.722241323297
 10
162.531989887044
 20
198.722241323297
 10
161.781989887044
 20
201.722241323297
 10
168.781989887044
 20
201.722241323297
 10
168.031989887044
 20
198.722241323297
 10
182.531989887044
 20
198.722241323297
 10
181.781989887044
 20
201.722241323297
 10
185.281989887044
 20
201.722241323297
 10
188.7819898870441
 20
201.722241323297
 10
188.0319898870441
 20
198.722241323297
 10
202.5319898870441
 20
198.722241323297
 10
201.7819898870441
 20
201.722241323297
 10
208.7819898870441
 20
201.722241323297
 10
208.0319898870441
 20
198.722241323297
 10
215.2819898870441
 20
198.722241323297
 10
222.5319898870441
 20
198.722241323297
 10
221.7819898870441
 20
201.722241323297
 10
228.7819898870441
 20
201.722241323297
 10
228.0319898870441
 20
198.722241323297
 10
242.5319898870441
 20
198.722241323297
 10
241.7819898870441
 20
201.722241323297
 10
245.2819898870441
 20
201.722241323297
 10
248.7819898870441
 20
201.722241323297
 10
248.0319898870441
 20
198.722241323297
 10
262.5319898870441
 20
198.722241323297
 10
261.7819898870441
 20
201.722241323297
 10
268.7819898870441
 20
201.722241323297
 10
268.0319898870441
 20
198.722241323297
 10
275.2819898870441
 20
198.722241323297
 10
282.5319898870441
 20
198.722241323297
 10
281.7819898870441
 20
201.722241323297
 10
288.7819898870441
 20
201.722241323297
 10
288.0319898870441
 20
198.722241323297
 10
302.5319898870441
 20
198.722241323297
 10
301.7819898870441
 20
201.722241323297
 10
305.2819898870441
 20
201.722241323297
 10
308.7819898870442
 20
201.722241323297
 10
308.0319898870442
 20
198.722241323297
 10
322.5319898870442
 20
198.722241323297
 10
321.7819898870443
 20
201.722241323297
 10
328.7819898870442
 20
201.722241323297
 10
328.0319898870442
 20
198.722241323297
 10
335.2819898870442
 20
198.722241323297
 10
342.5319898870441
 20
198.722241323297
 10
341.7819898870443
 20
201.722241323297
 10
348.7819898870442
 20
201.722241323297
 10
348.0319898870443
 20
198.722241323297
 10
362.5319898870442
 20
198.722241323297
 10
361.7819898870442
 20
201.722241323297
 10
365.2819898870442
 20
201.722241323297
 10
368.7819898870442
 20
201.722241323297
 10
368.0319898870443
 20
198.722241323297
 10
382.5319898870442
 20
198.722241323297
 10
381.7819898870442
 20
201.722241323297
 10
388.7819898870442
 20
201.722241323297
 10
388.0319898870442
 20
198.722241323297
 10
395.2819898870442
 20
198.722241323297
 10
402.5319898870441
 20
198.722241323297
 10
401.7819898870443
 20
201.722241323297
 10
408.7819898870442
 20
201.722241323297
 10
408.0319898870442
 20
198.722241323297
 10
422.5319898870441
 20
198.722241323297
 10
421.7819898870443
 20
201.722241323297
 10
425.2819898870442
 20
201.722241323297
 10
428.7819898870443
 20
201.722241323297
 10
428.0319898870444
 20
198.722241323297
 10
442.5319898870443
 20
198.722241323297
 10
441.7819898870444
 20
201.722241323297
 10
448.7819898870443
 20
201.722241323297
 10
448.0319898870444
 20
198.722241323297
 10
455.2819898870443
 20
198.722241323297
 10
462.5319898870443
 20
198.722241323297
 10
461.7819898870444
 20
201.722241323297
 10
468.7819898870443
 20
201.722241323297
 10
468.0319898870444
 20
198.722241323297
 10
482.5319898870443
 20
198.722241323297
 10
481.7819898870444
 20
201.722241323297
 10
485.2819898870443
 20
201.722241323297
 10
488.7819898870444
 20
201.722241323297
 10
488.0319898870444
 20
198.722241323297
 10
502.5319898870443
 20
198.722241323297
 10
501.7819898870444
 20
201.722241323297
 10
508.7819898870444
 20
201.722241323297
 10
508.0319898870443
 20
198.722241323297
 10
515.2819898870443
 20
198.722241323297
 10
522.5319898870443
 20
198.722241323297
 10
521.7819898870445
 20
201.722241323297
 10
528.7819898870443
 20
201.722241323297
 10
528.0319898870445
 20
198.722241323297
 10
542.5319898870443
 20
198.722241323297
 10
541.7819898870443
 20
201.722241323297
 10
545.2819898870443
 20
201.722241323297
 10
548.7819898870445
 20
201.722241323297
 10
548.0319898870443
 20
198.722241323297
 10
562.5319898870443
 20
198.722241323297
 10
561.7819898870445
 20
201.722241323297
 10
568.7819898870443
 20
201.722241323297
 10
568.0319898870443
 20
198.722241323297
 10
575.2819898870443
 20
198.722241323297
 10
582.5319898870443
 20
198.722241323297
 10
581.7819898870445
 20
201.722241323297
 10
588.7819898870443
 20
201.722241323297
 10
588.0319898870443
 20
198.722241323297
 10
602.5319898870443
 20
198.722241323297
 10
601.7819898870445
 20
201.722241323297
 10
605.2819898870443
 20
201.722241323297
 10
608.7819898870446
 20
201.722241323297
 10
608.0319898870445
 20
198.722241323297
 10
622.5319898870445
 20
198.722241323297
 10
621.7819898870445
 20
201.722241323297
 10
628.7819898870446
 20
201.722241323297
 10
628.0319898870445
 20
198.722241323297
 10
635.2819898870445
 20
198.722241323297
 10
642.5319898870445
 20
198.722241323297
 10
641.7819898870445
 20
201.722241323297
 10
648.7819898870446
 20
201.722241323297
 10
648.0319898870445
 20
198.722241323297
 10
662.5319898870445
 20
198.722241323297
 10
661.7819898870445
 20
201.722241323297
 10
665.2819898870445
 20
201.722241323297
 10
668.7819898870446
 20
201.722241323297
 10
668.0319898870445
 20
198.722241323297
 10
682.5319898870445
 20
198.722241323297
 10
681.7819898870445
 20
201.722241323297
 10
688.7819898870446
 20
201.722241323297
 10
688.0319898870446
 20
198.722241323297
 10
695.2819898870445
 20
198.722241323297
 10
702.5319898870445
 20
198.722241323297
 10
701.7819898870445
 20
201.722241323297
 10
708.7819898870446
 20
201.722241323297
 10
708.0319898870445
 20
198.722241323297
 10
722.5319898870446
 20
198.722241323297
 10
721.7819898870447
 20
201.722241323297
 10
725.2819898870446
 20
201.722241323297
 10
728.7819898870446
 20
201.722241323297
 10
728.0319898870446
 20
198.722241323297
 10
742.5319898870443
 20
198.722241323297
 10
741.7819898870447
 20
201.722241323297
 10
748.7819898870445
 20
201.722241323297
 10
748.0319898870446
 20
198.722241323297
 10
755.2819898870446
 20
198.722241323297
 10
762.5319898870445
 20
198.722241323297
 10
761.7819898870447
 20
201.722241323297
 10
768.7819898870445
 20
201.722241323297
 10
768.0319898870446
 20
198.722241323297
 10
782.5319898870445
 20
198.722241323297
 10
781.7819898870446
 20
201.722241323297
 10
785.2819898870446
 20
201.722241323297
 10
788.7819898870446
 20
201.722241323297
 10
788.0319898870446
 20
198.722241323297
 10
802.5319898870445
 20
198.722241323297
 10
801.7819898870446
 20
201.722241323297
 10
808.7819898870446
 20
201.722241323297
 10
808.0319898870446
 20
198.722241323297
 10
810.615653328209
 20
198.722241323297
 97
        0
 75
     0
 76
     1
 52
0.0
 41
3.0
 77
     0
 78
     4
 53
37.5
 43
0.0
 44
0.0
 45
-0.1889800743288245
 46
5.780471307039476
 79
     6
 49
0.0
 49
-4.56
 49
0.0
 49
-5.1
 49
0.0
 49
-4.875
 53
7.5
 43
0.0
 44
0.0
 45
5.309330115803181
 46
8.466438195689221
 79
     6
 49
0.0
 49
-2.46
 49
0.0
 49
-4.11
 49
0.0
 49
-1.575
 53
327.5
 43
-3.69
 44
0.0
 45
9.342425585254485
 46
0.0169771606108935
 79
     6
 49
0.0
 49
-1.5
 49
0.0
 49
-5.4
 49
0.0
 49
-7.050000000000001
 53
317.5
 43
-3.69
 44
0.0
 45
9.01837981371688
 46
2.633026694802747
 79
     6
 49
0.0
 49
-0.75
 49
0.0
 49
-3.54
 49
0.0
 49
-4.050000000000001
 47
1.052404125443056
 98
        1
 10
413.7208738333354
 20
201.8427938471239
  0
TEXT
  5
1972
330
A
100
AcDbEntity
  8
TEXT
  6
Continuous
 62
     7
370
    -1
100
AcDbText
 10
254.0983369478445
 20
340.1364219922082
 30
0.0
 40
40.0
  1
Schluter  - BEKOTEC
  7
STYLE1
100
AcDbText
  0
TEXT
  5
1973
330
A
100
AcDbEntity
  8
TEXT
  6
Continuous
 62
     7
370
    -1
100
AcDbText
 10
461.1751928624776
 20
365.2769313064309
 30
0.0
 40
15.0
  1
®
  7
STYLE1
100
AcDbText
  0
TEXT
  5
1974
330
A
100
AcDbEntity
  8
TEXT
  6
Continuous
 62
     7
370
    -1
100
AcDbText
 10
892.2909868289053
 20
205.6409173391276
 30
0.0
 40
3.0
  1
®
  7
STYLE1
100
AcDbText
  0
TEXT
  5
1975
330
A
100
AcDbEntity
  8
TEXT
  6
Continuous
 62
     7
370
    -1
100
AcDbText
 10
892.2909845568711
 20
173.7795783901038
 30
0.0
 40
3.0
  1
®
  7
STYLE1
100
AcDbText
  0
TEXT
  5
1996
330
A
100
AcDbEntity
  8
TEXT
  6
Continuous
 62
     7
100
AcDbText
 10
65.09451754947531
 20
35.35053115149867
 30
0.0
 40
15.0
  1
Scale: N.T.S.
  7
STYLE1
100
AcDbText
  0
ENDSEC
  0
SECTION
  2
OBJECTS
  0
DICTIONARY
  5
19
330
0
100
AcDbDictionary
281
     1
  3
ACAD_GROUP
350
1A
  3
ACAD_LAYOUT
350
1981
  3
ACAD_MATERIAL
350
19CF
  3
ACAD_MLEADERSTYLE
350
19D3
  3
ACAD_MLINESTYLE
350
1B
  3
ACAD_PLOTSETTINGS
350
1982
  3
ACAD_PLOTSTYLENAME
350
197F
  3
ACAD_SCALELIST
350
19BD
  3
ACAD_TABLESTYLE
350
19D5
  3
ACAD_VISUALSTYLE
350
19A4
  3
ACDBVARIABLEDICTIONARY
350
EE1
  3
DWGPROPS
350
19DC
  0
DICTIONARY
  5
19DD
330
7
100
AcDbDictionary
280
     1
281
     1
  3
ACAD_XREC_ROUNDTRIP
360
19DE
  0
DICTIONARY
  5
196F
330
A
100
AcDbDictionary
280
     1
281
     1
  3
ACAD_SORTENTS
360
1970
  0
DICTIONARY
  5
1A
102
{ACAD_REACTORS
330
19
102
}
330
19
100
AcDbDictionary
281
     1
  0
DICTIONARY
  5
1981
102
{ACAD_REACTORS
330
19
102
}
330
19
100
AcDbDictionary
281
     1
  3
Layout1
350
1984
  3
Model
350
1983
  0
DICTIONARY
  5
19CF
102
{ACAD_REACTORS
330
19
102
}
330
19
100
AcDbDictionary
281
     1
  3
ByBlock
350
19D1
  3
ByLayer
350
19D0
  3
Global
350
19D2
  0
DICTIONARY
  5
19D3
102
{ACAD_REACTORS
330
19
102
}
330
19
100
AcDbDictionary
281
     1
  3
Standard
350
19D4
  0
DICTIONARY
  5
1B
102
{ACAD_REACTORS
330
19
102
}
330
19
100
AcDbDictionary
281
     1
  3
STANDARD
350
1C
  0
DICTIONARY
  5
1982
102
{ACAD_REACTORS
330
19
102
}
330
19
100
AcDbDictionary
281
     1
  0
ACDBDICTIONARYWDFLT
  5
197F
102
{ACAD_REACTORS
330
19
102
}
330
19
100
AcDbDictionary
281
     1
  3
Normal
350
1980
100
AcDbDictionaryWithDefault
340
1980
  0
DICTIONARY
  5
19BD
102
{ACAD_REACTORS
330
19
102
}
330
19
100
AcDbDictionary
281
     1
  3
A0
350
19BE
  3
A1
350
19BF
  3
A2
350
19C0
  3
A3
350
19C1
  3
A4
350
19C2
  3
A5
350
19C3
  3
A6
350
19C4
  3
A7
350
19C5
  3
A8
350
19C6
  3
A9
350
19C7
  3
B1
350
19C8
  3
B2
350
19C9
  3
B3
350
19CA
  3
B4
350
19CB
  3
B5
350
19CC
  3
B6
350
19CD
  3
B7
350
19CE
  0
DICTIONARY
  5
19D5
102
{ACAD_REACTORS
330
19
102
}
330
19
100
AcDbDictionary
281
     1
  3
Standard
350
19D6
  0
DICTIONARY
  5
19A4
102
{ACAD_REACTORS
330
19
102
}
330
19
100
AcDbDictionary
281
     1
  3
2dWireframe
350
19A9
  3
Basic
350
19AC
  3
Brighten
350
19B0
  3
ColorChange
350
19B4
  3
Conceptual
350
19AE
  3
Dim
350
19AF
  3
EdgeColorOff
350
19B7
  3
Facepattern
350
19B3
  3
Flat
350
19A5
  3
FlatWithEdges
350
19A6
  3
Gouraud
350
19A7
  3
GouraudWithEdges
350
19A8
  3
Hidden
350
19AB
  3
JitterOff
350
19B5
  3
Linepattern
350
19B2
  3
OverhangOff
350
19B6
  3
Realistic
350
19AD
  3
Shaded
350
19BC
  3
Shaded with edges
350
19BB
  3
Shades of Gray
350
19B8
  3
Sketchy
350
19B9
  3
Thicken
350
19B1
  3
Wireframe
350
19AA
  3
X-Ray
350
19BA
  0
DICTIONARY
  5
EE1
102
{ACAD_REACTORS
330
19
102
}
330
19
100
AcDbDictionary
281
     1
  3
CANNOSCALE
350
19DF
  3
CMLEADERSTYLE
350
19D8
  3
CTABLESTYLE
350
19D7
  3
DIMASSOC
350
1989
  3
HIDETEXT
350
19DB
  3
MSLTSCALE
350
19E0
  3
SORTENTS
350
EE2
  0
XRECORD
  5
19DC
102
{ACAD_REACTORS
330
19
102
}
330
19
100
AcDbXrecord
280
     1
  1
DWGPROPS COOKIE
  2

  3

  4

  6

  7

  8
acae2
  9

300
=
301
=
302
=
303
=
304
=
305
=
306
=
307
=
308
=
309
=
 40
0.0
 41
2452243.106511921
 42
2460341.403523484
  1

 90
        0
  0
XRECORD
  5
19DE
102
{ACAD_REACTORS
330
19DD
102
}
330
19DD
100
AcDbXrecord
280
     1
102
VTR_0.000_0.000_1.000_1.000_VISUALSTYLE
340
19A9
102
VTR_0.000_0.000_1.000_1.000_GRIDDISPLAY
 70
     3
102
VTR_0.000_0.000_1.000_1.000_GRIDMAJOR
 70
     5
102
VTR_0.000_0.000_1.000_1.000_DEFAULTLIGHTING
280
     1
102
VTR_0.000_0.000_1.000_1.000_DEFAULTLIGHTINGTYPE
 70
     1
102
VTR_0.000_0.000_1.000_1.000_BRIGHTNESS
141
0.0
102
VTR_0.000_0.000_1.000_1.000_CONTRAST
142
0.0
  0
SORTENTSTABLE
  5
1970
102
{ACAD_REACTORS
330
196F
102
}
330
196F
100
AcDbSortentsTable
330
A
331
98B
  5
996
331
98C
  5
997
331
98D
  5
998
331
991
  5
999
331
993
  5
99A
331
994
  5
99B
331
995
  5
99C
331
996
  5
99D
331
997
  5
99E
331
998
  5
99F
331
999
  5
9A0
331
99A
  5
9A1
331
99B
  5
9A2
331
99C
  5
9A3
331
99D
  5
9A4
331
99E
  5
9A5
331
99F
  5
9A6
331
9A0
  5
9A7
331
9A1
  5
9A8
331
9A2
  5
9A9
331
9A3
  5
9AA
331
9A4
  5
9AB
331
9A5
  5
9AC
331
9A6
  5
9AD
331
9A7
  5
9AE
331
9A8
  5
9AF
331
9A9
  5
9B0
331
9AA
  5
9B1
331
9AB
  5
9B2
331
9AC
  5
9B3
331
9AD
  5
9B4
331
9AE
  5
9B5
331
9AF
  5
9B6
331
9B0
  5
9B7
331
9B1
  5
9B8
331
9B2
  5
9B9
331
9B3
  5
9BA
331
9B4
  5
9BB
331
9B5
  5
9BC
331
9B6
  5
9BD
331
9B7
  5
9BE
331
9B8
  5
9BF
331
9B9
  5
9C0
331
9BA
  5
9C1
331
9BB
  5
9C2
331
9BC
  5
9C3
331
9BD
  5
9C4
331
9BE
  5
9C5
331
9BF
  5
9C6
331
9C0
  5
9C7
331
9C1
  5
9C8
331
9C2
  5
9C9
331
9C3
  5
9CA
331
9C4
  5
9CB
331
9C5
  5
9CC
331
9C6
  5
9CD
331
9C7
  5
9CE
331
9C8
  5
9CF
331
9C9
  5
9D0
331
9CA
  5
9D1
331
9CB
  5
9D2
331
9CC
  5
9D3
331
9CD
  5
9D4
331
9CE
  5
9D5
331
9CF
  5
9D6
331
9D0
  5
9D7
331
9D1
  5
9D8
331
9D2
  5
9D9
331
9D3
  5
9DA
331
9D4
  5
9DB
331
9D5
  5
9DC
331
9D6
  5
9DD
331
9D7
  5
9DE
331
9D8
  5
9DF
331
9D9
  5
9E0
331
9DA
  5
9E1
331
9DB
  5
9E2
331
9DC
  5
9E3
331
9DD
  5
9E4
331
9DE
  5
9E5
331
9DF
  5
9E6
331
9E0
  5
9E7
331
9E1
  5
9E8
331
9E2
  5
9E9
331
9E3
  5
9EA
331
9E4
  5
9EB
331
9E5
  5
9EC
331
9E6
  5
9ED
331
9E7
  5
9EE
331
9E8
  5
9EF
331
9E9
  5
9F0
331
9EA
  5
9F1
331
9EB
  5
9F2
331
9EC
  5
9F3
331
9ED
  5
9F4
331
9EE
  5
9F5
331
9EF
  5
9F6
331
9F0
  5
9F7
331
9F1
  5
9F8
331
9F2
  5
9F9
331
9F3
  5
9FA
331
9F4
  5
9FB
331
9F5
  5
9FC
331
9F6
  5
9FD
331
9F7
  5
9FE
331
9F8
  5
9FF
331
9F9
  5
A00
331
9FA
  5
A01
331
9FB
  5
A02
331
9FC
  5
A03
331
9FD
  5
A04
331
9FE
  5
A05
331
9FF
  5
A06
331
A00
  5
A07
331
A01
  5
A08
331
A02
  5
A09
331
A03
  5
A0A
331
A04
  5
A0B
331
A05
  5
A0C
331
A06
  5
A0D
331
A07
  5
A0E
331
A08
  5
A0F
331
A09
  5
A10
331
A0A
  5
A11
331
A0B
  5
A12
331
A0C
  5
A13
331
A0D
  5
A14
331
A0E
  5
A15
331
A0F
  5
A16
331
A10
  5
A17
331
A11
  5
A18
331
A12
  5
A19
331
A13
  5
A1A
331
A14
  5
A1B
331
A15
  5
A1C
331
A16
  5
A1D
331
A17
  5
A1E
331
A18
  5
A1F
331
A19
  5
A20
331
A1A
  5
A21
331
A1B
  5
A22
331
A1C
  5
A23
331
A1D
  5
A24
331
A1E
  5
A25
331
A1F
  5
A26
331
A20
  5
A27
331
A21
  5
A29
331
A22
  5
A35
331
A23
  5
A36
331
A24
  5
A74
331
A25
  5
A75
331
A26
  5
A76
331
A27
  5
A77
331
A29
  5
A78
331
A35
  5
A79
331
A36
  5
A7A
331
A74
  5
A7B
331
A75
  5
A7C
331
A76
  5
A7D
331
A77
  5
A7E
331
A78
  5
A7F
331
A79
  5
A80
331
A7A
  5
A81
331
A7B
  5
A82
331
A7C
  5
A83
331
A7D
  5
A84
331
A7E
  5
A85
331
A7F
  5
A86
331
A80
  5
A87
331
A81
  5
A89
331
A82
  5
A8A
331
A83
  5
A91
331
A84
  5
A92
331
A85
  5
A93
331
A86
  5
A94
331
A87
  5
A95
331
A89
  5
AE1
331
A8A
  5
AE5
331
A91
  5
AE6
331
A92
  5
AE7
331
A93
  5
AE8
331
A94
  5
AE9
331
A95
  5
AEA
331
AE1
  5
AEB
331
AE5
  5
AEC
331
AE6
  5
AED
331
AE7
  5
AEE
331
AE8
  5
AEF
331
AE9
  5
AF0
331
AEA
  5
AF1
331
AEB
  5
AF2
331
AEC
  5
AF3
331
AED
  5
AF4
331
AEE
  5
AF5
331
AEF
  5
AF6
331
AF0
  5
AF7
331
AF1
  5
AF8
331
AF2
  5
AF9
331
AF3
  5
AFA
331
AF4
  5
B00
331
AF5
  5
B4C
331
AF6
  5
B4D
331
AF7
  5
B4E
331
AF8
  5
B4F
331
AF9
  5
B50
331
AFA
  5
B51
331
B00
  5
B52
331
B4C
  5
B53
331
B4D
  5
B54
331
B4E
  5
B55
331
B4F
  5
B56
331
B50
  5
B57
331
B51
  5
B58
331
B52
  5
B59
331
B53
  5
B5A
331
B54
  5
B5B
331
B55
  5
B5C
331
B56
  5
B5D
331
B57
  5
B5E
331
B58
  5
B5F
331
B59
  5
B60
331
B5A
  5
B61
331
B5B
  5
B62
331
B5C
  5
B63
331
B5D
  5
B6A
331
B5E
  5
BB9
331
B5F
  5
BBB
331
B60
  5
BC0
331
B61
  5
BC1
331
B62
  5
BC2
331
B63
  5
BC3
331
B6A
  5
BC4
331
BB9
  5
BC5
331
BBB
  5
BC6
331
BC0
  5
BC7
331
BC1
  5
BC8
331
BC2
  5
BC9
331
BC3
  5
BCA
331
BC4
  5
BCB
331
BC5
  5
BCC
331
BC6
  5
BCD
331
BC7
  5
BCE
331
BC8
  5
BCF
331
BC9
  5
BD0
331
BCA
  5
BD1
331
BCB
  5
BD2
331
BCC
  5
BD3
331
BCD
  5
BD4
331
BCE
  5
BD5
331
BCF
  5
BD6
331
BD0
  5
BD7
331
BD1
  5
C5E
331
BD2
  5
C5F
331
BD3
  5
C60
331
BD4
  5
C61
331
BD5
  5
C62
331
BD6
  5
C63
331
BD7
  5
C64
331
C5E
  5
C65
331
C5F
  5
C66
331
C60
  5
C67
331
C61
  5
C68
331
C62
  5
C69
331
C63
  5
C6A
331
C64
  5
C6B
331
C65
  5
C6C
331
C66
  5
C6D
331
C67
  5
C6E
331
C68
  5
C6F
331
C69
  5
C70
331
C6A
  5
C71
331
C6B
  5
C72
331
C6C
  5
C73
331
C6D
  5
C74
331
C6E
  5
C75
331
C6F
  5
C76
331
C70
  5
C78
331
C71
  5
C79
331
C72
  5
C81
331
C73
  5
C83
331
C74
  5
C84
331
C75
  5
CD1
331
C76
  5
CD2
331
C78
  5
CD3
331
C79
  5
CD4
331
C81
  5
CD5
331
C83
  5
CD6
331
C84
  5
CD7
331
CD1
  5
CD8
331
CD2
  5
CD9
331
CD3
  5
CDA
331
CD4
  5
CDB
331
CD5
  5
CDC
331
CD6
  5
CDD
331
CD7
  5
CDE
331
CD8
  5
CDF
331
CD9
  5
CE0
331
CDA
  5
CE1
331
CDB
  5
CE2
331
CDC
  5
CE3
331
CDD
  5
CE4
331
CDE
  5
CE5
331
CDF
  5
CE6
331
CE0
  5
CE7
331
CE1
  5
D37
331
CE2
  5
D39
331
CE3
  5
D3A
331
CE4
  5
D3B
331
CE5
  5
D3C
331
CE6
  5
D3D
331
CE7
  5
D3E
331
D37
  5
D3F
331
D39
  5
D40
331
D3A
  5
D41
331
D3B
  5
D42
331
D3C
  5
D43
331
D3D
  5
D44
331
D3E
  5
D45
331
D3F
  5
D46
331
D40
  5
D47
331
D41
  5
D48
331
D42
  5
D49
331
D43
  5
D4A
331
D44
  5
D4B
331
D45
  5
D4C
331
D46
  5
D4D
331
D47
  5
D4E
331
D48
  5
D4F
331
D49
  5
D50
331
D4A
  5
D51
331
D4B
  5
D52
331
D4C
  5
DD1
331
D4D
  5
DD2
331
D4E
  5
DD3
331
D4F
  5
DD4
331
D50
  5
DD5
331
D51
  5
DD6
331
D52
  5
DD7
331
DD1
  5
DD8
331
DD2
  5
DD9
331
DD3
  5
DDA
331
DD4
  5
DDB
331
DD5
  5
DDC
331
DD6
  5
DDD
331
DD7
  5
DDE
331
DD8
  5
DDF
331
DD9
  5
DE0
331
DDA
  5
DE1
331
DDB
  5
DE2
331
DDC
  5
DE3
331
DDD
  5
DE4
331
DDE
  5
DE5
331
DDF
  5
DE6
331
DE0
  5
E0C
331
DE1
  5
E0D
331
DE2
  5
E0E
331
DE3
  5
E0F
331
DE4
  5
E10
331
DE5
  5
E11
331
DE6
  5
E12
331
E0C
  5
E13
331
E0D
  5
E14
331
E0E
  5
E15
331
E0F
  5
E16
331
E10
  5
E17
331
E11
  5
E18
331
E12
  5
E19
331
E13
  5
E1A
331
E14
  5
E1B
331
E15
  5
E1C
331
E16
  5
E1D
331
E17
  5
E1E
331
E18
  5
E1F
331
E19
  5
E20
331
E1A
  5
E21
331
E1B
  5
E22
331
E1C
  5
E23
331
E1D
  5
E24
331
E1E
  5
E25
331
E1F
  5
E26
331
E20
  5
E27
331
E21
  5
E28
331
E22
  5
E29
331
E23
  5
E2A
331
E24
  5
E2B
331
E25
  5
E2C
331
E26
  5
E2D
331
E27
  5
E2E
331
E28
  5
E2F
331
E29
  5
E30
331
E2A
  5
E31
331
E2B
  5
E32
331
E2C
  5
E33
331
E2D
  5
E34
331
E2E
  5
E35
331
E2F
  5
E36
331
E30
  5
E37
331
E31
  5
E38
331
E32
  5
E39
331
E33
  5
E3A
331
E34
  5
E3B
331
E35
  5
E3C
331
E36
  5
E3D
331
E37
  5
E3E
331
E38
  5
E3F
331
E39
  5
E40
331
E3A
  5
E41
331
E3B
  5
E42
331
E3C
  5
E43
331
E3D
  5
E44
331
E3E
  5
E45
331
E3F
  5
E46
331
E40
  5
E47
331
E41
  5
E48
331
E42
  5
E49
331
E43
  5
E4A
331
E44
  5
E4B
331
E45
  5
E4C
331
E46
  5
E4D
331
E47
  5
E4E
331
E48
  5
E4F
331
E49
  5
E50
331
E4A
  5
E51
331
E4B
  5
E52
331
E4C
  5
E53
331
E4D
  5
E54
331
E4E
  5
E55
331
E4F
  5
E56
331
E50
  5
E57
331
E51
  5
E58
331
E52
  5
E59
331
E53
  5
E5A
331
E54
  5
E5B
331
E55
  5
E5C
331
E56
  5
E5D
331
E57
  5
E5E
331
E58
  5
E5F
331
E59
  5
E60
331
E5A
  5
E61
331
E5B
  5
E62
331
E5C
  5
E63
331
E5D
  5
E64
331
E5E
  5
E65
331
E5F
  5
E66
331
E60
  5
E67
331
E61
  5
E68
331
E62
  5
E69
331
E63
  5
E6A
331
E64
  5
E6B
331
E65
  5
E6C
331
E66
  5
E6D
331
E67
  5
E6E
331
E68
  5
E6F
331
E69
  5
E70
331
E6A
  5
E71
331
E6B
  5
E72
331
E6C
  5
E73
331
E6D
  5
E74
331
E6E
  5
E75
331
E6F
  5
E76
331
E70
  5
E77
331
E71
  5
E78
331
E72
  5
E79
331
E73
  5
E7A
331
E74
  5
E7B
331
E75
  5
E7C
331
E76
  5
E7D
331
E77
  5
E7E
331
E78
  5
E7F
331
E79
  5
E80
331
E7A
  5
E81
331
E7B
  5
E82
331
E7C
  5
E83
331
E7D
  5
E84
331
E7E
  5
E85
331
E7F
  5
E86
331
E80
  5
E87
331
E81
  5
E88
331
E82
  5
E89
331
E83
  5
E8A
331
E84
  5
E8B
331
E85
  5
E8C
331
E86
  5
E8D
331
E87
  5
E8E
331
E88
  5
E8F
331
E89
  5
E90
331
E8A
  5
E91
331
E8B
  5
E92
331
E8C
  5
E93
331
E8D
  5
E94
331
E8E
  5
E95
331
E8F
  5
E96
331
E90
  5
E97
331
E91
  5
E98
331
E92
  5
E99
331
E93
  5
E9A
331
E94
  5
E9B
331
E95
  5
E9C
331
E96
  5
E9D
331
E97
  5
E9E
331
E98
  5
E9F
331
E99
  5
EA0
331
E9A
  5
EA1
331
E9B
  5
EA2
331
E9C
  5
EA3
331
E9D
  5
EA4
331
E9E
  5
EA5
331
E9F
  5
EA6
331
EA0
  5
EA7
331
EA1
  5
EA8
331
EA2
  5
EA9
331
EA3
  5
EAA
331
EA4
  5
EAB
331
EA5
  5
EAC
331
EA6
  5
EAD
331
EA7
  5
EAE
331
EA8
  5
EAF
331
EA9
  5
EB0
331
EAA
  5
EB1
331
EAB
  5
EB2
331
EAC
  5
EB3
331
EAD
  5
EB4
331
EAE
  5
EB5
331
EAF
  5
EB6
331
EB0
  5
EB7
331
EB1
  5
EB8
331
EB2
  5
EBC
331
EB3
  5
ECA
331
EB4
  5
ECB
331
EB5
  5
ECC
331
EB6
  5
ED4
331
EB7
  5
ED5
331
EB8
  5
ED6
331
EBC
  5
ED7
331
ECA
  5
ED8
331
ECB
  5
ED9
331
ECC
  5
EDA
331
ED4
  5
EDD
331
ED5
  5
EDE
331
ED6
  5
EE3
331
ED7
  5
EE4
331
ED8
  5
EE5
331
ED9
  5
EE6
331
EDA
  5
EEE
331
EDD
  5
1151
331
EDE
  5
1156
331
EE3
  5
148E
331
EE4
  5
148F
331
EE5
  5
1490
331
EE6
  5
1491
331
EEE
  5
98B
331
1151
  5
98C
331
1156
  5
98D
331
148E
  5
149C
331
148F
  5
149D
331
1490
  5
149E
331
1491
  5
14A8
331
149C
  5
14A9
331
149D
  5
14AA
331
149E
  5
14AB
331
14A8
  5
14AC
331
14A9
  5
14B7
331
14AA
  5
14B8
331
14AB
  5
14B9
331
14AC
  5
14C3
331
14B7
  5
14C4
331
14B8
  5
14C5
331
14B9
  5
14C6
331
14C3
  5
14C7
331
14C4
  5
14D2
331
14C5
  5
14D3
331
14C6
  5
14D4
331
14C7
  5
14DE
331
14D2
  5
14DF
331
14D3
  5
14E0
331
14D4
  5
14E1
331
14DE
  5
14E2
331
14DF
  5
14ED
331
14E0
  5
14EE
331
14E1
  5
14EF
331
14E2
  5
14F9
331
14ED
  5
14FA
331
14EE
  5
14FB
331
14EF
  5
14FC
331
14F9
  5
14FD
331
14FA
  5
1508
331
14FB
  5
1509
331
14FC
  5
150A
331
14FD
  5
1514
331
1508
  5
1515
331
1509
  5
1516
331
150A
  5
1672
331
1514
  5
1757
331
1515
  5
1758
331
1516
  5
1759
331
1672
  5
991
331
1757
  5
175A
331
1758
  5
175B
331
1759
  5
175C
331
175A
  5
175D
331
175B
  5
175E
331
175C
  5
175F
331
175D
  5
1760
331
175E
  5
1761
331
175F
  5
1762
331
1760
  5
1763
331
1761
  5
1764
331
1762
  5
1765
331
1763
  5
1766
331
1764
  5
1767
331
1765
  5
1768
331
1766
  5
1769
331
1767
  5
176A
331
1768
  5
176B
331
1769
  5
176C
331
176A
  5
176D
331
176B
  5
176E
331
176C
  5
176F
331
176D
  5
1770
331
176E
  5
1771
331
176F
  5
1772
331
1770
  5
1773
331
1771
  5
1774
331
1772
  5
1775
331
1773
  5
1776
331
1774
  5
1777
331
1775
  5
1778
331
1776
  5
1779
331
1777
  5
177A
331
1778
  5
177B
331
1779
  5
177C
331
177A
  5
177D
331
177B
  5
177E
331
177C
  5
177F
331
177D
  5
1780
331
177E
  5
1781
331
177F
  5
1782
331
1780
  5
1783
331
1781
  5
1784
331
1782
  5
1785
331
1783
  5
1786
331
1784
  5
1787
331
1785
  5
1788
331
1786
  5
1789
331
1787
  5
178A
331
1788
  5
178B
331
1789
  5
178C
331
178A
  5
178D
331
178B
  5
178E
331
178C
  5
178F
331
178D
  5
1790
331
178E
  5
1791
331
178F
  5
1792
331
1790
  5
1793
331
1791
  5
1794
331
1792
  5
1795
331
1793
  5
1796
331
1794
  5
1797
331
1795
  5
1798
331
1796
  5
1799
331
1797
  5
179A
331
1798
  5
179B
331
1799
  5
179C
331
179A
  5
179D
331
179B
  5
179E
331
179C
  5
179F
331
179D
  5
17A0
331
179E
  5
17A1
331
179F
  5
17A2
331
17A0
  5
189D
331
17A1
  5
18AB
331
17A2
  5
1963
331
189D
  5
993
331
18AB
  5
994
331
1963
  5
995
  0
LAYOUT
  5
1984
102
{ACAD_REACTORS
330
1981
102
}
330
1981
100
AcDbPlotSettings
  1

  2
hp LaserJet 1150 PCL 5e
  4

  6

 40
0.0
 41
0.0
 42
0.0
 43
0.0
 44
0.0
 45
0.0
 46
0.0
 47
0.0
 48
0.0
 49
0.0
140
0.0
141
0.0
142
1.0
143
1.0
 70
   688
 72
     0
 73
     0
 74
     5
  7

 75
    16
147
1.0
148
0.0
149
0.0
100
AcDbLayout
  1
Layout1
 70
     0
 71
     1
 10
0.0
 20
0.0
 11
12.0
 21
9.0
 12
0.0
 22
0.0
 32
0.0
 14
1.000000000000000E+20
 24
1.000000000000000E+20
 34
1.000000000000000E+20
 15
-1.000000000000000E+20
 25
-1.000000000000000E+20
 35
-1.000000000000000E+20
146
0.0
 13
0.0
 23
0.0
 33
0.0
 16
1.0
 26
0.0
 36
0.0
 17
0.0
 27
1.0
 37
0.0
 76
     0
330
B
  0
LAYOUT
  5
1983
102
{ACAD_REACTORS
330
1981
102
}
330
1981
100
AcDbPlotSettings
  1

  2
hp LaserJet 1150 PCL 5e
  4

  6

 40
0.0
 41
0.0
 42
0.0
 43
0.0
 44
0.0
 45
0.0
 46
0.0
 47
0.0
 48
0.0
 49
0.0
140
0.0
141
0.0
142
1.0
143
1.0
 70
  1712
 72
     0
 73
     0
 74
     0
  7

 75
     0
147
1.0
148
0.0
149
0.0
100
AcDbLayout
  1
Model
 70
     1
 71
     0
 10
0.0
 20
0.0
 11
12.0
 21
9.0
 12
0.0
 22
0.0
 32
0.0
 14
0.0
 24
0.0
 34
0.0
 15
0.0
 25
0.0
 35
0.0
146
0.0
 13
0.0
 23
0.0
 33
0.0
 16
1.0
 26
0.0
 36
0.0
 17
0.0
 27
1.0
 37
0.0
 76
     0
330
A
331
19A3
  0
MATERIAL
  5
19D1
102
{ACAD_REACTORS
330
19CF
102
}
102
{ACAD_XDICTIONARY
360
1A13
102
}
330
19CF
100
AcDbMaterial
  1
ByBlock
  0
MATERIAL
  5
19D0
102
{ACAD_REACTORS
330
19CF
102
}
102
{ACAD_XDICTIONARY
360
1A11
102
}
330
19CF
100
AcDbMaterial
  1
ByLayer
  0
MATERIAL
  5
19D2
102
{ACAD_REACTORS
330
19CF
102
}
102
{ACAD_XDICTIONARY
360
1A15
102
}
330
19CF
100
AcDbMaterial
  1
Global
  0
MLEADERSTYLE
  5
19D4
102
{ACAD_REACTORS
330
19D3
102
}
102
{ACAD_XDICTIONARY
360
1A18
102
}
330
19D3
100
AcDbMLeaderStyle
170
     2
171
     1
172
     0
 90
        2
 40
0.0
 41
0.0
173
     1
 91
-1056964608
340
11
 92
       -2
290
     1
 42
0.09
291
     1
 43
0.36
  3
Standard
341
0
 44
0.18
300

342
17
174
     1
178
     6
175
     1
176
     0
 93
-1056964608
 45
0.18
292
     0
297
     0
 46
0.18
343
0
 94
-1056964608
 47
1.0
 49
1.0
140
1.0
293
     1
141
0.0
294
     1
177
     0
142
1.0
295
     0
296
     0
143
0.125
1001
ACAD_MLEADERVER
1070
     2
  0
MLINESTYLE
  5
1C
102
{ACAD_REACTORS
330
1B
102
}
330
1B
100
AcDbMlineStyle
  2
STANDARD
 70
     0
  3

 62
     0
 51
90.0000000000002
 52
90.0000000000002
 71
     2
 49
0.5
 62
   256
  6
BYLAYER
 49
-0.5
 62
   256
  6
BYLAYER
  0
ACDBPLACEHOLDER
  5
1980
102
{ACAD_REACTORS
330
197F
102
}
330
197F
  0
SCALE
  5
19BE
102
{ACAD_REACTORS
330
19BD
102
}
330
19BD
100
AcDbScale
 70
     0
300
1:1
140
1.0
141
1.0
290
     1
  0
SCALE
  5
19BF
102
{ACAD_REACTORS
330
19BD
102
}
330
19BD
100
AcDbScale
 70
     0
300
1/128" = 1'-0"
140
0.0078125
141
12.0
290
     0
  0
SCALE
  5
19C0
102
{ACAD_REACTORS
330
19BD
102
}
330
19BD
100
AcDbScale
 70
     0
300
1/64" = 1'-0"
140
0.015625
141
12.0
290
     0
  0
SCALE
  5
19C1
102
{ACAD_REACTORS
330
19BD
102
}
330
19BD
100
AcDbScale
 70
     0
300
1/32" = 1'-0"
140
0.03125
141
12.0
290
     0
  0
SCALE
  5
19C2
102
{ACAD_REACTORS
330
19BD
102
}
330
19BD
100
AcDbScale
 70
     0
300
1/16" = 1'-0"
140
0.0625
141
12.0
290
     0
  0
SCALE
  5
19C3
102
{ACAD_REACTORS
330
19BD
102
}
330
19BD
100
AcDbScale
 70
     0
300
3/32" = 1'-0"
140
0.09375
141
12.0
290
     0
  0
SCALE
  5
19C4
102
{ACAD_REACTORS
330
19BD
102
}
330
19BD
100
AcDbScale
 70
     0
300
1/8" = 1'-0"
140
0.125
141
12.0
290
     0
  0
SCALE
  5
19C5
102
{ACAD_REACTORS
330
19BD
102
}
330
19BD
100
AcDbScale
 70
     0
300
3/16" = 1'-0"
140
0.1875
141
12.0
290
     0
  0
SCALE
  5
19C6
102
{ACAD_REACTORS
330
19BD
102
}
330
19BD
100
AcDbScale
 70
     0
300
1/4" = 1'-0"
140
0.25
141
12.0
290
     0
  0
SCALE
  5
19C7
102
{ACAD_REACTORS
330
19BD
102
}
330
19BD
100
AcDbScale
 70
     0
300
3/8" = 1'-0"
140
0.375
141
12.0
290
     0
  0
SCALE
  5
19C8
102
{ACAD_REACTORS
330
19BD
102
}
330
19BD
100
AcDbScale
 70
     0
300
1/2" = 1'-0"
140
0.5
141
12.0
290
     0
  0
SCALE
  5
19C9
102
{ACAD_REACTORS
330
19BD
102
}
330
19BD
100
AcDbScale
 70
     0
300
3/4" = 1'-0"
140
0.75
141
12.0
290
     0
  0
SCALE
  5
19CA
102
{ACAD_REACTORS
330
19BD
102
}
330
19BD
100
AcDbScale
 70
     0
300
1" = 1'-0"
140
1.0
141
12.0
290
     0
  0
SCALE
  5
19CB
102
{ACAD_REACTORS
330
19BD
102
}
330
19BD
100
AcDbScale
 70
     0
300
1-1/2" = 1'-0"
140
1.5
141
12.0
290
     0
  0
SCALE
  5
19CC
102
{ACAD_REACTORS
330
19BD
102
}
330
19BD
100
AcDbScale
 70
     0
300
3" = 1'-0"
140
3.0
141
12.0
290
     0
  0
SCALE
  5
19CD
102
{ACAD_REACTORS
330
19BD
102
}
330
19BD
100
AcDbScale
 70
     0
300
6" = 1'-0"
140
6.0
141
12.0
290
     0
  0
SCALE
  5
19CE
102
{ACAD_REACTORS
330
19BD
102
}
330
19BD
100
AcDbScale
 70
     0
300
1'-0" = 1'-0"
140
12.0
141
12.0
290
     0
  0
TABLESTYLE
  5
19D6
102
{ACAD_REACTORS
330
19D5
102
}
330
19D5
100
AcDbTableStyle
  3
Standard
 70
     0
 71
     0
 40
0.06
 41
0.06
280
     0
281
     0
  7
STANDARD
140
0.18
170
     2
 62
     0
 63
   257
283
     0
274
    -2
284
     1
 64
     0
275
    -2
285
     1
 65
     0
276
    -2
286
     1
 66
     0
277
    -2
287
     1
 67
     0
278
    -2
288
     1
 68
     0
279
    -2
289
     1
 69
     0
  7
STANDARD
140
0.25
170
     5
 62
     0
 63
   257
283
     0
274
    -2
284
     1
 64
     0
275
    -2
285
     1
 65
     0
276
    -2
286
     1
 66
     0
277
    -2
287
     1
 67
     0
278
    -2
288
     1
 68
     0
279
    -2
289
     1
 69
     0
  7
STANDARD
140
0.18
170
     5
 62
     0
 63
   257
283
     0
274
    -2
284
     1
 64
     0
275
    -2
285
     1
 65
     0
276
    -2
286
     1
 66
     0
277
    -2
287
     1
 67
     0
278
    -2
288
     1
 68
     0
279
    -2
289
     1
 69
     0
  0
VISUALSTYLE
  5
19A9
102
{ACAD_REACTORS
330
19A4
102
}
102
{ACAD_XDICTIONARY
360
19E9
102
}
330
19A4
100
AcDbVisualStyle
  2
2dWireframe
 70
     4
 71
     0
 72
     2
 73
     0
 90
        0
 40
0.6
 41
30.0
 62
     5
 63
     7
 74
     1
 91
        4
 64
     7
 65
   257
 75
     1
175
     1
 42
1.0
 92
        0
 66
   257
 43
1.0
 76
     1
 77
     6
 78
     2
 67
     7
 79
     5
170
     0
171
     0
290
     0
174
     0
 93
        1
 44
0.0
173
     0
291
     0
 45
0.0
1001
ACAD
1000
AcDbSavedByObjectVersion
1070
     0
  0
VISUALSTYLE
  5
19AC
102
{ACAD_REACTORS
330
19A4
102
}
102
{ACAD_XDICTIONARY
360
19EF
102
}
330
19A4
100
AcDbVisualStyle
  2
Basic
 70
     7
 71
     1
 72
     0
 73
     1
 90
        0
 40
0.6
 41
30.0
 62
     5
 63
     7
 74
     0
 91
        4
 64
     7
 65
   257
 75
     1
175
     1
 42
1.0
 92
        8
 66
     7
 43
1.0
 76
     1
 77
     6
 78
     2
 67
     7
 79
     5
170
     0
171
     0
290
     0
174
     0
 93
        1
 44
0.0
173
     0
291
     1
 45
0.0
1001
ACAD
1000
AcDbSavedByObjectVersion
1070
     0
  0
VISUALSTYLE
  5
19B0
102
{ACAD_REACTORS
330
19A4
102
}
102
{ACAD_XDICTIONARY
360
19F7
102
}
330
19A4
100
AcDbVisualStyle
  2
Brighten
 70
    12
 71
     2
 72
     2
 73
     0
 90
        0
 40
0.6
 41
30.0
 62
     5
 63
     7
 74
     1
 91
        4
 64
     7
 65
   257
 75
     1
175
     1
 42
1.0
 92
        8
 66
     7
 43
1.0
 76
     1
 77
     6
 78
     2
 67
     7
 79
     5
170
     0
171
     0
290
     0
174
     0
 93
        1
 44
50.0
173
     0
291
     1
 45
0.0
1001
ACAD
1000
AcDbSavedByObjectVersion
1070
     0
  0
VISUALSTYLE
  5
19B4
102
{ACAD_REACTORS
330
19A4
102
}
102
{ACAD_XDICTIONARY
360
19FF
102
}
330
19A4
100
AcDbVisualStyle
  2
ColorChange
 70
    16
 71
     2
 72
     2
 73
     3
 90
        0
 40
0.6
 41
30.0
 62
     5
 63
     8
 74
     1
 91
        4
 64
     7
 65
   257
 75
     1
175
     1
 42
1.0
 92
        8
 66
     8
 43
1.0
 76
     1
 77
     6
 78
     2
 67
     7
 79
     5
170
     0
171
     0
290
     0
174
     0
 93
        1
 44
0.0
173
     0
291
     1
 45
0.0
1001
ACAD
1000
AcDbSavedByObjectVersion
1070
     0
  0
VISUALSTYLE
  5
19AE
102
{ACAD_REACTORS
330
19A4
102
}
102
{ACAD_XDICTIONARY
360
19F3
102
}
330
19A4
100
AcDbVisualStyle
  2
Conceptual
 70
     9
 71
     3
 72
     2
 73
     0
 90
        0
 40
0.6
 41
30.0
 62
     5
 63
     7
 74
     2
 91
        2
 64
     7
 65
   257
 75
     1
175
     1
 42
179.0
 92
        8
 66
     7
 43
1.0
 76
     1
 77
     6
 78
     2
 67
     7
 79
     3
170
     0
171
     0
290
     0
174
     0
 93
        1
 44
0.0
173
     0
291
     0
 45
0.0
1001
ACAD
1000
AcDbSavedByObjectVersion
1070
     0
  0
VISUALSTYLE
  5
19AF
102
{ACAD_REACTORS
330
19A4
102
}
102
{ACAD_XDICTIONARY
360
19F5
102
}
330
19A4
100
AcDbVisualStyle
  2
Dim
 70
    11
 71
     2
 72
     2
 73
     0
 90
        0
 40
0.6
 41
30.0
 62
     5
 63
     7
 74
     1
 91
        4
 64
     7
 65
   257
 75
     1
175
     1
 42
1.0
 92
        8
 66
     7
 43
1.0
 76
     1
 77
     6
 78
     2
 67
     7
 79
     5
170
     0
171
     0
290
     0
174
     0
 93
        1
 44
-50.0
173
     0
291
     1
 45
0.0
1001
ACAD
1000
AcDbSavedByObjectVersion
1070
     0
  0
VISUALSTYLE
  5
19B7
102
{ACAD_REACTORS
330
19A4
102
}
102
{ACAD_XDICTIONARY
360
1A05
102
}
330
19A4
100
AcDbVisualStyle
  2
EdgeColorOff
 70
    22
 71
     2
 72
     2
 73
     0
 90
        0
 40
0.6
 41
30.0
 62
     5
 63
     7
 74
     1
 91
        4
 64
     7
 65
   257
 75
     1
175
     1
 42
1.0
 92
        8
 66
     7
 43
1.0
 76
     1
 77
     6
 78
     2
 67
     7
 79
     5
170
     0
171
     0
290
     0
174
     0
 93
        1
 44
0.0
173
     0
291
     1
 45
0.0
1001
ACAD
1000
AcDbSavedByObjectVersion
1070
     0
  0
VISUALSTYLE
  5
19B3
102
{ACAD_REACTORS
330
19A4
102
}
102
{ACAD_XDICTIONARY
360
19FD
102
}
330
19A4
100
AcDbVisualStyle
  2
Facepattern
 70
    15
 71
     2
 72
     2
 73
     0
 90
        0
 40
0.6
 41
30.0
 62
     5
 63
     7
 74
     1
 91
        4
 64
     7
 65
   257
 75
     1
175
     1
 42
1.0
 92
        8
 66
     7
 43
1.0
 76
     1
 77
     6
 78
     2
 67
     7
 79
     5
170
     0
171
     0
290
     0
174
     0
 93
        1
 44
0.0
173
     0
291
     1
 45
0.0
1001
ACAD
1000
AcDbSavedByObjectVersion
1070
     0
  0
VISUALSTYLE
  5
19A5
102
{ACAD_REACTORS
330
19A4
102
}
102
{ACAD_XDICTIONARY
360
19E1
102
}
330
19A4
100
AcDbVisualStyle
  2
Flat
 70
     0
 71
     2
 72
     1
 73
     1
 90
        2
 40
0.6
 41
30.0
 62
     5
 63
     7
 74
     0
 91
        0
 64
     7
 65
   257
 75
     1
175
     1
 42
1.0
 92
        8
 66
     7
 43
1.0
 76
     1
 77
     6
 78
     2
 67
     7
 79
     5
170
     0
171
     0
290
     0
174
     0
 93
       13
 44
0.0
173
     0
291
     1
 45
0.0
1001
ACAD
1000
AcDbSavedByObjectVersion
1070
     0
  0
VISUALSTYLE
  5
19A6
102
{ACAD_REACTORS
330
19A4
102
}
102
{ACAD_XDICTIONARY
360
19E3
102
}
330
19A4
100
AcDbVisualStyle
  2
FlatWithEdges
 70
     1
 71
     2
 72
     1
 73
     1
 90
        2
 40
0.6
 41
30.0
 62
     5
 63
     7
 74
     1
 91
        0
 64
     7
 65
   257
 75
     1
175
     1
 42
1.0
 92
        0
 66
   257
 43
1.0
 76
     1
 77
     6
 78
     2
 67
     7
 79
     5
170
     0
171
     0
290
     0
174
     0
 93
       13
 44
0.0
173
     0
291
     1
 45
0.0
1001
ACAD
1000
AcDbSavedByObjectVersion
1070
     0
  0
VISUALSTYLE
  5
19A7
102
{ACAD_REACTORS
330
19A4
102
}
102
{ACAD_XDICTIONARY
360
19E5
102
}
330
19A4
100
AcDbVisualStyle
  2
Gouraud
 70
     2
 71
     2
 72
     2
 73
     1
 90
        2
 40
0.6
 41
30.0
 62
     5
 63
     7
 74
     0
 91
        0
 64
     7
 65
   257
 75
     1
175
     1
 42
1.0
 92
        0
 66
     7
 43
1.0
 76
     1
 77
     6
 78
     2
 67
     7
 79
     5
170
     0
171
     0
290
     0
174
     0
 93
       13
 44
0.0
173
     0
291
     1
 45
0.0
1001
ACAD
1000
AcDbSavedByObjectVersion
1070
     0
  0
VISUALSTYLE
  5
19A8
102
{ACAD_REACTORS
330
19A4
102
}
102
{ACAD_XDICTIONARY
360
19E7
102
}
330
19A4
100
AcDbVisualStyle
  2
GouraudWithEdges
 70
     3
 71
     2
 72
     2
 73
     1
 90
        2
 40
0.6
 41
30.0
 62
     5
 63
     7
 74
     1
 91
        0
 64
     7
 65
   257
 75
     1
175
     1
 42
1.0
 92
        0
 66
   257
 43
1.0
 76
     1
 77
     6
 78
     2
 67
     7
 79
     5
170
     0
171
     0
290
     0
174
     0
 93
       13
 44
0.0
173
     0
291
     1
 45
0.0
1001
ACAD
1000
AcDbSavedByObjectVersion
1070
     0
  0
VISUALSTYLE
  5
19AB
102
{ACAD_REACTORS
330
19A4
102
}
102
{ACAD_XDICTIONARY
360
19ED
102
}
330
19A4
100
AcDbVisualStyle
  2
Hidden
 70
     6
 71
     1
 72
     2
 73
     2
 90
        0
 40
0.6
 41
30.0
 62
     5
 63
     7
 74
     2
 91
        2
 64
     7
 65
   257
 75
     2
175
     1
 42
40.0
 92
        0
 66
   257
 43
1.0
 76
     1
 77
     6
 78
     2
 67
     7
 79
     3
170
     0
171
     0
290
     0
174
     0
 93
        1
 44
0.0
173
     0
291
     0
 45
0.0
1001
ACAD
1000
AcDbSavedByObjectVersion
1070
     0
  0
VISUALSTYLE
  5
19B5
102
{ACAD_REACTORS
330
19A4
102
}
102
{ACAD_XDICTIONARY
360
1A01
102
}
330
19A4
100
AcDbVisualStyle
  2
JitterOff
 70
    20
 71
     2
 72
     2
 73
     0
 90
        0
 40
0.6
 41
30.0
 62
     5
 63
     7
 74
     1
 91
        4
 64
     7
 65
   257
 75
     1
175
     1
 42
1.0
 92
       10
 66
     7
 43
1.0
 76
     1
 77
     6
 78
     2
 67
     7
 79
     5
170
     0
171
     0
290
     0
174
     0
 93
        1
 44
0.0
173
     0
291
     1
 45
0.0
1001
ACAD
1000
AcDbSavedByObjectVersion
1070
     0
  0
VISUALSTYLE
  5
19B2
102
{ACAD_REACTORS
330
19A4
102
}
102
{ACAD_XDICTIONARY
360
19FB
102
}
330
19A4
100
AcDbVisualStyle
  2
Linepattern
 70
    14
 71
     2
 72
     2
 73
     0
 90
        0
 40
0.6
 41
30.0
 62
     5
 63
     7
 74
     1
 91
        4
 64
     7
 65
   257
 75
     7
175
     7
 42
1.0
 92
        8
 66
     7
 43
1.0
 76
     1
 77
     6
 78
     2
 67
     7
 79
     5
170
     0
171
     0
290
     0
174
     0
 93
        1
 44
0.0
173
     0
291
     1
 45
0.0
1001
ACAD
1000
AcDbSavedByObjectVersion
1070
     0
  0
VISUALSTYLE
  5
19B6
102
{ACAD_REACTORS
330
19A4
102
}
102
{ACAD_XDICTIONARY
360
1A03
102
}
330
19A4
100
AcDbVisualStyle
  2
OverhangOff
 70
    21
 71
     2
 72
     2
 73
     0
 90
        0
 40
0.6
 41
30.0
 62
     5
 63
     7
 74
     1
 91
        4
 64
     7
 65
   257
 75
     1
175
     1
 42
1.0
 92
        9
 66
     7
 43
1.0
 76
     1
 77
     6
 78
     2
 67
     7
 79
     5
170
     0
171
     0
290
     0
174
     0
 93
        1
 44
0.0
173
     0
291
     1
 45
0.0
1001
ACAD
1000
AcDbSavedByObjectVersion
1070
     0
  0
VISUALSTYLE
  5
19AD
102
{ACAD_REACTORS
330
19A4
102
}
102
{ACAD_XDICTIONARY
360
19F1
102
}
330
19A4
100
AcDbVisualStyle
  2
Realistic
 70
     8
 71
     2
 72
     3
 73
     0
 90
        2
 40
0.6
 41
30.0
 62
     5
 63
     7
 74
     0
 91
        0
 64
     7
 65
   257
 75
     1
175
     1
 42
1.0
 92
        8
 66
   257
 43
1.0
 76
     1
 77
     6
 78
     2
 67
     7
 79
     3
170
     0
171
     0
290
     0
174
     0
 93
       13
 44
0.0
173
     0
291
     0
 45
0.0
1001
ACAD
1000
AcDbSavedByObjectVersion
1070
     0
  0
VISUALSTYLE
  5
19BC
102
{ACAD_REACTORS
330
19A4
102
}
102
{ACAD_XDICTIONARY
360
1A0F
102
}
330
19A4
100
AcDbVisualStyle
  2
Shaded
 70
    27
 71
     2
 72
     2
 73
     1
 90
        2
 40
0.6
 41
30.0
 62
     5
 63
     7
 74
     0
 91
        4
 64
     7
 65
   257
 75
     1
175
     1
 42
1.0
 92
        8
 66
   257
 43
1.0
 76
     1
 77
     6
 78
     2
 67
     8
 79
     3
170
     0
171
     0
290
     0
174
     0
 93
        5
 44
0.0
173
     0
291
     0
 45
0.0
1001
ACAD
1000
AcDbSavedByObjectVersion
1070
     0
  0
VISUALSTYLE
  5
19BB
102
{ACAD_REACTORS
330
19A4
102
}
102
{ACAD_XDICTIONARY
360
1A0D
102
}
330
19A4
100
AcDbVisualStyle
  2
Shaded with edges
 70
    26
 71
     2
 72
     2
 73
     1
 90
        2
 40
0.6
 41
30.0
 62
     5
 63
     7
 74
     1
 91
       10
 64
     7
 65
   257
 75
     2
175
     1
 42
1.0
 92
        8
 66
   257
 43
1.0
 76
     1
 77
     6
 78
     2
 67
     7
 79
     3
170
     0
171
     0
290
     0
174
     0
 93
        5
 44
0.0
173
     0
291
     0
 45
0.0
1001
ACAD
1000
AcDbSavedByObjectVersion
1070
     0
  0
VISUALSTYLE
  5
19B8
102
{ACAD_REACTORS
330
19A4
102
}
102
{ACAD_XDICTIONARY
360
1A07
102
}
330
19A4
100
AcDbVisualStyle
  2
Shades of Gray
 70
    23
 71
     2
 72
     2
 73
     3
 90
        0
 40
0.6
 41
30.0
 62
     5
 63
     7
 74
     2
 91
        2
 64
     7
 65
     7
 75
     1
175
     1
 42
40.0
 92
        8
 66
     7
 43
1.0
 76
     1
 77
     6
 78
     2
 67
     7
 79
     3
170
     0
171
     0
290
     0
174
     0
 93
        1
 44
0.0
173
     0
291
     0
 45
0.0
1001
ACAD
1000
AcDbSavedByObjectVersion
1070
     0
  0
VISUALSTYLE
  5
19B9
102
{ACAD_REACTORS
330
19A4
102
}
102
{ACAD_XDICTIONARY
360
1A09
102
}
330
19A4
100
AcDbVisualStyle
  2
Sketchy
 70
    24
 71
     1
 72
     2
 73
     2
 90
        0
 40
0.6
 41
30.0
 62
     5
 63
     7
 74
     2
 91
        2
 64
     7
 65
     7
 75
     1
175
     1
 42
40.0
 92
       11
 66
     7
 43
1.0
 76
     1
 77
     6
 78
     2
 67
     7
 79
     6
170
     0
171
     0
290
     0
174
     0
 93
        1
 44
0.0
173
     0
291
     0
 45
0.0
1001
ACAD
1000
AcDbSavedByObjectVersion
1070
     0
  0
VISUALSTYLE
  5
19B1
102
{ACAD_REACTORS
330
19A4
102
}
102
{ACAD_XDICTIONARY
360
19F9
102
}
330
19A4
100
AcDbVisualStyle
  2
Thicken
 70
    13
 71
     2
 72
     2
 73
     0
 90
        0
 40
0.6
 41
30.0
 62
     5
 63
     7
 74
     1
 91
        4
 64
     7
 65
   257
 75
     1
175
     1
 42
1.0
 92
       12
 66
     7
 43
1.0
 76
     1
 77
     6
 78
     2
 67
     7
 79
     5
170
     0
171
     0
290
     0
174
     0
 93
        1
 44
0.0
173
     0
291
     1
 45
0.0
1001
ACAD
1000
AcDbSavedByObjectVersion
1070
     0
  0
VISUALSTYLE
  5
19AA
102
{ACAD_REACTORS
330
19A4
102
}
102
{ACAD_XDICTIONARY
360
19EB
102
}
330
19A4
100
AcDbVisualStyle
  2
Wireframe
 70
     5
 71
     0
 72
     2
 73
     0
 90
        0
 40
0.6
 41
30.0
 62
     5
 63
     7
 74
     1
 91
        4
 64
     7
 65
   257
 75
     1
175
     1
 42
1.0
 92
        0
 66
   257
 43
1.0
 76
     1
 77
     6
 78
     2
 67
     7
 79
     3
170
     0
171
     0
290
     0
174
     0
 93
        1
 44
0.0
173
     0
291
     0
 45
0.0
1001
ACAD
1000
AcDbSavedByObjectVersion
1070
     0
  0
VISUALSTYLE
  5
19BA
102
{ACAD_REACTORS
330
19A4
102
}
102
{ACAD_XDICTIONARY
360
1A0B
102
}
330
19A4
100
AcDbVisualStyle
  2
X-Ray
 70
    25
 71
     2
 72
     2
 73
     1
 90
        1
 40
0.5
 41
30.0
 62
     5
 63
     7
 74
     1
 91
        0
 64
     7
 65
   257
 75
     1
175
     1
 42
1.0
 92
        8
 66
     7
 43
1.0
 76
     1
 77
     6
 78
     2
 67
     7
 79
     3
170
     0
171
     0
290
     0
174
     0
 93
       13
 44
0.0
173
     0
291
     0
 45
0.0
1001
ACAD
1000
AcDbSavedByObjectVersion
1070
     0
  0
DICTIONARYVAR
  5
19DF
102
{ACAD_REACTORS
330
EE1
102
}
330
EE1
100
DictionaryVariables
280
     0
  1
1:1
  0
DICTIONARYVAR
  5
19D8
102
{ACAD_REACTORS
330
EE1
102
}
330
EE1
100
DictionaryVariables
280
     0
  1
Standard
  0
DICTIONARYVAR
  5
19D7
102
{ACAD_REACTORS
330
EE1
102
}
330
EE1
100
DictionaryVariables
280
     0
  1
Standard
  0
DICTIONARYVAR
  5
1989
102
{ACAD_REACTORS
330
EE1
102
}
330
EE1
100
DictionaryVariables
280
     0
  1
1
  0
DICTIONARYVAR
  5
19DB
102
{ACAD_REACTORS
330
EE1
102
}
330
EE1
100
DictionaryVariables
280
     0
  1
1
  0
DICTIONARYVAR
  5
19E0
102
{ACAD_REACTORS
330
EE1
102
}
330
EE1
100
DictionaryVariables
280
     0
  1
1
  0
DICTIONARYVAR
  5
EE2
102
{ACAD_REACTORS
330
EE1
102
}
330
EE1
100
DictionaryVariables
280
     0
  1
127
  0
DICTIONARY
  5
1A13
330
19D1
100
AcDbDictionary
280
     1
281
     1
  3
ACAD_XREC_ROUNDTRIP
360
1A14
  0
DICTIONARY
  5
1A11
330
19D0
100
AcDbDictionary
280
     1
281
     1
  3
ACAD_XREC_ROUNDTRIP
360
1A12
  0
DICTIONARY
  5
1A15
330
19D2
100
AcDbDictionary
280
     1
281
     1
  3
ACAD_XREC_ROUNDTRIP
360
1A16
  0
DICTIONARY
  5
1A18
330
19D4
100
AcDbDictionary
280
     1
281
     1
  3
ACAD_XREC_ROUNDTRIP
360
1A19
  0
DICTIONARY
  5
19E9
330
19A9
100
AcDbDictionary
280
     1
281
     1
  3
ACAD_XREC_ROUNDTRIP
360
19EA
  0
DICTIONARY
  5
19EF
330
19AC
100
AcDbDictionary
280
     1
281
     1
  3
ACAD_XREC_ROUNDTRIP
360
19F0
  0
DICTIONARY
  5
19F7
330
19B0
100
AcDbDictionary
280
     1
281
     1
  3
ACAD_XREC_ROUNDTRIP
360
19F8
  0
DICTIONARY
  5
19FF
330
19B4
100
AcDbDictionary
280
     1
281
     1
  3
ACAD_XREC_ROUNDTRIP
360
1A00
  0
DICTIONARY
  5
19F3
330
19AE
100
AcDbDictionary
280
     1
281
     1
  3
ACAD_XREC_ROUNDTRIP
360
19F4
  0
DICTIONARY
  5
19F5
330
19AF
100
AcDbDictionary
280
     1
281
     1
  3
ACAD_XREC_ROUNDTRIP
360
19F6
  0
DICTIONARY
  5
1A05
330
19B7
100
AcDbDictionary
280
     1
281
     1
  3
ACAD_XREC_ROUNDTRIP
360
1A06
  0
DICTIONARY
  5
19FD
330
19B3
100
AcDbDictionary
280
     1
281
     1
  3
ACAD_XREC_ROUNDTRIP
360
19FE
  0
DICTIONARY
  5
19E1
330
19A5
100
AcDbDictionary
280
     1
281
     1
  3
ACAD_XREC_ROUNDTRIP
360
19E2
  0
DICTIONARY
  5
19E3
330
19A6
100
AcDbDictionary
280
     1
281
     1
  3
ACAD_XREC_ROUNDTRIP
360
19E4
  0
DICTIONARY
  5
19E5
330
19A7
100
AcDbDictionary
280
     1
281
     1
  3
ACAD_XREC_ROUNDTRIP
360
19E6
  0
DICTIONARY
  5
19E7
330
19A8
100
AcDbDictionary
280
     1
281
     1
  3
ACAD_XREC_ROUNDTRIP
360
19E8
  0
DICTIONARY
  5
19ED
330
19AB
100
AcDbDictionary
280
     1
281
     1
  3
ACAD_XREC_ROUNDTRIP
360
19EE
  0
DICTIONARY
  5
1A01
330
19B5
100
AcDbDictionary
280
     1
281
     1
  3
ACAD_XREC_ROUNDTRIP
360
1A02
  0
DICTIONARY
  5
19FB
330
19B2
100
AcDbDictionary
280
     1
281
     1
  3
ACAD_XREC_ROUNDTRIP
360
19FC
  0
DICTIONARY
  5
1A03
330
19B6
100
AcDbDictionary
280
     1
281
     1
  3
ACAD_XREC_ROUNDTRIP
360
1A04
  0
DICTIONARY
  5
19F1
330
19AD
100
AcDbDictionary
280
     1
281
     1
  3
ACAD_XREC_ROUNDTRIP
360
19F2
  0
DICTIONARY
  5
1A0F
330
19BC
100
AcDbDictionary
280
     1
281
     1
  3
ACAD_XREC_ROUNDTRIP
360
1A10
  0
DICTIONARY
  5
1A0D
330
19BB
100
AcDbDictionary
280
     1
281
     1
  3
ACAD_XREC_ROUNDTRIP
360
1A0E
  0
DICTIONARY
  5
1A07
330
19B8
100
AcDbDictionary
280
     1
281
     1
  3
ACAD_XREC_ROUNDTRIP
360
1A08
  0
DICTIONARY
  5
1A09
330
19B9
100
AcDbDictionary
280
     1
281
     1
  3
ACAD_XREC_ROUNDTRIP
360
1A0A
  0
DICTIONARY
  5
19F9
330
19B1
100
AcDbDictionary
280
     1
281
     1
  3
ACAD_XREC_ROUNDTRIP
360
19FA
  0
DICTIONARY
  5
19EB
330
19AA
100
AcDbDictionary
280
     1
281
     1
  3
ACAD_XREC_ROUNDTRIP
360
19EC
  0
DICTIONARY
  5
1A0B
330
19BA
100
AcDbDictionary
280
     1
281
     1
  3
ACAD_XREC_ROUNDTRIP
360
1A0C
  0
XRECORD
  5
1A14
102
{ACAD_REACTORS
330
1A13
102
}
330
1A13
100
AcDbXrecord
280
     1
102
MATERIAL
148
0.0
149
0.0
149
0.0
 93
        0
 94
      127
282
     0
 72
     1
 77
     1
171
     1
175
     1
179
     1
273
     0
  0
XRECORD
  5
1A12
102
{ACAD_REACTORS
330
1A11
102
}
330
1A11
100
AcDbXrecord
280
     1
102
MATERIAL
148
0.0
149
0.0
149
0.0
 93
        0
 94
      127
282
     0
 72
     1
 77
     1
171
     1
175
     1
179
     1
273
     0
  0
XRECORD
  5
1A16
102
{ACAD_REACTORS
330
1A15
102
}
330
1A15
100
AcDbXrecord
280
     1
102
MATERIAL
148
0.0
149
0.0
149
0.0
 93
        0
 94
      127
282
     0
 72
     1
 77
     1
171
     1
175
     1
179
     1
273
     0
  0
XRECORD
  5
1A19
102
{ACAD_REACTORS
330
1A18
102
}
330
1A18
100
AcDbXrecord
280
     1
102
ACAD_ROUNDTRIP_2010_MLEADER_STYLE
  0
XRECORD
  5
19EA
102
{ACAD_REACTORS
330
19E9
102
}
330
19E9
100
AcDbXrecord
280
     1
102
RTVSPropertyOp0
 70
     1
102
RTVSPropertyOp1
 70
     1
102
RTVSPropertyOp2
 70
     1
102
RTVSPropertyOp3
 70
     1
102
RTVSPropertyOp4
 70
     1
102
RTVSPropertyOp5
 70
     1
102
RTVSPropertyOp6
 70
     1
102
RTVSPropertyOp7
 70
     1
102
RTVSPropertyOp8
 70
     1
102
RTVSPropertyOp9
 70
     1
102
RTVSPropertyOp10
 70
     1
102
RTVSPropertyOp11
 70
     1
102
RTVSPropertyOp12
 70
     1
102
RTVSPropertyOp13
 70
     1
102
RTVSPropertyOp14
 70
     1
102
RTVSPropertyOp15
 70
     1
102
RTVSPropertyOp16
 70
     1
102
RTVSPropertyOp17
 70
     1
102
RTVSPropertyOp18
 70
     1
102
RTVSPropertyOp19
 70
     1
102
RTVSPropertyOp20
 70
     1
102
RTVSPropertyOp21
 70
     1
102
RTVSPropertyOp22
 70
     1
102
RTVSPropertyOp23
 70
     1
102
RTVSPropertyOp24
 70
     1
102
RTVSPropertyOp25
 70
     1
102
RTVSPropertyOp26
 70
     1
102
RTVSPropertyOp27
 70
     1
102
RTVSPropertyOp28
 70
     1
102
RTVSPropertyOp29
 70
     1
102
RTVSPropertyOp30
 70
     1
102
RTVSPropertyOp31
 70
     1
102
RTVSPropertyOp32
 70
     1
102
RTVSPropertyOp33
 70
     1
102
RTVSPropertyOp34
 70
     1
102
RTVSPropertyOp35
 70
     1
102
RTVSPropertyOp36
 70
     1
102
RTVSPropertyOp37
 70
     1
102
RTVSPropertyOp38
 70
     1
102
RTVSPropertyOp39
 70
     1
102
RTVSPropertyOp40
 70
     1
102
RTVSPropertyOp41
 70
     1
102
RTVSPropertyOp42
 70
     1
102
RTVSPropertyOp43
 70
     1
102
RTVSPropertyOp44
 70
     1
102
RTVSPropertyOp45
 70
     1
102
RTVSPropertyOp46
 70
     1
102
RTVSPropertyOp47
 70
     1
102
RTVSPropertyOp48
 70
     1
102
RTVSPropertyOp49
 70
     1
102
RTVSPropertyOp50
 70
     1
102
RTVSPropertyOp51
 70
     0
102
RTVSPropertyOp52
 70
     0
102
RTVSPropertyOp53
 70
     1
102
RTVSPropertyOp54
 70
     1
102
RTVSPropertyOp55
 70
     1
102
RTVSPropertyOp56
 70
     1
102
RTVSPropertyOp57
 70
     1
102
RTVSPost2010Prop28
280
     1
102
RTVSPost2010PropOp28
 70
     1
102
RTVSPost2010Prop29
280
     1
102
RTVSPost2010PropOp29
 70
     1
102
RTVSPost2010Prop30
280
     0
102
RTVSPost2010PropOp30
 70
     1
102
RTVSPost2010Prop31
280
     0
102
RTVSPost2010PropOp31
 70
     1
102
RTVSPost2010Prop32
280
     0
102
RTVSPost2010PropOp32
 70
     1
102
RTVSPost2010Prop33
280
     0
102
RTVSPost2010PropOp33
 70
     1
102
RTVSPost2010Prop34
280
     0
102
RTVSPost2010PropOp34
 70
     1
102
RTVSPost2010Prop35
280
     0
102
RTVSPost2010PropOp35
 70
     1
102
RTVSPost2010Prop36
280
     0
102
RTVSPost2010PropOp36
 70
     1
102
RTVSPost2010Prop37
 90
       50
102
RTVSPost2010PropOp37
 70
     1
102
RTVSPost2010Prop38
140
0.0
102
RTVSPost2010PropOp38
 70
     1
102
RTVSPost2010Prop39
140
1.0
102
RTVSPost2010PropOp39
 70
     1
102
RTVSPost2010Prop40
 90
        0
102
RTVSPost2010PropOp40
 70
     1
102
RTVSPost2010Prop41ColorIndex
 90
       18
102
RTVSPost2010Prop41ColorRGB
 90
        0
102
RTVSPost2010PropOp41
 70
     1
102
RTVSPost2010Prop42
 90
       50
102
RTVSPost2010PropOp42
 70
     1
102
RTVSPost2010Prop43
 90
        3
102
RTVSPost2010PropOp43
 70
     1
102
RTVSPost2010Prop44ColorIndex
 90
        5
102
RTVSPost2010Prop44ColorRGB
 90
      255
102
RTVSPost2010PropOp44
 70
     1
102
RTVSPost2010Prop45
280
     0
102
RTVSPost2010PropOp45
 70
     1
102
RTVSPost2010Prop46
 90
       50
102
RTVSPost2010PropOp46
 70
     1
102
RTVSPost2010Prop47
 90
       50
102
RTVSPost2010PropOp47
 70
     1
102
RTVSPost2010Prop48
 90
       50
102
RTVSPost2010PropOp48
 70
     1
102
RTVSPost2010Prop49
280
     0
102
RTVSPost2010PropOp49
 70
     1
102
RTVSPost2010Prop50
 90
       50
102
RTVSPost2010PropOp50
 70
     1
102
RTVSPost2010Prop51ColorIndex
 90
      256
102
RTVSPost2010Prop51ColorRGB
 90
-16777216
102
RTVSPost2010PropOp51
 70
     0
102
RTVSPost2010Prop52
140
1.0
102
RTVSPost2010PropOp52
 70
     0
102
RTVSPost2010Prop53
 90
        2
102
RTVSPost2010PropOp53
 70
     1
102
RTVSPost2010Prop54
  1
strokes_ogs.tif
102
RTVSPost2010PropOp54
 70
     1
102
RTVSPost2010Prop55
280
     0
102
RTVSPost2010PropOp55
 70
     1
102
RTVSPost2010Prop56
140
1.0
102
RTVSPost2010PropOp56
 70
     1
102
RTVSPost2010Prop57
140
1.0
102
RTVSPost2010PropOp57
 70
     1
  0
XRECORD
  5
19F0
102
{ACAD_REACTORS
330
19EF
102
}
330
19EF
100
AcDbXrecord
280
     1
102
RTVSPropertyOp0
 70
     1
102
RTVSPropertyOp1
 70
     1
102
RTVSPropertyOp2
 70
     1
102
RTVSPropertyOp3
 70
     1
102
RTVSPropertyOp4
 70
     1
102
RTVSPropertyOp5
 70
     1
102
RTVSPropertyOp6
 70
     1
102
RTVSPropertyOp7
 70
     1
102
RTVSPropertyOp8
 70
     1
102
RTVSPropertyOp9
 70
     1
102
RTVSPropertyOp10
 70
     1
102
RTVSPropertyOp11
 70
     1
102
RTVSPropertyOp12
 70
     1
102
RTVSPropertyOp13
 70
     1
102
RTVSPropertyOp14
 70
     1
102
RTVSPropertyOp15
 70
     1
102
RTVSPropertyOp16
 70
     1
102
RTVSPropertyOp17
 70
     1
102
RTVSPropertyOp18
 70
     1
102
RTVSPropertyOp19
 70
     1
102
RTVSPropertyOp20
 70
     1
102
RTVSPropertyOp21
 70
     1
102
RTVSPropertyOp22
 70
     1
102
RTVSPropertyOp23
 70
     1
102
RTVSPropertyOp24
 70
     1
102
RTVSPropertyOp25
 70
     1
102
RTVSPropertyOp26
 70
     1
102
RTVSPropertyOp27
 70
     1
102
RTVSPropertyOp28
 70
     1
102
RTVSPropertyOp29
 70
     1
102
RTVSPropertyOp30
 70
     1
102
RTVSPropertyOp31
 70
     1
102
RTVSPropertyOp32
 70
     1
102
RTVSPropertyOp33
 70
     1
102
RTVSPropertyOp34
 70
     1
102
RTVSPropertyOp35
 70
     1
102
RTVSPropertyOp36
 70
     1
102
RTVSPropertyOp37
 70
     1
102
RTVSPropertyOp38
 70
     1
102
RTVSPropertyOp39
 70
     1
102
RTVSPropertyOp40
 70
     1
102
RTVSPropertyOp41
 70
     1
102
RTVSPropertyOp42
 70
     1
102
RTVSPropertyOp43
 70
     1
102
RTVSPropertyOp44
 70
     1
102
RTVSPropertyOp45
 70
     1
102
RTVSPropertyOp46
 70
     1
102
RTVSPropertyOp47
 70
     1
102
RTVSPropertyOp48
 70
     1
102
RTVSPropertyOp49
 70
     1
102
RTVSPropertyOp50
 70
     1
102
RTVSPropertyOp51
 70
     0
102
RTVSPropertyOp52
 70
     0
102
RTVSPropertyOp53
 70
     1
102
RTVSPropertyOp54
 70
     1
102
RTVSPropertyOp55
 70
     1
102
RTVSPropertyOp56
 70
     1
102
RTVSPropertyOp57
 70
     1
102
RTVSPost2010Prop28
280
     0
102
RTVSPost2010PropOp28
 70
     1
102
RTVSPost2010Prop29
280
     1
102
RTVSPost2010PropOp29
 70
     1
102
RTVSPost2010Prop30
280
     1
102
RTVSPost2010PropOp30
 70
     1
102
RTVSPost2010Prop31
280
     0
102
RTVSPost2010PropOp31
 70
     1
102
RTVSPost2010Prop32
280
     0
102
RTVSPost2010PropOp32
 70
     1
102
RTVSPost2010Prop33
280
     0
102
RTVSPost2010PropOp33
 70
     1
102
RTVSPost2010Prop34
280
     0
102
RTVSPost2010PropOp34
 70
     1
102
RTVSPost2010Prop35
280
     0
102
RTVSPost2010PropOp35
 70
     1
102
RTVSPost2010Prop36
280
     0
102
RTVSPost2010PropOp36
 70
     1
102
RTVSPost2010Prop37
 90
       50
102
RTVSPost2010PropOp37
 70
     1
102
RTVSPost2010Prop38
140
0.0
102
RTVSPost2010PropOp38
 70
     1
102
RTVSPost2010Prop39
140
1.0
102
RTVSPost2010PropOp39
 70
     1
102
RTVSPost2010Prop40
 90
        0
102
RTVSPost2010PropOp40
 70
     1
102
RTVSPost2010Prop41ColorIndex
 90
       18
102
RTVSPost2010Prop41ColorRGB
 90
        0
102
RTVSPost2010PropOp41
 70
     1
102
RTVSPost2010Prop42
 90
       50
102
RTVSPost2010PropOp42
 70
     1
102
RTVSPost2010Prop43
 90
        3
102
RTVSPost2010PropOp43
 70
     1
102
RTVSPost2010Prop44ColorIndex
 90
        5
102
RTVSPost2010Prop44ColorRGB
 90
      255
102
RTVSPost2010PropOp44
 70
     1
102
RTVSPost2010Prop45
280
     0
102
RTVSPost2010PropOp45
 70
     1
102
RTVSPost2010Prop46
 90
       50
102
RTVSPost2010PropOp46
 70
     1
102
RTVSPost2010Prop47
 90
       50
102
RTVSPost2010PropOp47
 70
     1
102
RTVSPost2010Prop48
 90
       50
102
RTVSPost2010PropOp48
 70
     1
102
RTVSPost2010Prop49
280
     0
102
RTVSPost2010PropOp49
 70
     1
102
RTVSPost2010Prop50
 90
       50
102
RTVSPost2010PropOp50
 70
     1
102
RTVSPost2010Prop51ColorIndex
 90
      256
102
RTVSPost2010Prop51ColorRGB
 90
-16777216
102
RTVSPost2010PropOp51
 70
     0
102
RTVSPost2010Prop52
140
1.0
102
RTVSPost2010PropOp52
 70
     0
102
RTVSPost2010Prop53
 90
        2
102
RTVSPost2010PropOp53
 70
     1
102
RTVSPost2010Prop54
  1
strokes_ogs.tif
102
RTVSPost2010PropOp54
 70
     1
102
RTVSPost2010Prop55
280
     0
102
RTVSPost2010PropOp55
 70
     1
102
RTVSPost2010Prop56
140
1.0
102
RTVSPost2010PropOp56
 70
     1
102
RTVSPost2010Prop57
140
1.0
102
RTVSPost2010PropOp57
 70
     1
  0
XRECORD
  5
19F8
102
{ACAD_REACTORS
330
19F7
102
}
330
19F7
100
AcDbXrecord
280
     1
102
RTVSPropertyOp0
 70
     1
102
RTVSPropertyOp1
 70
     1
102
RTVSPropertyOp2
 70
     1
102
RTVSPropertyOp3
 70
     1
102
RTVSPropertyOp4
 70
     1
102
RTVSPropertyOp5
 70
     1
102
RTVSPropertyOp6
 70
     1
102
RTVSPropertyOp7
 70
     1
102
RTVSPropertyOp8
 70
     1
102
RTVSPropertyOp9
 70
     1
102
RTVSPropertyOp10
 70
     1
102
RTVSPropertyOp11
 70
     1
102
RTVSPropertyOp12
 70
     1
102
RTVSPropertyOp13
 70
     1
102
RTVSPropertyOp14
 70
     1
102
RTVSPropertyOp15
 70
     1
102
RTVSPropertyOp16
 70
     1
102
RTVSPropertyOp17
 70
     1
102
RTVSPropertyOp18
 70
     1
102
RTVSPropertyOp19
 70
     1
102
RTVSPropertyOp20
 70
     1
102
RTVSPropertyOp21
 70
     1
102
RTVSPropertyOp22
 70
     1
102
RTVSPropertyOp23
 70
     1
102
RTVSPropertyOp24
 70
     1
102
RTVSPropertyOp25
 70
     1
102
RTVSPropertyOp26
 70
     1
102
RTVSPropertyOp27
 70
     1
102
RTVSPropertyOp28
 70
     1
102
RTVSPropertyOp29
 70
     1
102
RTVSPropertyOp30
 70
     1
102
RTVSPropertyOp31
 70
     1
102
RTVSPropertyOp32
 70
     1
102
RTVSPropertyOp33
 70
     1
102
RTVSPropertyOp34
 70
     1
102
RTVSPropertyOp35
 70
     1
102
RTVSPropertyOp36
 70
     1
102
RTVSPropertyOp37
 70
     1
102
RTVSPropertyOp38
 70
     1
102
RTVSPropertyOp39
 70
     1
102
RTVSPropertyOp40
 70
     1
102
RTVSPropertyOp41
 70
     1
102
RTVSPropertyOp42
 70
     1
102
RTVSPropertyOp43
 70
     1
102
RTVSPropertyOp44
 70
     1
102
RTVSPropertyOp45
 70
     1
102
RTVSPropertyOp46
 70
     1
102
RTVSPropertyOp47
 70
     1
102
RTVSPropertyOp48
 70
     1
102
RTVSPropertyOp49
 70
     1
102
RTVSPropertyOp50
 70
     1
102
RTVSPropertyOp51
 70
     0
102
RTVSPropertyOp52
 70
     0
102
RTVSPropertyOp53
 70
     1
102
RTVSPropertyOp54
 70
     1
102
RTVSPropertyOp55
 70
     1
102
RTVSPropertyOp56
 70
     1
102
RTVSPropertyOp57
 70
     1
102
RTVSPost2010Prop28
280
     0
102
RTVSPost2010PropOp28
 70
     1
102
RTVSPost2010Prop29
280
     1
102
RTVSPost2010PropOp29
 70
     1
102
RTVSPost2010Prop30
280
     1
102
RTVSPost2010PropOp30
 70
     1
102
RTVSPost2010Prop31
280
     0
102
RTVSPost2010PropOp31
 70
     1
102
RTVSPost2010Prop32
280
     0
102
RTVSPost2010PropOp32
 70
     1
102
RTVSPost2010Prop33
280
     0
102
RTVSPost2010PropOp33
 70
     1
102
RTVSPost2010Prop34
280
     0
102
RTVSPost2010PropOp34
 70
     1
102
RTVSPost2010Prop35
280
     0
102
RTVSPost2010PropOp35
 70
     1
102
RTVSPost2010Prop36
280
     0
102
RTVSPost2010PropOp36
 70
     1
102
RTVSPost2010Prop37
 90
       50
102
RTVSPost2010PropOp37
 70
     1
102
RTVSPost2010Prop38
140
0.0
102
RTVSPost2010PropOp38
 70
     1
102
RTVSPost2010Prop39
140
1.0
102
RTVSPost2010PropOp39
 70
     1
102
RTVSPost2010Prop40
 90
        0
102
RTVSPost2010PropOp40
 70
     1
102
RTVSPost2010Prop41ColorIndex
 90
       18
102
RTVSPost2010Prop41ColorRGB
 90
        0
102
RTVSPost2010PropOp41
 70
     1
102
RTVSPost2010Prop42
 90
       50
102
RTVSPost2010PropOp42
 70
     1
102
RTVSPost2010Prop43
 90
        3
102
RTVSPost2010PropOp43
 70
     1
102
RTVSPost2010Prop44ColorIndex
 90
        5
102
RTVSPost2010Prop44ColorRGB
 90
      255
102
RTVSPost2010PropOp44
 70
     1
102
RTVSPost2010Prop45
280
     0
102
RTVSPost2010PropOp45
 70
     1
102
RTVSPost2010Prop46
 90
       50
102
RTVSPost2010PropOp46
 70
     1
102
RTVSPost2010Prop47
 90
       50
102
RTVSPost2010PropOp47
 70
     1
102
RTVSPost2010Prop48
 90
       50
102
RTVSPost2010PropOp48
 70
     1
102
RTVSPost2010Prop49
280
     0
102
RTVSPost2010PropOp49
 70
     1
102
RTVSPost2010Prop50
 90
       50
102
RTVSPost2010PropOp50
 70
     1
102
RTVSPost2010Prop51ColorIndex
 90
      256
102
RTVSPost2010Prop51ColorRGB
 90
-16777216
102
RTVSPost2010PropOp51
 70
     0
102
RTVSPost2010Prop52
140
1.0
102
RTVSPost2010PropOp52
 70
     0
102
RTVSPost2010Prop53
 90
        2
102
RTVSPost2010PropOp53
 70
     1
102
RTVSPost2010Prop54
  1
strokes_ogs.tif
102
RTVSPost2010PropOp54
 70
     1
102
RTVSPost2010Prop55
280
     0
102
RTVSPost2010PropOp55
 70
     1
102
RTVSPost2010Prop56
140
1.0
102
RTVSPost2010PropOp56
 70
     1
102
RTVSPost2010Prop57
140
1.0
102
RTVSPost2010PropOp57
 70
     1
  0
XRECORD
  5
1A00
102
{ACAD_REACTORS
330
19FF
102
}
330
19FF
100
AcDbXrecord
280
     1
102
RTVSPropertyOp0
 70
     1
102
RTVSPropertyOp1
 70
     1
102
RTVSPropertyOp2
 70
     1
102
RTVSPropertyOp3
 70
     1
102
RTVSPropertyOp4
 70
     1
102
RTVSPropertyOp5
 70
     1
102
RTVSPropertyOp6
 70
     1
102
RTVSPropertyOp7
 70
     1
102
RTVSPropertyOp8
 70
     1
102
RTVSPropertyOp9
 70
     1
102
RTVSPropertyOp10
 70
     1
102
RTVSPropertyOp11
 70
     1
102
RTVSPropertyOp12
 70
     1
102
RTVSPropertyOp13
 70
     1
102
RTVSPropertyOp14
 70
     1
102
RTVSPropertyOp15
 70
     1
102
RTVSPropertyOp16
 70
     1
102
RTVSPropertyOp17
 70
     1
102
RTVSPropertyOp18
 70
     1
102
RTVSPropertyOp19
 70
     1
102
RTVSPropertyOp20
 70
     1
102
RTVSPropertyOp21
 70
     1
102
RTVSPropertyOp22
 70
     1
102
RTVSPropertyOp23
 70
     1
102
RTVSPropertyOp24
 70
     1
102
RTVSPropertyOp25
 70
     1
102
RTVSPropertyOp26
 70
     1
102
RTVSPropertyOp27
 70
     1
102
RTVSPropertyOp28
 70
     1
102
RTVSPropertyOp29
 70
     1
102
RTVSPropertyOp30
 70
     1
102
RTVSPropertyOp31
 70
     1
102
RTVSPropertyOp32
 70
     1
102
RTVSPropertyOp33
 70
     1
102
RTVSPropertyOp34
 70
     1
102
RTVSPropertyOp35
 70
     1
102
RTVSPropertyOp36
 70
     1
102
RTVSPropertyOp37
 70
     1
102
RTVSPropertyOp38
 70
     1
102
RTVSPropertyOp39
 70
     1
102
RTVSPropertyOp40
 70
     1
102
RTVSPropertyOp41
 70
     1
102
RTVSPropertyOp42
 70
     1
102
RTVSPropertyOp43
 70
     1
102
RTVSPropertyOp44
 70
     1
102
RTVSPropertyOp45
 70
     1
102
RTVSPropertyOp46
 70
     1
102
RTVSPropertyOp47
 70
     1
102
RTVSPropertyOp48
 70
     1
102
RTVSPropertyOp49
 70
     1
102
RTVSPropertyOp50
 70
     1
102
RTVSPropertyOp51
 70
     0
102
RTVSPropertyOp52
 70
     0
102
RTVSPropertyOp53
 70
     1
102
RTVSPropertyOp54
 70
     1
102
RTVSPropertyOp55
 70
     1
102
RTVSPropertyOp56
 70
     1
102
RTVSPropertyOp57
 70
     1
102
RTVSPost2010Prop28
280
     0
102
RTVSPost2010PropOp28
 70
     1
102
RTVSPost2010Prop29
280
     1
102
RTVSPost2010PropOp29
 70
     1
102
RTVSPost2010Prop30
280
     1
102
RTVSPost2010PropOp30
 70
     1
102
RTVSPost2010Prop31
280
     0
102
RTVSPost2010PropOp31
 70
     1
102
RTVSPost2010Prop32
280
     0
102
RTVSPost2010PropOp32
 70
     1
102
RTVSPost2010Prop33
280
     0
102
RTVSPost2010PropOp33
 70
     1
102
RTVSPost2010Prop34
280
     0
102
RTVSPost2010PropOp34
 70
     1
102
RTVSPost2010Prop35
280
     0
102
RTVSPost2010PropOp35
 70
     1
102
RTVSPost2010Prop36
280
     0
102
RTVSPost2010PropOp36
 70
     1
102
RTVSPost2010Prop37
 90
       50
102
RTVSPost2010PropOp37
 70
     1
102
RTVSPost2010Prop38
140
0.0
102
RTVSPost2010PropOp38
 70
     1
102
RTVSPost2010Prop39
140
1.0
102
RTVSPost2010PropOp39
 70
     1
102
RTVSPost2010Prop40
 90
        0
102
RTVSPost2010PropOp40
 70
     1
102
RTVSPost2010Prop41ColorIndex
 90
       18
102
RTVSPost2010Prop41ColorRGB
 90
        0
102
RTVSPost2010PropOp41
 70
     1
102
RTVSPost2010Prop42
 90
       50
102
RTVSPost2010PropOp42
 70
     1
102
RTVSPost2010Prop43
 90
        3
102
RTVSPost2010PropOp43
 70
     1
102
RTVSPost2010Prop44ColorIndex
 90
        5
102
RTVSPost2010Prop44ColorRGB
 90
      255
102
RTVSPost2010PropOp44
 70
     1
102
RTVSPost2010Prop45
280
     0
102
RTVSPost2010PropOp45
 70
     1
102
RTVSPost2010Prop46
 90
       50
102
RTVSPost2010PropOp46
 70
     1
102
RTVSPost2010Prop47
 90
       50
102
RTVSPost2010PropOp47
 70
     1
102
RTVSPost2010Prop48
 90
       50
102
RTVSPost2010PropOp48
 70
     1
102
RTVSPost2010Prop49
280
     0
102
RTVSPost2010PropOp49
 70
     1
102
RTVSPost2010Prop50
 90
       50
102
RTVSPost2010PropOp50
 70
     1
102
RTVSPost2010Prop51ColorIndex
 90
      256
102
RTVSPost2010Prop51ColorRGB
 90
-16777216
102
RTVSPost2010PropOp51
 70
     0
102
RTVSPost2010Prop52
140
1.0
102
RTVSPost2010PropOp52
 70
     0
102
RTVSPost2010Prop53
 90
        2
102
RTVSPost2010PropOp53
 70
     1
102
RTVSPost2010Prop54
  1
strokes_ogs.tif
102
RTVSPost2010PropOp54
 70
     1
102
RTVSPost2010Prop55
280
     0
102
RTVSPost2010PropOp55
 70
     1
102
RTVSPost2010Prop56
140
1.0
102
RTVSPost2010PropOp56
 70
     1
102
RTVSPost2010Prop57
140
1.0
102
RTVSPost2010PropOp57
 70
     1
  0
XRECORD
  5
19F4
102
{ACAD_REACTORS
330
19F3
102
}
330
19F3
100
AcDbXrecord
280
     1
102
RTVSPropertyOp0
 70
     1
102
RTVSPropertyOp1
 70
     1
102
RTVSPropertyOp2
 70
     1
102
RTVSPropertyOp3
 70
     1
102
RTVSPropertyOp4
 70
     1
102
RTVSPropertyOp5
 70
     1
102
RTVSPropertyOp6
 70
     1
102
RTVSPropertyOp7
 70
     1
102
RTVSPropertyOp8
 70
     1
102
RTVSPropertyOp9
 70
     1
102
RTVSPropertyOp10
 70
     1
102
RTVSPropertyOp11
 70
     1
102
RTVSPropertyOp12
 70
     1
102
RTVSPropertyOp13
 70
     1
102
RTVSPropertyOp14
 70
     1
102
RTVSPropertyOp15
 70
     1
102
RTVSPropertyOp16
 70
     1
102
RTVSPropertyOp17
 70
     1
102
RTVSPropertyOp18
 70
     1
102
RTVSPropertyOp19
 70
     1
102
RTVSPropertyOp20
 70
     1
102
RTVSPropertyOp21
 70
     1
102
RTVSPropertyOp22
 70
     1
102
RTVSPropertyOp23
 70
     1
102
RTVSPropertyOp24
 70
     1
102
RTVSPropertyOp25
 70
     1
102
RTVSPropertyOp26
 70
     1
102
RTVSPropertyOp27
 70
     1
102
RTVSPropertyOp28
 70
     1
102
RTVSPropertyOp29
 70
     1
102
RTVSPropertyOp30
 70
     1
102
RTVSPropertyOp31
 70
     1
102
RTVSPropertyOp32
 70
     1
102
RTVSPropertyOp33
 70
     1
102
RTVSPropertyOp34
 70
     1
102
RTVSPropertyOp35
 70
     1
102
RTVSPropertyOp36
 70
     1
102
RTVSPropertyOp37
 70
     1
102
RTVSPropertyOp38
 70
     1
102
RTVSPropertyOp39
 70
     1
102
RTVSPropertyOp40
 70
     1
102
RTVSPropertyOp41
 70
     1
102
RTVSPropertyOp42
 70
     1
102
RTVSPropertyOp43
 70
     1
102
RTVSPropertyOp44
 70
     1
102
RTVSPropertyOp45
 70
     1
102
RTVSPropertyOp46
 70
     1
102
RTVSPropertyOp47
 70
     1
102
RTVSPropertyOp48
 70
     1
102
RTVSPropertyOp49
 70
     1
102
RTVSPropertyOp50
 70
     1
102
RTVSPropertyOp51
 70
     0
102
RTVSPropertyOp52
 70
     0
102
RTVSPropertyOp53
 70
     1
102
RTVSPropertyOp54
 70
     1
102
RTVSPropertyOp55
 70
     1
102
RTVSPropertyOp56
 70
     1
102
RTVSPropertyOp57
 70
     1
102
RTVSPost2010Prop28
280
     0
102
RTVSPost2010PropOp28
 70
     1
102
RTVSPost2010Prop29
280
     1
102
RTVSPost2010PropOp29
 70
     1
102
RTVSPost2010Prop30
280
     1
102
RTVSPost2010PropOp30
 70
     1
102
RTVSPost2010Prop31
280
     0
102
RTVSPost2010PropOp31
 70
     1
102
RTVSPost2010Prop32
280
     0
102
RTVSPost2010PropOp32
 70
     1
102
RTVSPost2010Prop33
280
     0
102
RTVSPost2010PropOp33
 70
     1
102
RTVSPost2010Prop34
280
     0
102
RTVSPost2010PropOp34
 70
     1
102
RTVSPost2010Prop35
280
     0
102
RTVSPost2010PropOp35
 70
     1
102
RTVSPost2010Prop36
280
     0
102
RTVSPost2010PropOp36
 70
     1
102
RTVSPost2010Prop37
 90
       50
102
RTVSPost2010PropOp37
 70
     1
102
RTVSPost2010Prop38
140
0.0
102
RTVSPost2010PropOp38
 70
     1
102
RTVSPost2010Prop39
140
1.0
102
RTVSPost2010PropOp39
 70
     1
102
RTVSPost2010Prop40
 90
        0
102
RTVSPost2010PropOp40
 70
     1
102
RTVSPost2010Prop41ColorIndex
 90
       18
102
RTVSPost2010Prop41ColorRGB
 90
        0
102
RTVSPost2010PropOp41
 70
     1
102
RTVSPost2010Prop42
 90
       50
102
RTVSPost2010PropOp42
 70
     1
102
RTVSPost2010Prop43
 90
        3
102
RTVSPost2010PropOp43
 70
     1
102
RTVSPost2010Prop44ColorIndex
 90
        5
102
RTVSPost2010Prop44ColorRGB
 90
      255
102
RTVSPost2010PropOp44
 70
     1
102
RTVSPost2010Prop45
280
     0
102
RTVSPost2010PropOp45
 70
     1
102
RTVSPost2010Prop46
 90
       50
102
RTVSPost2010PropOp46
 70
     1
102
RTVSPost2010Prop47
 90
       50
102
RTVSPost2010PropOp47
 70
     1
102
RTVSPost2010Prop48
 90
       50
102
RTVSPost2010PropOp48
 70
     1
102
RTVSPost2010Prop49
280
     0
102
RTVSPost2010PropOp49
 70
     1
102
RTVSPost2010Prop50
 90
       50
102
RTVSPost2010PropOp50
 70
     1
102
RTVSPost2010Prop51ColorIndex
 90
      256
102
RTVSPost2010Prop51ColorRGB
 90
-16777216
102
RTVSPost2010PropOp51
 70
     0
102
RTVSPost2010Prop52
140
1.0
102
RTVSPost2010PropOp52
 70
     0
102
RTVSPost2010Prop53
 90
        2
102
RTVSPost2010PropOp53
 70
     1
102
RTVSPost2010Prop54
  1
strokes_ogs.tif
102
RTVSPost2010PropOp54
 70
     1
102
RTVSPost2010Prop55
280
     0
102
RTVSPost2010PropOp55
 70
     1
102
RTVSPost2010Prop56
140
1.0
102
RTVSPost2010PropOp56
 70
     1
102
RTVSPost2010Prop57
140
1.0
102
RTVSPost2010PropOp57
 70
     1
  0
XRECORD
  5
19F6
102
{ACAD_REACTORS
330
19F5
102
}
330
19F5
100
AcDbXrecord
280
     1
102
RTVSPropertyOp0
 70
     1
102
RTVSPropertyOp1
 70
     1
102
RTVSPropertyOp2
 70
     1
102
RTVSPropertyOp3
 70
     1
102
RTVSPropertyOp4
 70
     1
102
RTVSPropertyOp5
 70
     1
102
RTVSPropertyOp6
 70
     1
102
RTVSPropertyOp7
 70
     1
102
RTVSPropertyOp8
 70
     1
102
RTVSPropertyOp9
 70
     1
102
RTVSPropertyOp10
 70
     1
102
RTVSPropertyOp11
 70
     1
102
RTVSPropertyOp12
 70
     1
102
RTVSPropertyOp13
 70
     1
102
RTVSPropertyOp14
 70
     1
102
RTVSPropertyOp15
 70
     1
102
RTVSPropertyOp16
 70
     1
102
RTVSPropertyOp17
 70
     1
102
RTVSPropertyOp18
 70
     1
102
RTVSPropertyOp19
 70
     1
102
RTVSPropertyOp20
 70
     1
102
RTVSPropertyOp21
 70
     1
102
RTVSPropertyOp22
 70
     1
102
RTVSPropertyOp23
 70
     1
102
RTVSPropertyOp24
 70
     1
102
RTVSPropertyOp25
 70
     1
102
RTVSPropertyOp26
 70
     1
102
RTVSPropertyOp27
 70
     1
102
RTVSPropertyOp28
 70
     1
102
RTVSPropertyOp29
 70
     1
102
RTVSPropertyOp30
 70
     1
102
RTVSPropertyOp31
 70
     1
102
RTVSPropertyOp32
 70
     1
102
RTVSPropertyOp33
 70
     1
102
RTVSPropertyOp34
 70
     1
102
RTVSPropertyOp35
 70
     1
102
RTVSPropertyOp36
 70
     1
102
RTVSPropertyOp37
 70
     1
102
RTVSPropertyOp38
 70
     1
102
RTVSPropertyOp39
 70
     1
102
RTVSPropertyOp40
 70
     1
102
RTVSPropertyOp41
 70
     1
102
RTVSPropertyOp42
 70
     1
102
RTVSPropertyOp43
 70
     1
102
RTVSPropertyOp44
 70
     1
102
RTVSPropertyOp45
 70
     1
102
RTVSPropertyOp46
 70
     1
102
RTVSPropertyOp47
 70
     1
102
RTVSPropertyOp48
 70
     1
102
RTVSPropertyOp49
 70
     1
102
RTVSPropertyOp50
 70
     1
102
RTVSPropertyOp51
 70
     0
102
RTVSPropertyOp52
 70
     0
102
RTVSPropertyOp53
 70
     1
102
RTVSPropertyOp54
 70
     1
102
RTVSPropertyOp55
 70
     1
102
RTVSPropertyOp56
 70
     1
102
RTVSPropertyOp57
 70
     1
102
RTVSPost2010Prop28
280
     0
102
RTVSPost2010PropOp28
 70
     1
102
RTVSPost2010Prop29
280
     1
102
RTVSPost2010PropOp29
 70
     1
102
RTVSPost2010Prop30
280
     1
102
RTVSPost2010PropOp30
 70
     1
102
RTVSPost2010Prop31
280
     0
102
RTVSPost2010PropOp31
 70
     1
102
RTVSPost2010Prop32
280
     0
102
RTVSPost2010PropOp32
 70
     1
102
RTVSPost2010Prop33
280
     0
102
RTVSPost2010PropOp33
 70
     1
102
RTVSPost2010Prop34
280
     0
102
RTVSPost2010PropOp34
 70
     1
102
RTVSPost2010Prop35
280
     0
102
RTVSPost2010PropOp35
 70
     1
102
RTVSPost2010Prop36
280
     0
102
RTVSPost2010PropOp36
 70
     1
102
RTVSPost2010Prop37
 90
       50
102
RTVSPost2010PropOp37
 70
     1
102
RTVSPost2010Prop38
140
0.0
102
RTVSPost2010PropOp38
 70
     1
102
RTVSPost2010Prop39
140
1.0
102
RTVSPost2010PropOp39
 70
     1
102
RTVSPost2010Prop40
 90
        0
102
RTVSPost2010PropOp40
 70
     1
102
RTVSPost2010Prop41ColorIndex
 90
       18
102
RTVSPost2010Prop41ColorRGB
 90
        0
102
RTVSPost2010PropOp41
 70
     1
102
RTVSPost2010Prop42
 90
       50
102
RTVSPost2010PropOp42
 70
     1
102
RTVSPost2010Prop43
 90
        3
102
RTVSPost2010PropOp43
 70
     1
102
RTVSPost2010Prop44ColorIndex
 90
        5
102
RTVSPost2010Prop44ColorRGB
 90
      255
102
RTVSPost2010PropOp44
 70
     1
102
RTVSPost2010Prop45
280
     0
102
RTVSPost2010PropOp45
 70
     1
102
RTVSPost2010Prop46
 90
       50
102
RTVSPost2010PropOp46
 70
     1
102
RTVSPost2010Prop47
 90
       50
102
RTVSPost2010PropOp47
 70
     1
102
RTVSPost2010Prop48
 90
       50
102
RTVSPost2010PropOp48
 70
     1
102
RTVSPost2010Prop49
280
     0
102
RTVSPost2010PropOp49
 70
     1
102
RTVSPost2010Prop50
 90
       50
102
RTVSPost2010PropOp50
 70
     1
102
RTVSPost2010Prop51ColorIndex
 90
      256
102
RTVSPost2010Prop51ColorRGB
 90
-16777216
102
RTVSPost2010PropOp51
 70
     0
102
RTVSPost2010Prop52
140
1.0
102
RTVSPost2010PropOp52
 70
     0
102
RTVSPost2010Prop53
 90
        2
102
RTVSPost2010PropOp53
 70
     1
102
RTVSPost2010Prop54
  1
strokes_ogs.tif
102
RTVSPost2010PropOp54
 70
     1
102
RTVSPost2010Prop55
280
     0
102
RTVSPost2010PropOp55
 70
     1
102
RTVSPost2010Prop56
140
1.0
102
RTVSPost2010PropOp56
 70
     1
102
RTVSPost2010Prop57
140
1.0
102
RTVSPost2010PropOp57
 70
     1
  0
XRECORD
  5
1A06
102
{ACAD_REACTORS
330
1A05
102
}
330
1A05
100
AcDbXrecord
280
     1
102
RTVSPropertyOp0
 70
     0
102
RTVSPropertyOp1
 70
     0
102
RTVSPropertyOp2
 70
     0
102
RTVSPropertyOp3
 70
     0
102
RTVSPropertyOp4
 70
     0
102
RTVSPropertyOp5
 70
     0
102
RTVSPropertyOp6
 70
     0
102
RTVSPropertyOp7
 70
     0
102
RTVSPropertyOp8
 70
     0
102
RTVSPropertyOp9
 70
     0
102
RTVSPropertyOp10
 70
     0
102
RTVSPropertyOp11
 70
     0
102
RTVSPropertyOp12
 70
     0
102
RTVSPropertyOp13
 70
     0
102
RTVSPropertyOp14
 70
     2
102
RTVSPropertyOp15
 70
     0
102
RTVSPropertyOp16
 70
     0
102
RTVSPropertyOp17
 70
     0
102
RTVSPropertyOp18
 70
     0
102
RTVSPropertyOp19
 70
     0
102
RTVSPropertyOp20
 70
     0
102
RTVSPropertyOp21
 70
     0
102
RTVSPropertyOp22
 70
     0
102
RTVSPropertyOp23
 70
     0
102
RTVSPropertyOp24
 70
     0
102
RTVSPropertyOp25
 70
     0
102
RTVSPropertyOp26
 70
     0
102
RTVSPropertyOp27
 70
     0
102
RTVSPropertyOp28
 70
     0
102
RTVSPropertyOp29
 70
     0
102
RTVSPropertyOp30
 70
     0
102
RTVSPropertyOp31
 70
     0
102
RTVSPropertyOp32
 70
     0
102
RTVSPropertyOp33
 70
     0
102
RTVSPropertyOp34
 70
     0
102
RTVSPropertyOp35
 70
     0
102
RTVSPropertyOp36
 70
     0
102
RTVSPropertyOp37
 70
     0
102
RTVSPropertyOp38
 70
     0
102
RTVSPropertyOp39
 70
     0
102
RTVSPropertyOp40
 70
     0
102
RTVSPropertyOp41
 70
     0
102
RTVSPropertyOp42
 70
     0
102
RTVSPropertyOp43
 70
     0
102
RTVSPropertyOp44
 70
     0
102
RTVSPropertyOp45
 70
     0
102
RTVSPropertyOp46
 70
     0
102
RTVSPropertyOp47
 70
     0
102
RTVSPropertyOp48
 70
     0
102
RTVSPropertyOp49
 70
     0
102
RTVSPropertyOp50
 70
     0
102
RTVSPropertyOp51
 70
     0
102
RTVSPropertyOp52
 70
     0
102
RTVSPropertyOp53
 70
     0
102
RTVSPropertyOp54
 70
     0
102
RTVSPropertyOp55
 70
     0
102
RTVSPropertyOp56
 70
     0
102
RTVSPropertyOp57
 70
     0
102
RTVSPost2010Prop28
280
     0
102
RTVSPost2010PropOp28
 70
     0
102
RTVSPost2010Prop29
280
     1
102
RTVSPost2010PropOp29
 70
     0
102
RTVSPost2010Prop30
280
     1
102
RTVSPost2010PropOp30
 70
     0
102
RTVSPost2010Prop31
280
     0
102
RTVSPost2010PropOp31
 70
     0
102
RTVSPost2010Prop32
280
     0
102
RTVSPost2010PropOp32
 70
     0
102
RTVSPost2010Prop33
280
     0
102
RTVSPost2010PropOp33
 70
     0
102
RTVSPost2010Prop34
280
     0
102
RTVSPost2010PropOp34
 70
     0
102
RTVSPost2010Prop35
280
     0
102
RTVSPost2010PropOp35
 70
     0
102
RTVSPost2010Prop36
280
     0
102
RTVSPost2010PropOp36
 70
     0
102
RTVSPost2010Prop37
 90
       50
102
RTVSPost2010PropOp37
 70
     0
102
RTVSPost2010Prop38
140
0.0
102
RTVSPost2010PropOp38
 70
     0
102
RTVSPost2010Prop39
140
1.0
102
RTVSPost2010PropOp39
 70
     0
102
RTVSPost2010Prop40
 90
        0
102
RTVSPost2010PropOp40
 70
     0
102
RTVSPost2010Prop41ColorIndex
 90
       18
102
RTVSPost2010Prop41ColorRGB
 90
        0
102
RTVSPost2010PropOp41
 70
     0
102
RTVSPost2010Prop42
 90
       50
102
RTVSPost2010PropOp42
 70
     0
102
RTVSPost2010Prop43
 90
        3
102
RTVSPost2010PropOp43
 70
     0
102
RTVSPost2010Prop44ColorIndex
 90
        5
102
RTVSPost2010Prop44ColorRGB
 90
      255
102
RTVSPost2010PropOp44
 70
     0
102
RTVSPost2010Prop45
280
     0
102
RTVSPost2010PropOp45
 70
     0
102
RTVSPost2010Prop46
 90
       50
102
RTVSPost2010PropOp46
 70
     0
102
RTVSPost2010Prop47
 90
       50
102
RTVSPost2010PropOp47
 70
     0
102
RTVSPost2010Prop48
 90
       50
102
RTVSPost2010PropOp48
 70
     0
102
RTVSPost2010Prop49
280
     0
102
RTVSPost2010PropOp49
 70
     0
102
RTVSPost2010Prop50
 90
       50
102
RTVSPost2010PropOp50
 70
     0
102
RTVSPost2010Prop51ColorIndex
 90
      256
102
RTVSPost2010Prop51ColorRGB
 90
-16777216
102
RTVSPost2010PropOp51
 70
     0
102
RTVSPost2010Prop52
140
1.0
102
RTVSPost2010PropOp52
 70
     0
102
RTVSPost2010Prop53
 90
        2
102
RTVSPost2010PropOp53
 70
     0
102
RTVSPost2010Prop54
  1
strokes_ogs.tif
102
RTVSPost2010PropOp54
 70
     0
102
RTVSPost2010Prop55
280
     0
102
RTVSPost2010PropOp55
 70
     0
102
RTVSPost2010Prop56
140
1.0
102
RTVSPost2010PropOp56
 70
     0
102
RTVSPost2010Prop57
140
1.0
102
RTVSPost2010PropOp57
 70
     0
  0
XRECORD
  5
19FE
102
{ACAD_REACTORS
330
19FD
102
}
330
19FD
100
AcDbXrecord
280
     1
102
RTVSPropertyOp0
 70
     1
102
RTVSPropertyOp1
 70
     1
102
RTVSPropertyOp2
 70
     1
102
RTVSPropertyOp3
 70
     1
102
RTVSPropertyOp4
 70
     1
102
RTVSPropertyOp5
 70
     1
102
RTVSPropertyOp6
 70
     1
102
RTVSPropertyOp7
 70
     1
102
RTVSPropertyOp8
 70
     1
102
RTVSPropertyOp9
 70
     1
102
RTVSPropertyOp10
 70
     1
102
RTVSPropertyOp11
 70
     1
102
RTVSPropertyOp12
 70
     1
102
RTVSPropertyOp13
 70
     1
102
RTVSPropertyOp14
 70
     1
102
RTVSPropertyOp15
 70
     1
102
RTVSPropertyOp16
 70
     1
102
RTVSPropertyOp17
 70
     1
102
RTVSPropertyOp18
 70
     1
102
RTVSPropertyOp19
 70
     1
102
RTVSPropertyOp20
 70
     1
102
RTVSPropertyOp21
 70
     1
102
RTVSPropertyOp22
 70
     1
102
RTVSPropertyOp23
 70
     1
102
RTVSPropertyOp24
 70
     1
102
RTVSPropertyOp25
 70
     1
102
RTVSPropertyOp26
 70
     1
102
RTVSPropertyOp27
 70
     1
102
RTVSPropertyOp28
 70
     1
102
RTVSPropertyOp29
 70
     1
102
RTVSPropertyOp30
 70
     1
102
RTVSPropertyOp31
 70
     1
102
RTVSPropertyOp32
 70
     1
102
RTVSPropertyOp33
 70
     1
102
RTVSPropertyOp34
 70
     1
102
RTVSPropertyOp35
 70
     1
102
RTVSPropertyOp36
 70
     1
102
RTVSPropertyOp37
 70
     1
102
RTVSPropertyOp38
 70
     1
102
RTVSPropertyOp39
 70
     1
102
RTVSPropertyOp40
 70
     1
102
RTVSPropertyOp41
 70
     1
102
RTVSPropertyOp42
 70
     1
102
RTVSPropertyOp43
 70
     1
102
RTVSPropertyOp44
 70
     1
102
RTVSPropertyOp45
 70
     1
102
RTVSPropertyOp46
 70
     1
102
RTVSPropertyOp47
 70
     1
102
RTVSPropertyOp48
 70
     1
102
RTVSPropertyOp49
 70
     1
102
RTVSPropertyOp50
 70
     1
102
RTVSPropertyOp51
 70
     0
102
RTVSPropertyOp52
 70
     0
102
RTVSPropertyOp53
 70
     1
102
RTVSPropertyOp54
 70
     1
102
RTVSPropertyOp55
 70
     1
102
RTVSPropertyOp56
 70
     1
102
RTVSPropertyOp57
 70
     1
102
RTVSPost2010Prop28
280
     0
102
RTVSPost2010PropOp28
 70
     1
102
RTVSPost2010Prop29
280
     1
102
RTVSPost2010PropOp29
 70
     1
102
RTVSPost2010Prop30
280
     1
102
RTVSPost2010PropOp30
 70
     1
102
RTVSPost2010Prop31
280
     0
102
RTVSPost2010PropOp31
 70
     1
102
RTVSPost2010Prop32
280
     0
102
RTVSPost2010PropOp32
 70
     1
102
RTVSPost2010Prop33
280
     0
102
RTVSPost2010PropOp33
 70
     1
102
RTVSPost2010Prop34
280
     0
102
RTVSPost2010PropOp34
 70
     1
102
RTVSPost2010Prop35
280
     0
102
RTVSPost2010PropOp35
 70
     1
102
RTVSPost2010Prop36
280
     0
102
RTVSPost2010PropOp36
 70
     1
102
RTVSPost2010Prop37
 90
       50
102
RTVSPost2010PropOp37
 70
     1
102
RTVSPost2010Prop38
140
0.0
102
RTVSPost2010PropOp38
 70
     1
102
RTVSPost2010Prop39
140
1.0
102
RTVSPost2010PropOp39
 70
     1
102
RTVSPost2010Prop40
 90
        0
102
RTVSPost2010PropOp40
 70
     1
102
RTVSPost2010Prop41ColorIndex
 90
       18
102
RTVSPost2010Prop41ColorRGB
 90
        0
102
RTVSPost2010PropOp41
 70
     1
102
RTVSPost2010Prop42
 90
       50
102
RTVSPost2010PropOp42
 70
     1
102
RTVSPost2010Prop43
 90
        3
102
RTVSPost2010PropOp43
 70
     1
102
RTVSPost2010Prop44ColorIndex
 90
        5
102
RTVSPost2010Prop44ColorRGB
 90
      255
102
RTVSPost2010PropOp44
 70
     1
102
RTVSPost2010Prop45
280
     0
102
RTVSPost2010PropOp45
 70
     1
102
RTVSPost2010Prop46
 90
       50
102
RTVSPost2010PropOp46
 70
     1
102
RTVSPost2010Prop47
 90
       50
102
RTVSPost2010PropOp47
 70
     1
102
RTVSPost2010Prop48
 90
       50
102
RTVSPost2010PropOp48
 70
     1
102
RTVSPost2010Prop49
280
     0
102
RTVSPost2010PropOp49
 70
     1
102
RTVSPost2010Prop50
 90
       50
102
RTVSPost2010PropOp50
 70
     1
102
RTVSPost2010Prop51ColorIndex
 90
      256
102
RTVSPost2010Prop51ColorRGB
 90
-16777216
102
RTVSPost2010PropOp51
 70
     0
102
RTVSPost2010Prop52
140
1.0
102
RTVSPost2010PropOp52
 70
     0
102
RTVSPost2010Prop53
 90
        2
102
RTVSPost2010PropOp53
 70
     1
102
RTVSPost2010Prop54
  1
strokes_ogs.tif
102
RTVSPost2010PropOp54
 70
     1
102
RTVSPost2010Prop55
280
     0
102
RTVSPost2010PropOp55
 70
     1
102
RTVSPost2010Prop56
140
1.0
102
RTVSPost2010PropOp56
 70
     1
102
RTVSPost2010Prop57
140
1.0
102
RTVSPost2010PropOp57
 70
     1
  0
XRECORD
  5
19E2
102
{ACAD_REACTORS
330
19E1
102
}
330
19E1
100
AcDbXrecord
280
     1
102
RTVSPropertyOp0
 70
     1
102
RTVSPropertyOp1
 70
     1
102
RTVSPropertyOp2
 70
     1
102
RTVSPropertyOp3
 70
     1
102
RTVSPropertyOp4
 70
     1
102
RTVSPropertyOp5
 70
     1
102
RTVSPropertyOp6
 70
     1
102
RTVSPropertyOp7
 70
     1
102
RTVSPropertyOp8
 70
     1
102
RTVSPropertyOp9
 70
     1
102
RTVSPropertyOp10
 70
     1
102
RTVSPropertyOp11
 70
     1
102
RTVSPropertyOp12
 70
     1
102
RTVSPropertyOp13
 70
     1
102
RTVSPropertyOp14
 70
     1
102
RTVSPropertyOp15
 70
     1
102
RTVSPropertyOp16
 70
     1
102
RTVSPropertyOp17
 70
     1
102
RTVSPropertyOp18
 70
     1
102
RTVSPropertyOp19
 70
     1
102
RTVSPropertyOp20
 70
     1
102
RTVSPropertyOp21
 70
     1
102
RTVSPropertyOp22
 70
     1
102
RTVSPropertyOp23
 70
     1
102
RTVSPropertyOp24
 70
     1
102
RTVSPropertyOp25
 70
     1
102
RTVSPropertyOp26
 70
     1
102
RTVSPropertyOp27
 70
     1
102
RTVSPropertyOp28
 70
     1
102
RTVSPropertyOp29
 70
     1
102
RTVSPropertyOp30
 70
     1
102
RTVSPropertyOp31
 70
     1
102
RTVSPropertyOp32
 70
     1
102
RTVSPropertyOp33
 70
     1
102
RTVSPropertyOp34
 70
     1
102
RTVSPropertyOp35
 70
     1
102
RTVSPropertyOp36
 70
     1
102
RTVSPropertyOp37
 70
     1
102
RTVSPropertyOp38
 70
     1
102
RTVSPropertyOp39
 70
     1
102
RTVSPropertyOp40
 70
     1
102
RTVSPropertyOp41
 70
     1
102
RTVSPropertyOp42
 70
     1
102
RTVSPropertyOp43
 70
     1
102
RTVSPropertyOp44
 70
     1
102
RTVSPropertyOp45
 70
     1
102
RTVSPropertyOp46
 70
     1
102
RTVSPropertyOp47
 70
     1
102
RTVSPropertyOp48
 70
     1
102
RTVSPropertyOp49
 70
     1
102
RTVSPropertyOp50
 70
     1
102
RTVSPropertyOp51
 70
     0
102
RTVSPropertyOp52
 70
     0
102
RTVSPropertyOp53
 70
     1
102
RTVSPropertyOp54
 70
     1
102
RTVSPropertyOp55
 70
     1
102
RTVSPropertyOp56
 70
     1
102
RTVSPropertyOp57
 70
     1
102
RTVSPost2010Prop28
280
     0
102
RTVSPost2010PropOp28
 70
     1
102
RTVSPost2010Prop29
280
     1
102
RTVSPost2010PropOp29
 70
     1
102
RTVSPost2010Prop30
280
     1
102
RTVSPost2010PropOp30
 70
     1
102
RTVSPost2010Prop31
280
     0
102
RTVSPost2010PropOp31
 70
     1
102
RTVSPost2010Prop32
280
     0
102
RTVSPost2010PropOp32
 70
     1
102
RTVSPost2010Prop33
280
     0
102
RTVSPost2010PropOp33
 70
     1
102
RTVSPost2010Prop34
280
     0
102
RTVSPost2010PropOp34
 70
     1
102
RTVSPost2010Prop35
280
     0
102
RTVSPost2010PropOp35
 70
     1
102
RTVSPost2010Prop36
280
     0
102
RTVSPost2010PropOp36
 70
     1
102
RTVSPost2010Prop37
 90
       50
102
RTVSPost2010PropOp37
 70
     1
102
RTVSPost2010Prop38
140
0.0
102
RTVSPost2010PropOp38
 70
     1
102
RTVSPost2010Prop39
140
1.0
102
RTVSPost2010PropOp39
 70
     1
102
RTVSPost2010Prop40
 90
        0
102
RTVSPost2010PropOp40
 70
     1
102
RTVSPost2010Prop41ColorIndex
 90
       18
102
RTVSPost2010Prop41ColorRGB
 90
        0
102
RTVSPost2010PropOp41
 70
     1
102
RTVSPost2010Prop42
 90
       50
102
RTVSPost2010PropOp42
 70
     1
102
RTVSPost2010Prop43
 90
        3
102
RTVSPost2010PropOp43
 70
     1
102
RTVSPost2010Prop44ColorIndex
 90
        5
102
RTVSPost2010Prop44ColorRGB
 90
      255
102
RTVSPost2010PropOp44
 70
     1
102
RTVSPost2010Prop45
280
     0
102
RTVSPost2010PropOp45
 70
     1
102
RTVSPost2010Prop46
 90
       50
102
RTVSPost2010PropOp46
 70
     1
102
RTVSPost2010Prop47
 90
       50
102
RTVSPost2010PropOp47
 70
     1
102
RTVSPost2010Prop48
 90
       50
102
RTVSPost2010PropOp48
 70
     1
102
RTVSPost2010Prop49
280
     0
102
RTVSPost2010PropOp49
 70
     1
102
RTVSPost2010Prop50
 90
       50
102
RTVSPost2010PropOp50
 70
     1
102
RTVSPost2010Prop51ColorIndex
 90
      256
102
RTVSPost2010Prop51ColorRGB
 90
-16777216
102
RTVSPost2010PropOp51
 70
     0
102
RTVSPost2010Prop52
140
1.0
102
RTVSPost2010PropOp52
 70
     0
102
RTVSPost2010Prop53
 90
        2
102
RTVSPost2010PropOp53
 70
     1
102
RTVSPost2010Prop54
  1
strokes_ogs.tif
102
RTVSPost2010PropOp54
 70
     1
102
RTVSPost2010Prop55
280
     0
102
RTVSPost2010PropOp55
 70
     1
102
RTVSPost2010Prop56
140
1.0
102
RTVSPost2010PropOp56
 70
     1
102
RTVSPost2010Prop57
140
1.0
102
RTVSPost2010PropOp57
 70
     1
  0
XRECORD
  5
19E4
102
{ACAD_REACTORS
330
19E3
102
}
330
19E3
100
AcDbXrecord
280
     1
102
RTVSPropertyOp0
 70
     1
102
RTVSPropertyOp1
 70
     1
102
RTVSPropertyOp2
 70
     1
102
RTVSPropertyOp3
 70
     1
102
RTVSPropertyOp4
 70
     1
102
RTVSPropertyOp5
 70
     1
102
RTVSPropertyOp6
 70
     1
102
RTVSPropertyOp7
 70
     1
102
RTVSPropertyOp8
 70
     1
102
RTVSPropertyOp9
 70
     1
102
RTVSPropertyOp10
 70
     1
102
RTVSPropertyOp11
 70
     1
102
RTVSPropertyOp12
 70
     1
102
RTVSPropertyOp13
 70
     1
102
RTVSPropertyOp14
 70
     1
102
RTVSPropertyOp15
 70
     1
102
RTVSPropertyOp16
 70
     1
102
RTVSPropertyOp17
 70
     1
102
RTVSPropertyOp18
 70
     1
102
RTVSPropertyOp19
 70
     1
102
RTVSPropertyOp20
 70
     1
102
RTVSPropertyOp21
 70
     1
102
RTVSPropertyOp22
 70
     1
102
RTVSPropertyOp23
 70
     1
102
RTVSPropertyOp24
 70
     1
102
RTVSPropertyOp25
 70
     1
102
RTVSPropertyOp26
 70
     1
102
RTVSPropertyOp27
 70
     1
102
RTVSPropertyOp28
 70
     1
102
RTVSPropertyOp29
 70
     1
102
RTVSPropertyOp30
 70
     1
102
RTVSPropertyOp31
 70
     1
102
RTVSPropertyOp32
 70
     1
102
RTVSPropertyOp33
 70
     1
102
RTVSPropertyOp34
 70
     1
102
RTVSPropertyOp35
 70
     1
102
RTVSPropertyOp36
 70
     1
102
RTVSPropertyOp37
 70
     1
102
RTVSPropertyOp38
 70
     1
102
RTVSPropertyOp39
 70
     1
102
RTVSPropertyOp40
 70
     1
102
RTVSPropertyOp41
 70
     1
102
RTVSPropertyOp42
 70
     1
102
RTVSPropertyOp43
 70
     1
102
RTVSPropertyOp44
 70
     1
102
RTVSPropertyOp45
 70
     1
102
RTVSPropertyOp46
 70
     1
102
RTVSPropertyOp47
 70
     1
102
RTVSPropertyOp48
 70
     1
102
RTVSPropertyOp49
 70
     1
102
RTVSPropertyOp50
 70
     1
102
RTVSPropertyOp51
 70
     0
102
RTVSPropertyOp52
 70
     0
102
RTVSPropertyOp53
 70
     1
102
RTVSPropertyOp54
 70
     1
102
RTVSPropertyOp55
 70
     1
102
RTVSPropertyOp56
 70
     1
102
RTVSPropertyOp57
 70
     1
102
RTVSPost2010Prop28
280
     0
102
RTVSPost2010PropOp28
 70
     1
102
RTVSPost2010Prop29
280
     1
102
RTVSPost2010PropOp29
 70
     1
102
RTVSPost2010Prop30
280
     1
102
RTVSPost2010PropOp30
 70
     1
102
RTVSPost2010Prop31
280
     0
102
RTVSPost2010PropOp31
 70
     1
102
RTVSPost2010Prop32
280
     0
102
RTVSPost2010PropOp32
 70
     1
102
RTVSPost2010Prop33
280
     0
102
RTVSPost2010PropOp33
 70
     1
102
RTVSPost2010Prop34
280
     0
102
RTVSPost2010PropOp34
 70
     1
102
RTVSPost2010Prop35
280
     0
102
RTVSPost2010PropOp35
 70
     1
102
RTVSPost2010Prop36
280
     0
102
RTVSPost2010PropOp36
 70
     1
102
RTVSPost2010Prop37
 90
       50
102
RTVSPost2010PropOp37
 70
     1
102
RTVSPost2010Prop38
140
0.0
102
RTVSPost2010PropOp38
 70
     1
102
RTVSPost2010Prop39
140
1.0
102
RTVSPost2010PropOp39
 70
     1
102
RTVSPost2010Prop40
 90
        0
102
RTVSPost2010PropOp40
 70
     1
102
RTVSPost2010Prop41ColorIndex
 90
       18
102
RTVSPost2010Prop41ColorRGB
 90
        0
102
RTVSPost2010PropOp41
 70
     1
102
RTVSPost2010Prop42
 90
       50
102
RTVSPost2010PropOp42
 70
     1
102
RTVSPost2010Prop43
 90
        3
102
RTVSPost2010PropOp43
 70
     1
102
RTVSPost2010Prop44ColorIndex
 90
        5
102
RTVSPost2010Prop44ColorRGB
 90
      255
102
RTVSPost2010PropOp44
 70
     1
102
RTVSPost2010Prop45
280
     0
102
RTVSPost2010PropOp45
 70
     1
102
RTVSPost2010Prop46
 90
       50
102
RTVSPost2010PropOp46
 70
     1
102
RTVSPost2010Prop47
 90
       50
102
RTVSPost2010PropOp47
 70
     1
102
RTVSPost2010Prop48
 90
       50
102
RTVSPost2010PropOp48
 70
     1
102
RTVSPost2010Prop49
280
     0
102
RTVSPost2010PropOp49
 70
     1
102
RTVSPost2010Prop50
 90
       50
102
RTVSPost2010PropOp50
 70
     1
102
RTVSPost2010Prop51ColorIndex
 90
      256
102
RTVSPost2010Prop51ColorRGB
 90
-16777216
102
RTVSPost2010PropOp51
 70
     0
102
RTVSPost2010Prop52
140
1.0
102
RTVSPost2010PropOp52
 70
     0
102
RTVSPost2010Prop53
 90
        2
102
RTVSPost2010PropOp53
 70
     1
102
RTVSPost2010Prop54
  1
strokes_ogs.tif
102
RTVSPost2010PropOp54
 70
     1
102
RTVSPost2010Prop55
280
     0
102
RTVSPost2010PropOp55
 70
     1
102
RTVSPost2010Prop56
140
1.0
102
RTVSPost2010PropOp56
 70
     1
102
RTVSPost2010Prop57
140
1.0
102
RTVSPost2010PropOp57
 70
     1
  0
XRECORD
  5
19E6
102
{ACAD_REACTORS
330
19E5
102
}
330
19E5
100
AcDbXrecord
280
     1
102
RTVSPropertyOp0
 70
     1
102
RTVSPropertyOp1
 70
     1
102
RTVSPropertyOp2
 70
     1
102
RTVSPropertyOp3
 70
     1
102
RTVSPropertyOp4
 70
     1
102
RTVSPropertyOp5
 70
     1
102
RTVSPropertyOp6
 70
     1
102
RTVSPropertyOp7
 70
     1
102
RTVSPropertyOp8
 70
     1
102
RTVSPropertyOp9
 70
     1
102
RTVSPropertyOp10
 70
     1
102
RTVSPropertyOp11
 70
     1
102
RTVSPropertyOp12
 70
     1
102
RTVSPropertyOp13
 70
     1
102
RTVSPropertyOp14
 70
     1
102
RTVSPropertyOp15
 70
     1
102
RTVSPropertyOp16
 70
     1
102
RTVSPropertyOp17
 70
     1
102
RTVSPropertyOp18
 70
     1
102
RTVSPropertyOp19
 70
     1
102
RTVSPropertyOp20
 70
     1
102
RTVSPropertyOp21
 70
     1
102
RTVSPropertyOp22
 70
     1
102
RTVSPropertyOp23
 70
     1
102
RTVSPropertyOp24
 70
     1
102
RTVSPropertyOp25
 70
     1
102
RTVSPropertyOp26
 70
     1
102
RTVSPropertyOp27
 70
     1
102
RTVSPropertyOp28
 70
     1
102
RTVSPropertyOp29
 70
     1
102
RTVSPropertyOp30
 70
     1
102
RTVSPropertyOp31
 70
     1
102
RTVSPropertyOp32
 70
     1
102
RTVSPropertyOp33
 70
     1
102
RTVSPropertyOp34
 70
     1
102
RTVSPropertyOp35
 70
     1
102
RTVSPropertyOp36
 70
     1
102
RTVSPropertyOp37
 70
     1
102
RTVSPropertyOp38
 70
     1
102
RTVSPropertyOp39
 70
     1
102
RTVSPropertyOp40
 70
     1
102
RTVSPropertyOp41
 70
     1
102
RTVSPropertyOp42
 70
     1
102
RTVSPropertyOp43
 70
     1
102
RTVSPropertyOp44
 70
     1
102
RTVSPropertyOp45
 70
     1
102
RTVSPropertyOp46
 70
     1
102
RTVSPropertyOp47
 70
     1
102
RTVSPropertyOp48
 70
     1
102
RTVSPropertyOp49
 70
     1
102
RTVSPropertyOp50
 70
     1
102
RTVSPropertyOp51
 70
     0
102
RTVSPropertyOp52
 70
     0
102
RTVSPropertyOp53
 70
     1
102
RTVSPropertyOp54
 70
     1
102
RTVSPropertyOp55
 70
     1
102
RTVSPropertyOp56
 70
     1
102
RTVSPropertyOp57
 70
     1
102
RTVSPost2010Prop28
280
     0
102
RTVSPost2010PropOp28
 70
     1
102
RTVSPost2010Prop29
280
     1
102
RTVSPost2010PropOp29
 70
     1
102
RTVSPost2010Prop30
280
     1
102
RTVSPost2010PropOp30
 70
     1
102
RTVSPost2010Prop31
280
     0
102
RTVSPost2010PropOp31
 70
     1
102
RTVSPost2010Prop32
280
     0
102
RTVSPost2010PropOp32
 70
     1
102
RTVSPost2010Prop33
280
     0
102
RTVSPost2010PropOp33
 70
     1
102
RTVSPost2010Prop34
280
     0
102
RTVSPost2010PropOp34
 70
     1
102
RTVSPost2010Prop35
280
     0
102
RTVSPost2010PropOp35
 70
     1
102
RTVSPost2010Prop36
280
     0
102
RTVSPost2010PropOp36
 70
     1
102
RTVSPost2010Prop37
 90
       50
102
RTVSPost2010PropOp37
 70
     1
102
RTVSPost2010Prop38
140
0.0
102
RTVSPost2010PropOp38
 70
     1
102
RTVSPost2010Prop39
140
1.0
102
RTVSPost2010PropOp39
 70
     1
102
RTVSPost2010Prop40
 90
        0
102
RTVSPost2010PropOp40
 70
     1
102
RTVSPost2010Prop41ColorIndex
 90
       18
102
RTVSPost2010Prop41ColorRGB
 90
        0
102
RTVSPost2010PropOp41
 70
     1
102
RTVSPost2010Prop42
 90
       50
102
RTVSPost2010PropOp42
 70
     1
102
RTVSPost2010Prop43
 90
        3
102
RTVSPost2010PropOp43
 70
     1
102
RTVSPost2010Prop44ColorIndex
 90
        5
102
RTVSPost2010Prop44ColorRGB
 90
      255
102
RTVSPost2010PropOp44
 70
     1
102
RTVSPost2010Prop45
280
     0
102
RTVSPost2010PropOp45
 70
     1
102
RTVSPost2010Prop46
 90
       50
102
RTVSPost2010PropOp46
 70
     1
102
RTVSPost2010Prop47
 90
       50
102
RTVSPost2010PropOp47
 70
     1
102
RTVSPost2010Prop48
 90
       50
102
RTVSPost2010PropOp48
 70
     1
102
RTVSPost2010Prop49
280
     0
102
RTVSPost2010PropOp49
 70
     1
102
RTVSPost2010Prop50
 90
       50
102
RTVSPost2010PropOp50
 70
     1
102
RTVSPost2010Prop51ColorIndex
 90
      256
102
RTVSPost2010Prop51ColorRGB
 90
-16777216
102
RTVSPost2010PropOp51
 70
     0
102
RTVSPost2010Prop52
140
1.0
102
RTVSPost2010PropOp52
 70
     0
102
RTVSPost2010Prop53
 90
        2
102
RTVSPost2010PropOp53
 70
     1
102
RTVSPost2010Prop54
  1
strokes_ogs.tif
102
RTVSPost2010PropOp54
 70
     1
102
RTVSPost2010Prop55
280
     0
102
RTVSPost2010PropOp55
 70
     1
102
RTVSPost2010Prop56
140
1.0
102
RTVSPost2010PropOp56
 70
     1
102
RTVSPost2010Prop57
140
1.0
102
RTVSPost2010PropOp57
 70
     1
  0
XRECORD
  5
19E8
102
{ACAD_REACTORS
330
19E7
102
}
330
19E7
100
AcDbXrecord
280
     1
102
RTVSPropertyOp0
 70
     1
102
RTVSPropertyOp1
 70
     1
102
RTVSPropertyOp2
 70
     1
102
RTVSPropertyOp3
 70
     1
102
RTVSPropertyOp4
 70
     1
102
RTVSPropertyOp5
 70
     1
102
RTVSPropertyOp6
 70
     1
102
RTVSPropertyOp7
 70
     1
102
RTVSPropertyOp8
 70
     1
102
RTVSPropertyOp9
 70
     1
102
RTVSPropertyOp10
 70
     1
102
RTVSPropertyOp11
 70
     1
102
RTVSPropertyOp12
 70
     1
102
RTVSPropertyOp13
 70
     1
102
RTVSPropertyOp14
 70
     1
102
RTVSPropertyOp15
 70
     1
102
RTVSPropertyOp16
 70
     1
102
RTVSPropertyOp17
 70
     1
102
RTVSPropertyOp18
 70
     1
102
RTVSPropertyOp19
 70
     1
102
RTVSPropertyOp20
 70
     1
102
RTVSPropertyOp21
 70
     1
102
RTVSPropertyOp22
 70
     1
102
RTVSPropertyOp23
 70
     1
102
RTVSPropertyOp24
 70
     1
102
RTVSPropertyOp25
 70
     1
102
RTVSPropertyOp26
 70
     1
102
RTVSPropertyOp27
 70
     1
102
RTVSPropertyOp28
 70
     1
102
RTVSPropertyOp29
 70
     1
102
RTVSPropertyOp30
 70
     1
102
RTVSPropertyOp31
 70
     1
102
RTVSPropertyOp32
 70
     1
102
RTVSPropertyOp33
 70
     1
102
RTVSPropertyOp34
 70
     1
102
RTVSPropertyOp35
 70
     1
102
RTVSPropertyOp36
 70
     1
102
RTVSPropertyOp37
 70
     1
102
RTVSPropertyOp38
 70
     1
102
RTVSPropertyOp39
 70
     1
102
RTVSPropertyOp40
 70
     1
102
RTVSPropertyOp41
 70
     1
102
RTVSPropertyOp42
 70
     1
102
RTVSPropertyOp43
 70
     1
102
RTVSPropertyOp44
 70
     1
102
RTVSPropertyOp45
 70
     1
102
RTVSPropertyOp46
 70
     1
102
RTVSPropertyOp47
 70
     1
102
RTVSPropertyOp48
 70
     1
102
RTVSPropertyOp49
 70
     1
102
RTVSPropertyOp50
 70
     1
102
RTVSPropertyOp51
 70
     0
102
RTVSPropertyOp52
 70
     0
102
RTVSPropertyOp53
 70
     1
102
RTVSPropertyOp54
 70
     1
102
RTVSPropertyOp55
 70
     1
102
RTVSPropertyOp56
 70
     1
102
RTVSPropertyOp57
 70
     1
102
RTVSPost2010Prop28
280
     0
102
RTVSPost2010PropOp28
 70
     1
102
RTVSPost2010Prop29
280
     1
102
RTVSPost2010PropOp29
 70
     1
102
RTVSPost2010Prop30
280
     1
102
RTVSPost2010PropOp30
 70
     1
102
RTVSPost2010Prop31
280
     0
102
RTVSPost2010PropOp31
 70
     1
102
RTVSPost2010Prop32
280
     0
102
RTVSPost2010PropOp32
 70
     1
102
RTVSPost2010Prop33
280
     0
102
RTVSPost2010PropOp33
 70
     1
102
RTVSPost2010Prop34
280
     0
102
RTVSPost2010PropOp34
 70
     1
102
RTVSPost2010Prop35
280
     0
102
RTVSPost2010PropOp35
 70
     1
102
RTVSPost2010Prop36
280
     0
102
RTVSPost2010PropOp36
 70
     1
102
RTVSPost2010Prop37
 90
       50
102
RTVSPost2010PropOp37
 70
     1
102
RTVSPost2010Prop38
140
0.0
102
RTVSPost2010PropOp38
 70
     1
102
RTVSPost2010Prop39
140
1.0
102
RTVSPost2010PropOp39
 70
     1
102
RTVSPost2010Prop40
 90
        0
102
RTVSPost2010PropOp40
 70
     1
102
RTVSPost2010Prop41ColorIndex
 90
       18
102
RTVSPost2010Prop41ColorRGB
 90
        0
102
RTVSPost2010PropOp41
 70
     1
102
RTVSPost2010Prop42
 90
       50
102
RTVSPost2010PropOp42
 70
     1
102
RTVSPost2010Prop43
 90
        3
102
RTVSPost2010PropOp43
 70
     1
102
RTVSPost2010Prop44ColorIndex
 90
        5
102
RTVSPost2010Prop44ColorRGB
 90
      255
102
RTVSPost2010PropOp44
 70
     1
102
RTVSPost2010Prop45
280
     0
102
RTVSPost2010PropOp45
 70
     1
102
RTVSPost2010Prop46
 90
       50
102
RTVSPost2010PropOp46
 70
     1
102
RTVSPost2010Prop47
 90
       50
102
RTVSPost2010PropOp47
 70
     1
102
RTVSPost2010Prop48
 90
       50
102
RTVSPost2010PropOp48
 70
     1
102
RTVSPost2010Prop49
280
     0
102
RTVSPost2010PropOp49
 70
     1
102
RTVSPost2010Prop50
 90
       50
102
RTVSPost2010PropOp50
 70
     1
102
RTVSPost2010Prop51ColorIndex
 90
      256
102
RTVSPost2010Prop51ColorRGB
 90
-16777216
102
RTVSPost2010PropOp51
 70
     0
102
RTVSPost2010Prop52
140
1.0
102
RTVSPost2010PropOp52
 70
     0
102
RTVSPost2010Prop53
 90
        2
102
RTVSPost2010PropOp53
 70
     1
102
RTVSPost2010Prop54
  1
strokes_ogs.tif
102
RTVSPost2010PropOp54
 70
     1
102
RTVSPost2010Prop55
280
     0
102
RTVSPost2010PropOp55
 70
     1
102
RTVSPost2010Prop56
140
1.0
102
RTVSPost2010PropOp56
 70
     1
102
RTVSPost2010Prop57
140
1.0
102
RTVSPost2010PropOp57
 70
     1
  0
XRECORD
  5
19EE
102
{ACAD_REACTORS
330
19ED
102
}
330
19ED
100
AcDbXrecord
280
     1
102
RTVSPropertyOp0
 70
     1
102
RTVSPropertyOp1
 70
     1
102
RTVSPropertyOp2
 70
     1
102
RTVSPropertyOp3
 70
     1
102
RTVSPropertyOp4
 70
     1
102
RTVSPropertyOp5
 70
     1
102
RTVSPropertyOp6
 70
     1
102
RTVSPropertyOp7
 70
     1
102
RTVSPropertyOp8
 70
     1
102
RTVSPropertyOp9
 70
     1
102
RTVSPropertyOp10
 70
     1
102
RTVSPropertyOp11
 70
     1
102
RTVSPropertyOp12
 70
     1
102
RTVSPropertyOp13
 70
     1
102
RTVSPropertyOp14
 70
     1
102
RTVSPropertyOp15
 70
     1
102
RTVSPropertyOp16
 70
     1
102
RTVSPropertyOp17
 70
     1
102
RTVSPropertyOp18
 70
     1
102
RTVSPropertyOp19
 70
     1
102
RTVSPropertyOp20
 70
     1
102
RTVSPropertyOp21
 70
     1
102
RTVSPropertyOp22
 70
     1
102
RTVSPropertyOp23
 70
     1
102
RTVSPropertyOp24
 70
     1
102
RTVSPropertyOp25
 70
     1
102
RTVSPropertyOp26
 70
     1
102
RTVSPropertyOp27
 70
     1
102
RTVSPropertyOp28
 70
     1
102
RTVSPropertyOp29
 70
     1
102
RTVSPropertyOp30
 70
     1
102
RTVSPropertyOp31
 70
     1
102
RTVSPropertyOp32
 70
     1
102
RTVSPropertyOp33
 70
     1
102
RTVSPropertyOp34
 70
     1
102
RTVSPropertyOp35
 70
     1
102
RTVSPropertyOp36
 70
     1
102
RTVSPropertyOp37
 70
     1
102
RTVSPropertyOp38
 70
     1
102
RTVSPropertyOp39
 70
     1
102
RTVSPropertyOp40
 70
     1
102
RTVSPropertyOp41
 70
     1
102
RTVSPropertyOp42
 70
     1
102
RTVSPropertyOp43
 70
     1
102
RTVSPropertyOp44
 70
     1
102
RTVSPropertyOp45
 70
     1
102
RTVSPropertyOp46
 70
     1
102
RTVSPropertyOp47
 70
     1
102
RTVSPropertyOp48
 70
     1
102
RTVSPropertyOp49
 70
     1
102
RTVSPropertyOp50
 70
     1
102
RTVSPropertyOp51
 70
     0
102
RTVSPropertyOp52
 70
     0
102
RTVSPropertyOp53
 70
     1
102
RTVSPropertyOp54
 70
     1
102
RTVSPropertyOp55
 70
     1
102
RTVSPropertyOp56
 70
     1
102
RTVSPropertyOp57
 70
     1
102
RTVSPost2010Prop28
280
     0
102
RTVSPost2010PropOp28
 70
     1
102
RTVSPost2010Prop29
280
     1
102
RTVSPost2010PropOp29
 70
     1
102
RTVSPost2010Prop30
280
     1
102
RTVSPost2010PropOp30
 70
     1
102
RTVSPost2010Prop31
280
     0
102
RTVSPost2010PropOp31
 70
     1
102
RTVSPost2010Prop32
280
     0
102
RTVSPost2010PropOp32
 70
     1
102
RTVSPost2010Prop33
280
     0
102
RTVSPost2010PropOp33
 70
     1
102
RTVSPost2010Prop34
280
     0
102
RTVSPost2010PropOp34
 70
     1
102
RTVSPost2010Prop35
280
     0
102
RTVSPost2010PropOp35
 70
     1
102
RTVSPost2010Prop36
280
     0
102
RTVSPost2010PropOp36
 70
     1
102
RTVSPost2010Prop37
 90
       50
102
RTVSPost2010PropOp37
 70
     1
102
RTVSPost2010Prop38
140
0.0
102
RTVSPost2010PropOp38
 70
     1
102
RTVSPost2010Prop39
140
1.0
102
RTVSPost2010PropOp39
 70
     1
102
RTVSPost2010Prop40
 90
        0
102
RTVSPost2010PropOp40
 70
     1
102
RTVSPost2010Prop41ColorIndex
 90
       18
102
RTVSPost2010Prop41ColorRGB
 90
        0
102
RTVSPost2010PropOp41
 70
     1
102
RTVSPost2010Prop42
 90
       50
102
RTVSPost2010PropOp42
 70
     1
102
RTVSPost2010Prop43
 90
        3
102
RTVSPost2010PropOp43
 70
     1
102
RTVSPost2010Prop44ColorIndex
 90
        5
102
RTVSPost2010Prop44ColorRGB
 90
      255
102
RTVSPost2010PropOp44
 70
     1
102
RTVSPost2010Prop45
280
     0
102
RTVSPost2010PropOp45
 70
     1
102
RTVSPost2010Prop46
 90
       50
102
RTVSPost2010PropOp46
 70
     1
102
RTVSPost2010Prop47
 90
       50
102
RTVSPost2010PropOp47
 70
     1
102
RTVSPost2010Prop48
 90
       50
102
RTVSPost2010PropOp48
 70
     1
102
RTVSPost2010Prop49
280
     0
102
RTVSPost2010PropOp49
 70
     1
102
RTVSPost2010Prop50
 90
       50
102
RTVSPost2010PropOp50
 70
     1
102
RTVSPost2010Prop51ColorIndex
 90
      256
102
RTVSPost2010Prop51ColorRGB
 90
-16777216
102
RTVSPost2010PropOp51
 70
     0
102
RTVSPost2010Prop52
140
1.0
102
RTVSPost2010PropOp52
 70
     0
102
RTVSPost2010Prop53
 90
        2
102
RTVSPost2010PropOp53
 70
     1
102
RTVSPost2010Prop54
  1
strokes_ogs.tif
102
RTVSPost2010PropOp54
 70
     1
102
RTVSPost2010Prop55
280
     0
102
RTVSPost2010PropOp55
 70
     1
102
RTVSPost2010Prop56
140
1.0
102
RTVSPost2010PropOp56
 70
     1
102
RTVSPost2010Prop57
140
1.0
102
RTVSPost2010PropOp57
 70
     1
  0
XRECORD
  5
1A02
102
{ACAD_REACTORS
330
1A01
102
}
330
1A01
100
AcDbXrecord
280
     1
102
RTVSPropertyOp0
 70
     0
102
RTVSPropertyOp1
 70
     0
102
RTVSPropertyOp2
 70
     0
102
RTVSPropertyOp3
 70
     0
102
RTVSPropertyOp4
 70
     0
102
RTVSPropertyOp5
 70
     0
102
RTVSPropertyOp6
 70
     0
102
RTVSPropertyOp7
 70
     0
102
RTVSPropertyOp8
 70
     0
102
RTVSPropertyOp9
 70
     0
102
RTVSPropertyOp10
 70
     0
102
RTVSPropertyOp11
 70
     0
102
RTVSPropertyOp12
 70
     0
102
RTVSPropertyOp13
 70
     0
102
RTVSPropertyOp14
 70
     2
102
RTVSPropertyOp15
 70
     0
102
RTVSPropertyOp16
 70
     0
102
RTVSPropertyOp17
 70
     0
102
RTVSPropertyOp18
 70
     0
102
RTVSPropertyOp19
 70
     0
102
RTVSPropertyOp20
 70
     0
102
RTVSPropertyOp21
 70
     0
102
RTVSPropertyOp22
 70
     0
102
RTVSPropertyOp23
 70
     0
102
RTVSPropertyOp24
 70
     0
102
RTVSPropertyOp25
 70
     0
102
RTVSPropertyOp26
 70
     0
102
RTVSPropertyOp27
 70
     0
102
RTVSPropertyOp28
 70
     0
102
RTVSPropertyOp29
 70
     0
102
RTVSPropertyOp30
 70
     0
102
RTVSPropertyOp31
 70
     0
102
RTVSPropertyOp32
 70
     0
102
RTVSPropertyOp33
 70
     0
102
RTVSPropertyOp34
 70
     0
102
RTVSPropertyOp35
 70
     0
102
RTVSPropertyOp36
 70
     0
102
RTVSPropertyOp37
 70
     0
102
RTVSPropertyOp38
 70
     0
102
RTVSPropertyOp39
 70
     0
102
RTVSPropertyOp40
 70
     0
102
RTVSPropertyOp41
 70
     0
102
RTVSPropertyOp42
 70
     0
102
RTVSPropertyOp43
 70
     0
102
RTVSPropertyOp44
 70
     0
102
RTVSPropertyOp45
 70
     0
102
RTVSPropertyOp46
 70
     0
102
RTVSPropertyOp47
 70
     0
102
RTVSPropertyOp48
 70
     0
102
RTVSPropertyOp49
 70
     0
102
RTVSPropertyOp50
 70
     0
102
RTVSPropertyOp51
 70
     0
102
RTVSPropertyOp52
 70
     0
102
RTVSPropertyOp53
 70
     0
102
RTVSPropertyOp54
 70
     0
102
RTVSPropertyOp55
 70
     0
102
RTVSPropertyOp56
 70
     0
102
RTVSPropertyOp57
 70
     0
102
RTVSPost2010Prop28
280
     0
102
RTVSPost2010PropOp28
 70
     0
102
RTVSPost2010Prop29
280
     1
102
RTVSPost2010PropOp29
 70
     0
102
RTVSPost2010Prop30
280
     1
102
RTVSPost2010PropOp30
 70
     0
102
RTVSPost2010Prop31
280
     0
102
RTVSPost2010PropOp31
 70
     0
102
RTVSPost2010Prop32
280
     0
102
RTVSPost2010PropOp32
 70
     0
102
RTVSPost2010Prop33
280
     0
102
RTVSPost2010PropOp33
 70
     0
102
RTVSPost2010Prop34
280
     0
102
RTVSPost2010PropOp34
 70
     0
102
RTVSPost2010Prop35
280
     0
102
RTVSPost2010PropOp35
 70
     0
102
RTVSPost2010Prop36
280
     0
102
RTVSPost2010PropOp36
 70
     0
102
RTVSPost2010Prop37
 90
       50
102
RTVSPost2010PropOp37
 70
     0
102
RTVSPost2010Prop38
140
0.0
102
RTVSPost2010PropOp38
 70
     0
102
RTVSPost2010Prop39
140
1.0
102
RTVSPost2010PropOp39
 70
     0
102
RTVSPost2010Prop40
 90
        0
102
RTVSPost2010PropOp40
 70
     0
102
RTVSPost2010Prop41ColorIndex
 90
       18
102
RTVSPost2010Prop41ColorRGB
 90
        0
102
RTVSPost2010PropOp41
 70
     0
102
RTVSPost2010Prop42
 90
       50
102
RTVSPost2010PropOp42
 70
     0
102
RTVSPost2010Prop43
 90
        3
102
RTVSPost2010PropOp43
 70
     0
102
RTVSPost2010Prop44ColorIndex
 90
        5
102
RTVSPost2010Prop44ColorRGB
 90
      255
102
RTVSPost2010PropOp44
 70
     0
102
RTVSPost2010Prop45
280
     0
102
RTVSPost2010PropOp45
 70
     0
102
RTVSPost2010Prop46
 90
       50
102
RTVSPost2010PropOp46
 70
     0
102
RTVSPost2010Prop47
 90
       50
102
RTVSPost2010PropOp47
 70
     0
102
RTVSPost2010Prop48
 90
       50
102
RTVSPost2010PropOp48
 70
     0
102
RTVSPost2010Prop49
280
     0
102
RTVSPost2010PropOp49
 70
     0
102
RTVSPost2010Prop50
 90
       50
102
RTVSPost2010PropOp50
 70
     0
102
RTVSPost2010Prop51ColorIndex
 90
      256
102
RTVSPost2010Prop51ColorRGB
 90
-16777216
102
RTVSPost2010PropOp51
 70
     0
102
RTVSPost2010Prop52
140
1.0
102
RTVSPost2010PropOp52
 70
     0
102
RTVSPost2010Prop53
 90
        2
102
RTVSPost2010PropOp53
 70
     0
102
RTVSPost2010Prop54
  1
strokes_ogs.tif
102
RTVSPost2010PropOp54
 70
     0
102
RTVSPost2010Prop55
280
     0
102
RTVSPost2010PropOp55
 70
     0
102
RTVSPost2010Prop56
140
1.0
102
RTVSPost2010PropOp56
 70
     0
102
RTVSPost2010Prop57
140
1.0
102
RTVSPost2010PropOp57
 70
     0
  0
XRECORD
  5
19FC
102
{ACAD_REACTORS
330
19FB
102
}
330
19FB
100
AcDbXrecord
280
     1
102
RTVSPropertyOp0
 70
     1
102
RTVSPropertyOp1
 70
     1
102
RTVSPropertyOp2
 70
     1
102
RTVSPropertyOp3
 70
     1
102
RTVSPropertyOp4
 70
     1
102
RTVSPropertyOp5
 70
     1
102
RTVSPropertyOp6
 70
     1
102
RTVSPropertyOp7
 70
     1
102
RTVSPropertyOp8
 70
     1
102
RTVSPropertyOp9
 70
     1
102
RTVSPropertyOp10
 70
     1
102
RTVSPropertyOp11
 70
     1
102
RTVSPropertyOp12
 70
     1
102
RTVSPropertyOp13
 70
     1
102
RTVSPropertyOp14
 70
     1
102
RTVSPropertyOp15
 70
     1
102
RTVSPropertyOp16
 70
     1
102
RTVSPropertyOp17
 70
     1
102
RTVSPropertyOp18
 70
     1
102
RTVSPropertyOp19
 70
     1
102
RTVSPropertyOp20
 70
     1
102
RTVSPropertyOp21
 70
     1
102
RTVSPropertyOp22
 70
     1
102
RTVSPropertyOp23
 70
     1
102
RTVSPropertyOp24
 70
     1
102
RTVSPropertyOp25
 70
     1
102
RTVSPropertyOp26
 70
     1
102
RTVSPropertyOp27
 70
     1
102
RTVSPropertyOp28
 70
     1
102
RTVSPropertyOp29
 70
     1
102
RTVSPropertyOp30
 70
     1
102
RTVSPropertyOp31
 70
     1
102
RTVSPropertyOp32
 70
     1
102
RTVSPropertyOp33
 70
     1
102
RTVSPropertyOp34
 70
     1
102
RTVSPropertyOp35
 70
     1
102
RTVSPropertyOp36
 70
     1
102
RTVSPropertyOp37
 70
     1
102
RTVSPropertyOp38
 70
     1
102
RTVSPropertyOp39
 70
     1
102
RTVSPropertyOp40
 70
     1
102
RTVSPropertyOp41
 70
     1
102
RTVSPropertyOp42
 70
     1
102
RTVSPropertyOp43
 70
     1
102
RTVSPropertyOp44
 70
     1
102
RTVSPropertyOp45
 70
     1
102
RTVSPropertyOp46
 70
     1
102
RTVSPropertyOp47
 70
     1
102
RTVSPropertyOp48
 70
     1
102
RTVSPropertyOp49
 70
     1
102
RTVSPropertyOp50
 70
     1
102
RTVSPropertyOp51
 70
     0
102
RTVSPropertyOp52
 70
     0
102
RTVSPropertyOp53
 70
     1
102
RTVSPropertyOp54
 70
     1
102
RTVSPropertyOp55
 70
     1
102
RTVSPropertyOp56
 70
     1
102
RTVSPropertyOp57
 70
     1
102
RTVSPost2010Prop28
280
     0
102
RTVSPost2010PropOp28
 70
     1
102
RTVSPost2010Prop29
280
     1
102
RTVSPost2010PropOp29
 70
     1
102
RTVSPost2010Prop30
280
     1
102
RTVSPost2010PropOp30
 70
     1
102
RTVSPost2010Prop31
280
     0
102
RTVSPost2010PropOp31
 70
     1
102
RTVSPost2010Prop32
280
     0
102
RTVSPost2010PropOp32
 70
     1
102
RTVSPost2010Prop33
280
     0
102
RTVSPost2010PropOp33
 70
     1
102
RTVSPost2010Prop34
280
     0
102
RTVSPost2010PropOp34
 70
     1
102
RTVSPost2010Prop35
280
     0
102
RTVSPost2010PropOp35
 70
     1
102
RTVSPost2010Prop36
280
     0
102
RTVSPost2010PropOp36
 70
     1
102
RTVSPost2010Prop37
 90
       50
102
RTVSPost2010PropOp37
 70
     1
102
RTVSPost2010Prop38
140
0.0
102
RTVSPost2010PropOp38
 70
     1
102
RTVSPost2010Prop39
140
1.0
102
RTVSPost2010PropOp39
 70
     1
102
RTVSPost2010Prop40
 90
        0
102
RTVSPost2010PropOp40
 70
     1
102
RTVSPost2010Prop41ColorIndex
 90
       18
102
RTVSPost2010Prop41ColorRGB
 90
        0
102
RTVSPost2010PropOp41
 70
     1
102
RTVSPost2010Prop42
 90
       50
102
RTVSPost2010PropOp42
 70
     1
102
RTVSPost2010Prop43
 90
        3
102
RTVSPost2010PropOp43
 70
     1
102
RTVSPost2010Prop44ColorIndex
 90
        5
102
RTVSPost2010Prop44ColorRGB
 90
      255
102
RTVSPost2010PropOp44
 70
     1
102
RTVSPost2010Prop45
280
     0
102
RTVSPost2010PropOp45
 70
     1
102
RTVSPost2010Prop46
 90
       50
102
RTVSPost2010PropOp46
 70
     1
102
RTVSPost2010Prop47
 90
       50
102
RTVSPost2010PropOp47
 70
     1
102
RTVSPost2010Prop48
 90
       50
102
RTVSPost2010PropOp48
 70
     1
102
RTVSPost2010Prop49
280
     0
102
RTVSPost2010PropOp49
 70
     1
102
RTVSPost2010Prop50
 90
       50
102
RTVSPost2010PropOp50
 70
     1
102
RTVSPost2010Prop51ColorIndex
 90
      256
102
RTVSPost2010Prop51ColorRGB
 90
-16777216
102
RTVSPost2010PropOp51
 70
     0
102
RTVSPost2010Prop52
140
1.0
102
RTVSPost2010PropOp52
 70
     0
102
RTVSPost2010Prop53
 90
        2
102
RTVSPost2010PropOp53
 70
     1
102
RTVSPost2010Prop54
  1
strokes_ogs.tif
102
RTVSPost2010PropOp54
 70
     1
102
RTVSPost2010Prop55
280
     0
102
RTVSPost2010PropOp55
 70
     1
102
RTVSPost2010Prop56
140
1.0
102
RTVSPost2010PropOp56
 70
     1
102
RTVSPost2010Prop57
140
1.0
102
RTVSPost2010PropOp57
 70
     1
  0
XRECORD
  5
1A04
102
{ACAD_REACTORS
330
1A03
102
}
330
1A03
100
AcDbXrecord
280
     1
102
RTVSPropertyOp0
 70
     0
102
RTVSPropertyOp1
 70
     0
102
RTVSPropertyOp2
 70
     0
102
RTVSPropertyOp3
 70
     0
102
RTVSPropertyOp4
 70
     0
102
RTVSPropertyOp5
 70
     0
102
RTVSPropertyOp6
 70
     0
102
RTVSPropertyOp7
 70
     0
102
RTVSPropertyOp8
 70
     0
102
RTVSPropertyOp9
 70
     0
102
RTVSPropertyOp10
 70
     0
102
RTVSPropertyOp11
 70
     0
102
RTVSPropertyOp12
 70
     0
102
RTVSPropertyOp13
 70
     0
102
RTVSPropertyOp14
 70
     2
102
RTVSPropertyOp15
 70
     0
102
RTVSPropertyOp16
 70
     0
102
RTVSPropertyOp17
 70
     0
102
RTVSPropertyOp18
 70
     0
102
RTVSPropertyOp19
 70
     0
102
RTVSPropertyOp20
 70
     0
102
RTVSPropertyOp21
 70
     0
102
RTVSPropertyOp22
 70
     0
102
RTVSPropertyOp23
 70
     0
102
RTVSPropertyOp24
 70
     0
102
RTVSPropertyOp25
 70
     0
102
RTVSPropertyOp26
 70
     0
102
RTVSPropertyOp27
 70
     0
102
RTVSPropertyOp28
 70
     0
102
RTVSPropertyOp29
 70
     0
102
RTVSPropertyOp30
 70
     0
102
RTVSPropertyOp31
 70
     0
102
RTVSPropertyOp32
 70
     0
102
RTVSPropertyOp33
 70
     0
102
RTVSPropertyOp34
 70
     0
102
RTVSPropertyOp35
 70
     0
102
RTVSPropertyOp36
 70
     0
102
RTVSPropertyOp37
 70
     0
102
RTVSPropertyOp38
 70
     0
102
RTVSPropertyOp39
 70
     0
102
RTVSPropertyOp40
 70
     0
102
RTVSPropertyOp41
 70
     0
102
RTVSPropertyOp42
 70
     0
102
RTVSPropertyOp43
 70
     0
102
RTVSPropertyOp44
 70
     0
102
RTVSPropertyOp45
 70
     0
102
RTVSPropertyOp46
 70
     0
102
RTVSPropertyOp47
 70
     0
102
RTVSPropertyOp48
 70
     0
102
RTVSPropertyOp49
 70
     0
102
RTVSPropertyOp50
 70
     0
102
RTVSPropertyOp51
 70
     0
102
RTVSPropertyOp52
 70
     0
102
RTVSPropertyOp53
 70
     0
102
RTVSPropertyOp54
 70
     0
102
RTVSPropertyOp55
 70
     0
102
RTVSPropertyOp56
 70
     0
102
RTVSPropertyOp57
 70
     0
102
RTVSPost2010Prop28
280
     0
102
RTVSPost2010PropOp28
 70
     0
102
RTVSPost2010Prop29
280
     1
102
RTVSPost2010PropOp29
 70
     0
102
RTVSPost2010Prop30
280
     1
102
RTVSPost2010PropOp30
 70
     0
102
RTVSPost2010Prop31
280
     0
102
RTVSPost2010PropOp31
 70
     0
102
RTVSPost2010Prop32
280
     0
102
RTVSPost2010PropOp32
 70
     0
102
RTVSPost2010Prop33
280
     0
102
RTVSPost2010PropOp33
 70
     0
102
RTVSPost2010Prop34
280
     0
102
RTVSPost2010PropOp34
 70
     0
102
RTVSPost2010Prop35
280
     0
102
RTVSPost2010PropOp35
 70
     0
102
RTVSPost2010Prop36
280
     0
102
RTVSPost2010PropOp36
 70
     0
102
RTVSPost2010Prop37
 90
       50
102
RTVSPost2010PropOp37
 70
     0
102
RTVSPost2010Prop38
140
0.0
102
RTVSPost2010PropOp38
 70
     0
102
RTVSPost2010Prop39
140
1.0
102
RTVSPost2010PropOp39
 70
     0
102
RTVSPost2010Prop40
 90
        0
102
RTVSPost2010PropOp40
 70
     0
102
RTVSPost2010Prop41ColorIndex
 90
       18
102
RTVSPost2010Prop41ColorRGB
 90
        0
102
RTVSPost2010PropOp41
 70
     0
102
RTVSPost2010Prop42
 90
       50
102
RTVSPost2010PropOp42
 70
     0
102
RTVSPost2010Prop43
 90
        3
102
RTVSPost2010PropOp43
 70
     0
102
RTVSPost2010Prop44ColorIndex
 90
        5
102
RTVSPost2010Prop44ColorRGB
 90
      255
102
RTVSPost2010PropOp44
 70
     0
102
RTVSPost2010Prop45
280
     0
102
RTVSPost2010PropOp45
 70
     0
102
RTVSPost2010Prop46
 90
       50
102
RTVSPost2010PropOp46
 70
     0
102
RTVSPost2010Prop47
 90
       50
102
RTVSPost2010PropOp47
 70
     0
102
RTVSPost2010Prop48
 90
       50
102
RTVSPost2010PropOp48
 70
     0
102
RTVSPost2010Prop49
280
     0
102
RTVSPost2010PropOp49
 70
     0
102
RTVSPost2010Prop50
 90
       50
102
RTVSPost2010PropOp50
 70
     0
102
RTVSPost2010Prop51ColorIndex
 90
      256
102
RTVSPost2010Prop51ColorRGB
 90
-16777216
102
RTVSPost2010PropOp51
 70
     0
102
RTVSPost2010Prop52
140
1.0
102
RTVSPost2010PropOp52
 70
     0
102
RTVSPost2010Prop53
 90
        2
102
RTVSPost2010PropOp53
 70
     0
102
RTVSPost2010Prop54
  1
strokes_ogs.tif
102
RTVSPost2010PropOp54
 70
     0
102
RTVSPost2010Prop55
280
     0
102
RTVSPost2010PropOp55
 70
     0
102
RTVSPost2010Prop56
140
1.0
102
RTVSPost2010PropOp56
 70
     0
102
RTVSPost2010Prop57
140
1.0
102
RTVSPost2010PropOp57
 70
     0
  0
XRECORD
  5
19F2
102
{ACAD_REACTORS
330
19F1
102
}
330
19F1
100
AcDbXrecord
280
     1
102
RTVSPropertyOp0
 70
     1
102
RTVSPropertyOp1
 70
     1
102
RTVSPropertyOp2
 70
     1
102
RTVSPropertyOp3
 70
     1
102
RTVSPropertyOp4
 70
     1
102
RTVSPropertyOp5
 70
     1
102
RTVSPropertyOp6
 70
     1
102
RTVSPropertyOp7
 70
     1
102
RTVSPropertyOp8
 70
     1
102
RTVSPropertyOp9
 70
     1
102
RTVSPropertyOp10
 70
     1
102
RTVSPropertyOp11
 70
     1
102
RTVSPropertyOp12
 70
     1
102
RTVSPropertyOp13
 70
     1
102
RTVSPropertyOp14
 70
     1
102
RTVSPropertyOp15
 70
     1
102
RTVSPropertyOp16
 70
     1
102
RTVSPropertyOp17
 70
     1
102
RTVSPropertyOp18
 70
     1
102
RTVSPropertyOp19
 70
     1
102
RTVSPropertyOp20
 70
     1
102
RTVSPropertyOp21
 70
     1
102
RTVSPropertyOp22
 70
     1
102
RTVSPropertyOp23
 70
     1
102
RTVSPropertyOp24
 70
     1
102
RTVSPropertyOp25
 70
     1
102
RTVSPropertyOp26
 70
     1
102
RTVSPropertyOp27
 70
     1
102
RTVSPropertyOp28
 70
     1
102
RTVSPropertyOp29
 70
     1
102
RTVSPropertyOp30
 70
     1
102
RTVSPropertyOp31
 70
     1
102
RTVSPropertyOp32
 70
     1
102
RTVSPropertyOp33
 70
     1
102
RTVSPropertyOp34
 70
     1
102
RTVSPropertyOp35
 70
     1
102
RTVSPropertyOp36
 70
     1
102
RTVSPropertyOp37
 70
     1
102
RTVSPropertyOp38
 70
     1
102
RTVSPropertyOp39
 70
     1
102
RTVSPropertyOp40
 70
     1
102
RTVSPropertyOp41
 70
     1
102
RTVSPropertyOp42
 70
     1
102
RTVSPropertyOp43
 70
     1
102
RTVSPropertyOp44
 70
     1
102
RTVSPropertyOp45
 70
     1
102
RTVSPropertyOp46
 70
     1
102
RTVSPropertyOp47
 70
     1
102
RTVSPropertyOp48
 70
     1
102
RTVSPropertyOp49
 70
     1
102
RTVSPropertyOp50
 70
     1
102
RTVSPropertyOp51
 70
     0
102
RTVSPropertyOp52
 70
     0
102
RTVSPropertyOp53
 70
     1
102
RTVSPropertyOp54
 70
     1
102
RTVSPropertyOp55
 70
     1
102
RTVSPropertyOp56
 70
     1
102
RTVSPropertyOp57
 70
     1
102
RTVSPost2010Prop28
280
     0
102
RTVSPost2010PropOp28
 70
     1
102
RTVSPost2010Prop29
280
     1
102
RTVSPost2010PropOp29
 70
     1
102
RTVSPost2010Prop30
280
     1
102
RTVSPost2010PropOp30
 70
     1
102
RTVSPost2010Prop31
280
     0
102
RTVSPost2010PropOp31
 70
     1
102
RTVSPost2010Prop32
280
     0
102
RTVSPost2010PropOp32
 70
     1
102
RTVSPost2010Prop33
280
     0
102
RTVSPost2010PropOp33
 70
     1
102
RTVSPost2010Prop34
280
     0
102
RTVSPost2010PropOp34
 70
     1
102
RTVSPost2010Prop35
280
     0
102
RTVSPost2010PropOp35
 70
     1
102
RTVSPost2010Prop36
280
     0
102
RTVSPost2010PropOp36
 70
     1
102
RTVSPost2010Prop37
 90
       50
102
RTVSPost2010PropOp37
 70
     1
102
RTVSPost2010Prop38
140
0.0
102
RTVSPost2010PropOp38
 70
     1
102
RTVSPost2010Prop39
140
1.0
102
RTVSPost2010PropOp39
 70
     1
102
RTVSPost2010Prop40
 90
        0
102
RTVSPost2010PropOp40
 70
     1
102
RTVSPost2010Prop41ColorIndex
 90
       18
102
RTVSPost2010Prop41ColorRGB
 90
        0
102
RTVSPost2010PropOp41
 70
     1
102
RTVSPost2010Prop42
 90
       50
102
RTVSPost2010PropOp42
 70
     1
102
RTVSPost2010Prop43
 90
        3
102
RTVSPost2010PropOp43
 70
     1
102
RTVSPost2010Prop44ColorIndex
 90
        5
102
RTVSPost2010Prop44ColorRGB
 90
      255
102
RTVSPost2010PropOp44
 70
     1
102
RTVSPost2010Prop45
280
     0
102
RTVSPost2010PropOp45
 70
     1
102
RTVSPost2010Prop46
 90
       50
102
RTVSPost2010PropOp46
 70
     1
102
RTVSPost2010Prop47
 90
       50
102
RTVSPost2010PropOp47
 70
     1
102
RTVSPost2010Prop48
 90
       50
102
RTVSPost2010PropOp48
 70
     1
102
RTVSPost2010Prop49
280
     0
102
RTVSPost2010PropOp49
 70
     1
102
RTVSPost2010Prop50
 90
       50
102
RTVSPost2010PropOp50
 70
     1
102
RTVSPost2010Prop51ColorIndex
 90
      256
102
RTVSPost2010Prop51ColorRGB
 90
-16777216
102
RTVSPost2010PropOp51
 70
     0
102
RTVSPost2010Prop52
140
1.0
102
RTVSPost2010PropOp52
 70
     0
102
RTVSPost2010Prop53
 90
        2
102
RTVSPost2010PropOp53
 70
     1
102
RTVSPost2010Prop54
  1
strokes_ogs.tif
102
RTVSPost2010PropOp54
 70
     1
102
RTVSPost2010Prop55
280
     0
102
RTVSPost2010PropOp55
 70
     1
102
RTVSPost2010Prop56
140
1.0
102
RTVSPost2010PropOp56
 70
     1
102
RTVSPost2010Prop57
140
1.0
102
RTVSPost2010PropOp57
 70
     1
  0
XRECORD
  5
1A10
102
{ACAD_REACTORS
330
1A0F
102
}
330
1A0F
100
AcDbXrecord
280
     1
102
RTVSPropertyOp0
 70
     1
102
RTVSPropertyOp1
 70
     1
102
RTVSPropertyOp2
 70
     1
102
RTVSPropertyOp3
 70
     1
102
RTVSPropertyOp4
 70
     1
102
RTVSPropertyOp5
 70
     1
102
RTVSPropertyOp6
 70
     1
102
RTVSPropertyOp7
 70
     1
102
RTVSPropertyOp8
 70
     1
102
RTVSPropertyOp9
 70
     1
102
RTVSPropertyOp10
 70
     1
102
RTVSPropertyOp11
 70
     1
102
RTVSPropertyOp12
 70
     1
102
RTVSPropertyOp13
 70
     1
102
RTVSPropertyOp14
 70
     1
102
RTVSPropertyOp15
 70
     1
102
RTVSPropertyOp16
 70
     1
102
RTVSPropertyOp17
 70
     1
102
RTVSPropertyOp18
 70
     1
102
RTVSPropertyOp19
 70
     1
102
RTVSPropertyOp20
 70
     1
102
RTVSPropertyOp21
 70
     1
102
RTVSPropertyOp22
 70
     1
102
RTVSPropertyOp23
 70
     1
102
RTVSPropertyOp24
 70
     1
102
RTVSPropertyOp25
 70
     1
102
RTVSPropertyOp26
 70
     1
102
RTVSPropertyOp27
 70
     1
102
RTVSPropertyOp28
 70
     1
102
RTVSPropertyOp29
 70
     1
102
RTVSPropertyOp30
 70
     1
102
RTVSPropertyOp31
 70
     1
102
RTVSPropertyOp32
 70
     1
102
RTVSPropertyOp33
 70
     1
102
RTVSPropertyOp34
 70
     1
102
RTVSPropertyOp35
 70
     1
102
RTVSPropertyOp36
 70
     1
102
RTVSPropertyOp37
 70
     1
102
RTVSPropertyOp38
 70
     1
102
RTVSPropertyOp39
 70
     1
102
RTVSPropertyOp40
 70
     1
102
RTVSPropertyOp41
 70
     1
102
RTVSPropertyOp42
 70
     1
102
RTVSPropertyOp43
 70
     1
102
RTVSPropertyOp44
 70
     1
102
RTVSPropertyOp45
 70
     1
102
RTVSPropertyOp46
 70
     1
102
RTVSPropertyOp47
 70
     1
102
RTVSPropertyOp48
 70
     1
102
RTVSPropertyOp49
 70
     1
102
RTVSPropertyOp50
 70
     1
102
RTVSPropertyOp51
 70
     0
102
RTVSPropertyOp52
 70
     0
102
RTVSPropertyOp53
 70
     1
102
RTVSPropertyOp54
 70
     1
102
RTVSPropertyOp55
 70
     1
102
RTVSPropertyOp56
 70
     1
102
RTVSPropertyOp57
 70
     1
102
RTVSPost2010Prop28
280
     0
102
RTVSPost2010PropOp28
 70
     1
102
RTVSPost2010Prop29
280
     1
102
RTVSPost2010PropOp29
 70
     1
102
RTVSPost2010Prop30
280
     1
102
RTVSPost2010PropOp30
 70
     1
102
RTVSPost2010Prop31
280
     0
102
RTVSPost2010PropOp31
 70
     1
102
RTVSPost2010Prop32
280
     0
102
RTVSPost2010PropOp32
 70
     1
102
RTVSPost2010Prop33
280
     0
102
RTVSPost2010PropOp33
 70
     1
102
RTVSPost2010Prop34
280
     0
102
RTVSPost2010PropOp34
 70
     1
102
RTVSPost2010Prop35
280
     0
102
RTVSPost2010PropOp35
 70
     1
102
RTVSPost2010Prop36
280
     0
102
RTVSPost2010PropOp36
 70
     1
102
RTVSPost2010Prop37
 90
       50
102
RTVSPost2010PropOp37
 70
     1
102
RTVSPost2010Prop38
140
0.0
102
RTVSPost2010PropOp38
 70
     1
102
RTVSPost2010Prop39
140
1.0
102
RTVSPost2010PropOp39
 70
     1
102
RTVSPost2010Prop40
 90
        0
102
RTVSPost2010PropOp40
 70
     1
102
RTVSPost2010Prop41ColorIndex
 90
       18
102
RTVSPost2010Prop41ColorRGB
 90
        0
102
RTVSPost2010PropOp41
 70
     1
102
RTVSPost2010Prop42
 90
       50
102
RTVSPost2010PropOp42
 70
     1
102
RTVSPost2010Prop43
 90
        3
102
RTVSPost2010PropOp43
 70
     1
102
RTVSPost2010Prop44ColorIndex
 90
        5
102
RTVSPost2010Prop44ColorRGB
 90
      255
102
RTVSPost2010PropOp44
 70
     1
102
RTVSPost2010Prop45
280
     0
102
RTVSPost2010PropOp45
 70
     1
102
RTVSPost2010Prop46
 90
       50
102
RTVSPost2010PropOp46
 70
     1
102
RTVSPost2010Prop47
 90
       50
102
RTVSPost2010PropOp47
 70
     1
102
RTVSPost2010Prop48
 90
       50
102
RTVSPost2010PropOp48
 70
     1
102
RTVSPost2010Prop49
280
     0
102
RTVSPost2010PropOp49
 70
     1
102
RTVSPost2010Prop50
 90
       50
102
RTVSPost2010PropOp50
 70
     1
102
RTVSPost2010Prop51ColorIndex
 90
      256
102
RTVSPost2010Prop51ColorRGB
 90
-16777216
102
RTVSPost2010PropOp51
 70
     0
102
RTVSPost2010Prop52
140
1.0
102
RTVSPost2010PropOp52
 70
     0
102
RTVSPost2010Prop53
 90
        2
102
RTVSPost2010PropOp53
 70
     1
102
RTVSPost2010Prop54
  1
strokes_ogs.tif
102
RTVSPost2010PropOp54
 70
     1
102
RTVSPost2010Prop55
280
     0
102
RTVSPost2010PropOp55
 70
     1
102
RTVSPost2010Prop56
140
1.0
102
RTVSPost2010PropOp56
 70
     1
102
RTVSPost2010Prop57
140
1.0
102
RTVSPost2010PropOp57
 70
     1
  0
XRECORD
  5
1A0E
102
{ACAD_REACTORS
330
1A0D
102
}
330
1A0D
100
AcDbXrecord
280
     1
102
RTVSPropertyOp0
 70
     1
102
RTVSPropertyOp1
 70
     1
102
RTVSPropertyOp2
 70
     1
102
RTVSPropertyOp3
 70
     1
102
RTVSPropertyOp4
 70
     1
102
RTVSPropertyOp5
 70
     1
102
RTVSPropertyOp6
 70
     1
102
RTVSPropertyOp7
 70
     1
102
RTVSPropertyOp8
 70
     1
102
RTVSPropertyOp9
 70
     1
102
RTVSPropertyOp10
 70
     1
102
RTVSPropertyOp11
 70
     1
102
RTVSPropertyOp12
 70
     1
102
RTVSPropertyOp13
 70
     1
102
RTVSPropertyOp14
 70
     1
102
RTVSPropertyOp15
 70
     1
102
RTVSPropertyOp16
 70
     1
102
RTVSPropertyOp17
 70
     1
102
RTVSPropertyOp18
 70
     1
102
RTVSPropertyOp19
 70
     1
102
RTVSPropertyOp20
 70
     1
102
RTVSPropertyOp21
 70
     1
102
RTVSPropertyOp22
 70
     1
102
RTVSPropertyOp23
 70
     1
102
RTVSPropertyOp24
 70
     1
102
RTVSPropertyOp25
 70
     1
102
RTVSPropertyOp26
 70
     1
102
RTVSPropertyOp27
 70
     1
102
RTVSPropertyOp28
 70
     1
102
RTVSPropertyOp29
 70
     1
102
RTVSPropertyOp30
 70
     1
102
RTVSPropertyOp31
 70
     1
102
RTVSPropertyOp32
 70
     1
102
RTVSPropertyOp33
 70
     1
102
RTVSPropertyOp34
 70
     1
102
RTVSPropertyOp35
 70
     1
102
RTVSPropertyOp36
 70
     1
102
RTVSPropertyOp37
 70
     1
102
RTVSPropertyOp38
 70
     1
102
RTVSPropertyOp39
 70
     1
102
RTVSPropertyOp40
 70
     1
102
RTVSPropertyOp41
 70
     1
102
RTVSPropertyOp42
 70
     1
102
RTVSPropertyOp43
 70
     1
102
RTVSPropertyOp44
 70
     1
102
RTVSPropertyOp45
 70
     1
102
RTVSPropertyOp46
 70
     1
102
RTVSPropertyOp47
 70
     1
102
RTVSPropertyOp48
 70
     1
102
RTVSPropertyOp49
 70
     1
102
RTVSPropertyOp50
 70
     1
102
RTVSPropertyOp51
 70
     0
102
RTVSPropertyOp52
 70
     0
102
RTVSPropertyOp53
 70
     1
102
RTVSPropertyOp54
 70
     1
102
RTVSPropertyOp55
 70
     1
102
RTVSPropertyOp56
 70
     1
102
RTVSPropertyOp57
 70
     1
102
RTVSPost2010Prop28
280
     0
102
RTVSPost2010PropOp28
 70
     1
102
RTVSPost2010Prop29
280
     1
102
RTVSPost2010PropOp29
 70
     1
102
RTVSPost2010Prop30
280
     1
102
RTVSPost2010PropOp30
 70
     1
102
RTVSPost2010Prop31
280
     0
102
RTVSPost2010PropOp31
 70
     1
102
RTVSPost2010Prop32
280
     0
102
RTVSPost2010PropOp32
 70
     1
102
RTVSPost2010Prop33
280
     0
102
RTVSPost2010PropOp33
 70
     1
102
RTVSPost2010Prop34
280
     0
102
RTVSPost2010PropOp34
 70
     1
102
RTVSPost2010Prop35
280
     0
102
RTVSPost2010PropOp35
 70
     1
102
RTVSPost2010Prop36
280
     0
102
RTVSPost2010PropOp36
 70
     1
102
RTVSPost2010Prop37
 90
       50
102
RTVSPost2010PropOp37
 70
     1
102
RTVSPost2010Prop38
140
0.0
102
RTVSPost2010PropOp38
 70
     1
102
RTVSPost2010Prop39
140
1.0
102
RTVSPost2010PropOp39
 70
     1
102
RTVSPost2010Prop40
 90
        0
102
RTVSPost2010PropOp40
 70
     1
102
RTVSPost2010Prop41ColorIndex
 90
       18
102
RTVSPost2010Prop41ColorRGB
 90
        0
102
RTVSPost2010PropOp41
 70
     1
102
RTVSPost2010Prop42
 90
       50
102
RTVSPost2010PropOp42
 70
     1
102
RTVSPost2010Prop43
 90
        3
102
RTVSPost2010PropOp43
 70
     1
102
RTVSPost2010Prop44ColorIndex
 90
        5
102
RTVSPost2010Prop44ColorRGB
 90
      255
102
RTVSPost2010PropOp44
 70
     1
102
RTVSPost2010Prop45
280
     0
102
RTVSPost2010PropOp45
 70
     1
102
RTVSPost2010Prop46
 90
       50
102
RTVSPost2010PropOp46
 70
     1
102
RTVSPost2010Prop47
 90
       50
102
RTVSPost2010PropOp47
 70
     1
102
RTVSPost2010Prop48
 90
       50
102
RTVSPost2010PropOp48
 70
     1
102
RTVSPost2010Prop49
280
     0
102
RTVSPost2010PropOp49
 70
     1
102
RTVSPost2010Prop50
 90
       50
102
RTVSPost2010PropOp50
 70
     1
102
RTVSPost2010Prop51ColorIndex
 90
      256
102
RTVSPost2010Prop51ColorRGB
 90
-16777216
102
RTVSPost2010PropOp51
 70
     0
102
RTVSPost2010Prop52
140
1.0
102
RTVSPost2010PropOp52
 70
     0
102
RTVSPost2010Prop53
 90
        2
102
RTVSPost2010PropOp53
 70
     1
102
RTVSPost2010Prop54
  1
strokes_ogs.tif
102
RTVSPost2010PropOp54
 70
     1
102
RTVSPost2010Prop55
280
     0
102
RTVSPost2010PropOp55
 70
     1
102
RTVSPost2010Prop56
140
1.0
102
RTVSPost2010PropOp56
 70
     1
102
RTVSPost2010Prop57
140
1.0
102
RTVSPost2010PropOp57
 70
     1
  0
XRECORD
  5
1A08
102
{ACAD_REACTORS
330
1A07
102
}
330
1A07
100
AcDbXrecord
280
     1
102
RTVSPropertyOp0
 70
     1
102
RTVSPropertyOp1
 70
     1
102
RTVSPropertyOp2
 70
     1
102
RTVSPropertyOp3
 70
     1
102
RTVSPropertyOp4
 70
     1
102
RTVSPropertyOp5
 70
     1
102
RTVSPropertyOp6
 70
     1
102
RTVSPropertyOp7
 70
     1
102
RTVSPropertyOp8
 70
     1
102
RTVSPropertyOp9
 70
     1
102
RTVSPropertyOp10
 70
     1
102
RTVSPropertyOp11
 70
     1
102
RTVSPropertyOp12
 70
     1
102
RTVSPropertyOp13
 70
     1
102
RTVSPropertyOp14
 70
     1
102
RTVSPropertyOp15
 70
     1
102
RTVSPropertyOp16
 70
     1
102
RTVSPropertyOp17
 70
     1
102
RTVSPropertyOp18
 70
     1
102
RTVSPropertyOp19
 70
     1
102
RTVSPropertyOp20
 70
     1
102
RTVSPropertyOp21
 70
     1
102
RTVSPropertyOp22
 70
     1
102
RTVSPropertyOp23
 70
     1
102
RTVSPropertyOp24
 70
     1
102
RTVSPropertyOp25
 70
     1
102
RTVSPropertyOp26
 70
     1
102
RTVSPropertyOp27
 70
     1
102
RTVSPropertyOp28
 70
     1
102
RTVSPropertyOp29
 70
     1
102
RTVSPropertyOp30
 70
     1
102
RTVSPropertyOp31
 70
     1
102
RTVSPropertyOp32
 70
     1
102
RTVSPropertyOp33
 70
     1
102
RTVSPropertyOp34
 70
     1
102
RTVSPropertyOp35
 70
     1
102
RTVSPropertyOp36
 70
     1
102
RTVSPropertyOp37
 70
     1
102
RTVSPropertyOp38
 70
     1
102
RTVSPropertyOp39
 70
     1
102
RTVSPropertyOp40
 70
     1
102
RTVSPropertyOp41
 70
     1
102
RTVSPropertyOp42
 70
     1
102
RTVSPropertyOp43
 70
     1
102
RTVSPropertyOp44
 70
     1
102
RTVSPropertyOp45
 70
     1
102
RTVSPropertyOp46
 70
     1
102
RTVSPropertyOp47
 70
     1
102
RTVSPropertyOp48
 70
     1
102
RTVSPropertyOp49
 70
     1
102
RTVSPropertyOp50
 70
     1
102
RTVSPropertyOp51
 70
     0
102
RTVSPropertyOp52
 70
     0
102
RTVSPropertyOp53
 70
     1
102
RTVSPropertyOp54
 70
     1
102
RTVSPropertyOp55
 70
     1
102
RTVSPropertyOp56
 70
     1
102
RTVSPropertyOp57
 70
     1
102
RTVSPost2010Prop28
280
     0
102
RTVSPost2010PropOp28
 70
     1
102
RTVSPost2010Prop29
280
     1
102
RTVSPost2010PropOp29
 70
     1
102
RTVSPost2010Prop30
280
     1
102
RTVSPost2010PropOp30
 70
     1
102
RTVSPost2010Prop31
280
     0
102
RTVSPost2010PropOp31
 70
     1
102
RTVSPost2010Prop32
280
     0
102
RTVSPost2010PropOp32
 70
     1
102
RTVSPost2010Prop33
280
     0
102
RTVSPost2010PropOp33
 70
     1
102
RTVSPost2010Prop34
280
     0
102
RTVSPost2010PropOp34
 70
     1
102
RTVSPost2010Prop35
280
     0
102
RTVSPost2010PropOp35
 70
     1
102
RTVSPost2010Prop36
280
     0
102
RTVSPost2010PropOp36
 70
     1
102
RTVSPost2010Prop37
 90
       50
102
RTVSPost2010PropOp37
 70
     1
102
RTVSPost2010Prop38
140
0.0
102
RTVSPost2010PropOp38
 70
     1
102
RTVSPost2010Prop39
140
1.0
102
RTVSPost2010PropOp39
 70
     1
102
RTVSPost2010Prop40
 90
        0
102
RTVSPost2010PropOp40
 70
     1
102
RTVSPost2010Prop41ColorIndex
 90
       18
102
RTVSPost2010Prop41ColorRGB
 90
        0
102
RTVSPost2010PropOp41
 70
     1
102
RTVSPost2010Prop42
 90
       50
102
RTVSPost2010PropOp42
 70
     1
102
RTVSPost2010Prop43
 90
        3
102
RTVSPost2010PropOp43
 70
     1
102
RTVSPost2010Prop44ColorIndex
 90
        5
102
RTVSPost2010Prop44ColorRGB
 90
      255
102
RTVSPost2010PropOp44
 70
     1
102
RTVSPost2010Prop45
280
     0
102
RTVSPost2010PropOp45
 70
     1
102
RTVSPost2010Prop46
 90
       50
102
RTVSPost2010PropOp46
 70
     1
102
RTVSPost2010Prop47
 90
       50
102
RTVSPost2010PropOp47
 70
     1
102
RTVSPost2010Prop48
 90
       50
102
RTVSPost2010PropOp48
 70
     1
102
RTVSPost2010Prop49
280
     0
102
RTVSPost2010PropOp49
 70
     1
102
RTVSPost2010Prop50
 90
       50
102
RTVSPost2010PropOp50
 70
     1
102
RTVSPost2010Prop51ColorIndex
 90
      256
102
RTVSPost2010Prop51ColorRGB
 90
-16777216
102
RTVSPost2010PropOp51
 70
     0
102
RTVSPost2010Prop52
140
1.0
102
RTVSPost2010PropOp52
 70
     0
102
RTVSPost2010Prop53
 90
        2
102
RTVSPost2010PropOp53
 70
     1
102
RTVSPost2010Prop54
  1
strokes_ogs.tif
102
RTVSPost2010PropOp54
 70
     1
102
RTVSPost2010Prop55
280
     0
102
RTVSPost2010PropOp55
 70
     1
102
RTVSPost2010Prop56
140
1.0
102
RTVSPost2010PropOp56
 70
     1
102
RTVSPost2010Prop57
140
1.0
102
RTVSPost2010PropOp57
 70
     1
  0
XRECORD
  5
1A0A
102
{ACAD_REACTORS
330
1A09
102
}
330
1A09
100
AcDbXrecord
280
     1
102
RTVSPropertyOp0
 70
     1
102
RTVSPropertyOp1
 70
     1
102
RTVSPropertyOp2
 70
     1
102
RTVSPropertyOp3
 70
     1
102
RTVSPropertyOp4
 70
     1
102
RTVSPropertyOp5
 70
     1
102
RTVSPropertyOp6
 70
     1
102
RTVSPropertyOp7
 70
     1
102
RTVSPropertyOp8
 70
     1
102
RTVSPropertyOp9
 70
     1
102
RTVSPropertyOp10
 70
     1
102
RTVSPropertyOp11
 70
     1
102
RTVSPropertyOp12
 70
     1
102
RTVSPropertyOp13
 70
     1
102
RTVSPropertyOp14
 70
     1
102
RTVSPropertyOp15
 70
     1
102
RTVSPropertyOp16
 70
     1
102
RTVSPropertyOp17
 70
     1
102
RTVSPropertyOp18
 70
     1
102
RTVSPropertyOp19
 70
     1
102
RTVSPropertyOp20
 70
     1
102
RTVSPropertyOp21
 70
     1
102
RTVSPropertyOp22
 70
     1
102
RTVSPropertyOp23
 70
     1
102
RTVSPropertyOp24
 70
     1
102
RTVSPropertyOp25
 70
     1
102
RTVSPropertyOp26
 70
     1
102
RTVSPropertyOp27
 70
     1
102
RTVSPropertyOp28
 70
     1
102
RTVSPropertyOp29
 70
     1
102
RTVSPropertyOp30
 70
     1
102
RTVSPropertyOp31
 70
     1
102
RTVSPropertyOp32
 70
     1
102
RTVSPropertyOp33
 70
     1
102
RTVSPropertyOp34
 70
     1
102
RTVSPropertyOp35
 70
     1
102
RTVSPropertyOp36
 70
     1
102
RTVSPropertyOp37
 70
     1
102
RTVSPropertyOp38
 70
     1
102
RTVSPropertyOp39
 70
     1
102
RTVSPropertyOp40
 70
     1
102
RTVSPropertyOp41
 70
     1
102
RTVSPropertyOp42
 70
     1
102
RTVSPropertyOp43
 70
     1
102
RTVSPropertyOp44
 70
     1
102
RTVSPropertyOp45
 70
     1
102
RTVSPropertyOp46
 70
     1
102
RTVSPropertyOp47
 70
     1
102
RTVSPropertyOp48
 70
     1
102
RTVSPropertyOp49
 70
     1
102
RTVSPropertyOp50
 70
     1
102
RTVSPropertyOp51
 70
     0
102
RTVSPropertyOp52
 70
     0
102
RTVSPropertyOp53
 70
     1
102
RTVSPropertyOp54
 70
     1
102
RTVSPropertyOp55
 70
     1
102
RTVSPropertyOp56
 70
     1
102
RTVSPropertyOp57
 70
     1
102
RTVSPost2010Prop28
280
     0
102
RTVSPost2010PropOp28
 70
     1
102
RTVSPost2010Prop29
280
     1
102
RTVSPost2010PropOp29
 70
     1
102
RTVSPost2010Prop30
280
     1
102
RTVSPost2010PropOp30
 70
     1
102
RTVSPost2010Prop31
280
     0
102
RTVSPost2010PropOp31
 70
     1
102
RTVSPost2010Prop32
280
     0
102
RTVSPost2010PropOp32
 70
     1
102
RTVSPost2010Prop33
280
     0
102
RTVSPost2010PropOp33
 70
     1
102
RTVSPost2010Prop34
280
     0
102
RTVSPost2010PropOp34
 70
     1
102
RTVSPost2010Prop35
280
     0
102
RTVSPost2010PropOp35
 70
     1
102
RTVSPost2010Prop36
280
     0
102
RTVSPost2010PropOp36
 70
     1
102
RTVSPost2010Prop37
 90
       50
102
RTVSPost2010PropOp37
 70
     1
102
RTVSPost2010Prop38
140
0.0
102
RTVSPost2010PropOp38
 70
     1
102
RTVSPost2010Prop39
140
1.0
102
RTVSPost2010PropOp39
 70
     1
102
RTVSPost2010Prop40
 90
        0
102
RTVSPost2010PropOp40
 70
     1
102
RTVSPost2010Prop41ColorIndex
 90
       18
102
RTVSPost2010Prop41ColorRGB
 90
        0
102
RTVSPost2010PropOp41
 70
     1
102
RTVSPost2010Prop42
 90
       50
102
RTVSPost2010PropOp42
 70
     1
102
RTVSPost2010Prop43
 90
        3
102
RTVSPost2010PropOp43
 70
     1
102
RTVSPost2010Prop44ColorIndex
 90
        5
102
RTVSPost2010Prop44ColorRGB
 90
      255
102
RTVSPost2010PropOp44
 70
     1
102
RTVSPost2010Prop45
280
     0
102
RTVSPost2010PropOp45
 70
     1
102
RTVSPost2010Prop46
 90
       50
102
RTVSPost2010PropOp46
 70
     1
102
RTVSPost2010Prop47
 90
       50
102
RTVSPost2010PropOp47
 70
     1
102
RTVSPost2010Prop48
 90
       50
102
RTVSPost2010PropOp48
 70
     1
102
RTVSPost2010Prop49
280
     0
102
RTVSPost2010PropOp49
 70
     1
102
RTVSPost2010Prop50
 90
       50
102
RTVSPost2010PropOp50
 70
     1
102
RTVSPost2010Prop51ColorIndex
 90
      256
102
RTVSPost2010Prop51ColorRGB
 90
-16777216
102
RTVSPost2010PropOp51
 70
     0
102
RTVSPost2010Prop52
140
1.0
102
RTVSPost2010PropOp52
 70
     0
102
RTVSPost2010Prop53
 90
        2
102
RTVSPost2010PropOp53
 70
     1
102
RTVSPost2010Prop54
  1
strokes_ogs.tif
102
RTVSPost2010PropOp54
 70
     1
102
RTVSPost2010Prop55
280
     0
102
RTVSPost2010PropOp55
 70
     1
102
RTVSPost2010Prop56
140
1.0
102
RTVSPost2010PropOp56
 70
     1
102
RTVSPost2010Prop57
140
1.0
102
RTVSPost2010PropOp57
 70
     1
  0
XRECORD
  5
19FA
102
{ACAD_REACTORS
330
19F9
102
}
330
19F9
100
AcDbXrecord
280
     1
102
RTVSPropertyOp0
 70
     1
102
RTVSPropertyOp1
 70
     1
102
RTVSPropertyOp2
 70
     1
102
RTVSPropertyOp3
 70
     1
102
RTVSPropertyOp4
 70
     1
102
RTVSPropertyOp5
 70
     1
102
RTVSPropertyOp6
 70
     1
102
RTVSPropertyOp7
 70
     1
102
RTVSPropertyOp8
 70
     1
102
RTVSPropertyOp9
 70
     1
102
RTVSPropertyOp10
 70
     1
102
RTVSPropertyOp11
 70
     1
102
RTVSPropertyOp12
 70
     1
102
RTVSPropertyOp13
 70
     1
102
RTVSPropertyOp14
 70
     1
102
RTVSPropertyOp15
 70
     1
102
RTVSPropertyOp16
 70
     1
102
RTVSPropertyOp17
 70
     1
102
RTVSPropertyOp18
 70
     1
102
RTVSPropertyOp19
 70
     1
102
RTVSPropertyOp20
 70
     1
102
RTVSPropertyOp21
 70
     1
102
RTVSPropertyOp22
 70
     1
102
RTVSPropertyOp23
 70
     1
102
RTVSPropertyOp24
 70
     1
102
RTVSPropertyOp25
 70
     1
102
RTVSPropertyOp26
 70
     1
102
RTVSPropertyOp27
 70
     1
102
RTVSPropertyOp28
 70
     1
102
RTVSPropertyOp29
 70
     1
102
RTVSPropertyOp30
 70
     1
102
RTVSPropertyOp31
 70
     1
102
RTVSPropertyOp32
 70
     1
102
RTVSPropertyOp33
 70
     1
102
RTVSPropertyOp34
 70
     1
102
RTVSPropertyOp35
 70
     1
102
RTVSPropertyOp36
 70
     1
102
RTVSPropertyOp37
 70
     1
102
RTVSPropertyOp38
 70
     1
102
RTVSPropertyOp39
 70
     1
102
RTVSPropertyOp40
 70
     1
102
RTVSPropertyOp41
 70
     1
102
RTVSPropertyOp42
 70
     1
102
RTVSPropertyOp43
 70
     1
102
RTVSPropertyOp44
 70
     1
102
RTVSPropertyOp45
 70
     1
102
RTVSPropertyOp46
 70
     1
102
RTVSPropertyOp47
 70
     1
102
RTVSPropertyOp48
 70
     1
102
RTVSPropertyOp49
 70
     1
102
RTVSPropertyOp50
 70
     1
102
RTVSPropertyOp51
 70
     0
102
RTVSPropertyOp52
 70
     0
102
RTVSPropertyOp53
 70
     1
102
RTVSPropertyOp54
 70
     1
102
RTVSPropertyOp55
 70
     1
102
RTVSPropertyOp56
 70
     1
102
RTVSPropertyOp57
 70
     1
102
RTVSPost2010Prop28
280
     0
102
RTVSPost2010PropOp28
 70
     1
102
RTVSPost2010Prop29
280
     1
102
RTVSPost2010PropOp29
 70
     1
102
RTVSPost2010Prop30
280
     1
102
RTVSPost2010PropOp30
 70
     1
102
RTVSPost2010Prop31
280
     0
102
RTVSPost2010PropOp31
 70
     1
102
RTVSPost2010Prop32
280
     0
102
RTVSPost2010PropOp32
 70
     1
102
RTVSPost2010Prop33
280
     0
102
RTVSPost2010PropOp33
 70
     1
102
RTVSPost2010Prop34
280
     0
102
RTVSPost2010PropOp34
 70
     1
102
RTVSPost2010Prop35
280
     0
102
RTVSPost2010PropOp35
 70
     1
102
RTVSPost2010Prop36
280
     0
102
RTVSPost2010PropOp36
 70
     1
102
RTVSPost2010Prop37
 90
       50
102
RTVSPost2010PropOp37
 70
     1
102
RTVSPost2010Prop38
140
0.0
102
RTVSPost2010PropOp38
 70
     1
102
RTVSPost2010Prop39
140
1.0
102
RTVSPost2010PropOp39
 70
     1
102
RTVSPost2010Prop40
 90
        0
102
RTVSPost2010PropOp40
 70
     1
102
RTVSPost2010Prop41ColorIndex
 90
       18
102
RTVSPost2010Prop41ColorRGB
 90
        0
102
RTVSPost2010PropOp41
 70
     1
102
RTVSPost2010Prop42
 90
       50
102
RTVSPost2010PropOp42
 70
     1
102
RTVSPost2010Prop43
 90
        3
102
RTVSPost2010PropOp43
 70
     1
102
RTVSPost2010Prop44ColorIndex
 90
        5
102
RTVSPost2010Prop44ColorRGB
 90
      255
102
RTVSPost2010PropOp44
 70
     1
102
RTVSPost2010Prop45
280
     0
102
RTVSPost2010PropOp45
 70
     1
102
RTVSPost2010Prop46
 90
       50
102
RTVSPost2010PropOp46
 70
     1
102
RTVSPost2010Prop47
 90
       50
102
RTVSPost2010PropOp47
 70
     1
102
RTVSPost2010Prop48
 90
       50
102
RTVSPost2010PropOp48
 70
     1
102
RTVSPost2010Prop49
280
     0
102
RTVSPost2010PropOp49
 70
     1
102
RTVSPost2010Prop50
 90
       50
102
RTVSPost2010PropOp50
 70
     1
102
RTVSPost2010Prop51ColorIndex
 90
      256
102
RTVSPost2010Prop51ColorRGB
 90
-16777216
102
RTVSPost2010PropOp51
 70
     0
102
RTVSPost2010Prop52
140
1.0
102
RTVSPost2010PropOp52
 70
     0
102
RTVSPost2010Prop53
 90
        2
102
RTVSPost2010PropOp53
 70
     1
102
RTVSPost2010Prop54
  1
strokes_ogs.tif
102
RTVSPost2010PropOp54
 70
     1
102
RTVSPost2010Prop55
280
     0
102
RTVSPost2010PropOp55
 70
     1
102
RTVSPost2010Prop56
140
1.0
102
RTVSPost2010PropOp56
 70
     1
102
RTVSPost2010Prop57
140
1.0
102
RTVSPost2010PropOp57
 70
     1
  0
XRECORD
  5
19EC
102
{ACAD_REACTORS
330
19EB
102
}
330
19EB
100
AcDbXrecord
280
     1
102
RTVSPropertyOp0
 70
     1
102
RTVSPropertyOp1
 70
     1
102
RTVSPropertyOp2
 70
     1
102
RTVSPropertyOp3
 70
     1
102
RTVSPropertyOp4
 70
     1
102
RTVSPropertyOp5
 70
     1
102
RTVSPropertyOp6
 70
     1
102
RTVSPropertyOp7
 70
     1
102
RTVSPropertyOp8
 70
     1
102
RTVSPropertyOp9
 70
     1
102
RTVSPropertyOp10
 70
     1
102
RTVSPropertyOp11
 70
     1
102
RTVSPropertyOp12
 70
     1
102
RTVSPropertyOp13
 70
     1
102
RTVSPropertyOp14
 70
     1
102
RTVSPropertyOp15
 70
     1
102
RTVSPropertyOp16
 70
     1
102
RTVSPropertyOp17
 70
     1
102
RTVSPropertyOp18
 70
     1
102
RTVSPropertyOp19
 70
     1
102
RTVSPropertyOp20
 70
     1
102
RTVSPropertyOp21
 70
     1
102
RTVSPropertyOp22
 70
     1
102
RTVSPropertyOp23
 70
     1
102
RTVSPropertyOp24
 70
     1
102
RTVSPropertyOp25
 70
     1
102
RTVSPropertyOp26
 70
     1
102
RTVSPropertyOp27
 70
     1
102
RTVSPropertyOp28
 70
     1
102
RTVSPropertyOp29
 70
     1
102
RTVSPropertyOp30
 70
     1
102
RTVSPropertyOp31
 70
     1
102
RTVSPropertyOp32
 70
     1
102
RTVSPropertyOp33
 70
     1
102
RTVSPropertyOp34
 70
     1
102
RTVSPropertyOp35
 70
     1
102
RTVSPropertyOp36
 70
     1
102
RTVSPropertyOp37
 70
     1
102
RTVSPropertyOp38
 70
     1
102
RTVSPropertyOp39
 70
     1
102
RTVSPropertyOp40
 70
     1
102
RTVSPropertyOp41
 70
     1
102
RTVSPropertyOp42
 70
     1
102
RTVSPropertyOp43
 70
     1
102
RTVSPropertyOp44
 70
     1
102
RTVSPropertyOp45
 70
     1
102
RTVSPropertyOp46
 70
     1
102
RTVSPropertyOp47
 70
     1
102
RTVSPropertyOp48
 70
     1
102
RTVSPropertyOp49
 70
     1
102
RTVSPropertyOp50
 70
     1
102
RTVSPropertyOp51
 70
     0
102
RTVSPropertyOp52
 70
     0
102
RTVSPropertyOp53
 70
     1
102
RTVSPropertyOp54
 70
     1
102
RTVSPropertyOp55
 70
     1
102
RTVSPropertyOp56
 70
     1
102
RTVSPropertyOp57
 70
     1
102
RTVSPost2010Prop28
280
     0
102
RTVSPost2010PropOp28
 70
     1
102
RTVSPost2010Prop29
280
     1
102
RTVSPost2010PropOp29
 70
     1
102
RTVSPost2010Prop30
280
     1
102
RTVSPost2010PropOp30
 70
     1
102
RTVSPost2010Prop31
280
     0
102
RTVSPost2010PropOp31
 70
     1
102
RTVSPost2010Prop32
280
     0
102
RTVSPost2010PropOp32
 70
     1
102
RTVSPost2010Prop33
280
     0
102
RTVSPost2010PropOp33
 70
     1
102
RTVSPost2010Prop34
280
     0
102
RTVSPost2010PropOp34
 70
     1
102
RTVSPost2010Prop35
280
     0
102
RTVSPost2010PropOp35
 70
     1
102
RTVSPost2010Prop36
280
     0
102
RTVSPost2010PropOp36
 70
     1
102
RTVSPost2010Prop37
 90
       50
102
RTVSPost2010PropOp37
 70
     1
102
RTVSPost2010Prop38
140
0.0
102
RTVSPost2010PropOp38
 70
     1
102
RTVSPost2010Prop39
140
1.0
102
RTVSPost2010PropOp39
 70
     1
102
RTVSPost2010Prop40
 90
        0
102
RTVSPost2010PropOp40
 70
     1
102
RTVSPost2010Prop41ColorIndex
 90
       18
102
RTVSPost2010Prop41ColorRGB
 90
        0
102
RTVSPost2010PropOp41
 70
     1
102
RTVSPost2010Prop42
 90
       50
102
RTVSPost2010PropOp42
 70
     1
102
RTVSPost2010Prop43
 90
        3
102
RTVSPost2010PropOp43
 70
     1
102
RTVSPost2010Prop44ColorIndex
 90
        5
102
RTVSPost2010Prop44ColorRGB
 90
      255
102
RTVSPost2010PropOp44
 70
     1
102
RTVSPost2010Prop45
280
     0
102
RTVSPost2010PropOp45
 70
     1
102
RTVSPost2010Prop46
 90
       50
102
RTVSPost2010PropOp46
 70
     1
102
RTVSPost2010Prop47
 90
       50
102
RTVSPost2010PropOp47
 70
     1
102
RTVSPost2010Prop48
 90
       50
102
RTVSPost2010PropOp48
 70
     1
102
RTVSPost2010Prop49
280
     0
102
RTVSPost2010PropOp49
 70
     1
102
RTVSPost2010Prop50
 90
       50
102
RTVSPost2010PropOp50
 70
     1
102
RTVSPost2010Prop51ColorIndex
 90
      256
102
RTVSPost2010Prop51ColorRGB
 90
-16777216
102
RTVSPost2010PropOp51
 70
     0
102
RTVSPost2010Prop52
140
1.0
102
RTVSPost2010PropOp52
 70
     0
102
RTVSPost2010Prop53
 90
        2
102
RTVSPost2010PropOp53
 70
     1
102
RTVSPost2010Prop54
  1
strokes_ogs.tif
102
RTVSPost2010PropOp54
 70
     1
102
RTVSPost2010Prop55
280
     0
102
RTVSPost2010PropOp55
 70
     1
102
RTVSPost2010Prop56
140
1.0
102
RTVSPost2010PropOp56
 70
     1
102
RTVSPost2010Prop57
140
1.0
102
RTVSPost2010PropOp57
 70
     1
  0
XRECORD
  5
1A0C
102
{ACAD_REACTORS
330
1A0B
102
}
330
1A0B
100
AcDbXrecord
280
     1
102
RTVSPropertyOp0
 70
     1
102
RTVSPropertyOp1
 70
     1
102
RTVSPropertyOp2
 70
     1
102
RTVSPropertyOp3
 70
     1
102
RTVSPropertyOp4
 70
     1
102
RTVSPropertyOp5
 70
     1
102
RTVSPropertyOp6
 70
     1
102
RTVSPropertyOp7
 70
     1
102
RTVSPropertyOp8
 70
     1
102
RTVSPropertyOp9
 70
     1
102
RTVSPropertyOp10
 70
     1
102
RTVSPropertyOp11
 70
     1
102
RTVSPropertyOp12
 70
     1
102
RTVSPropertyOp13
 70
     1
102
RTVSPropertyOp14
 70
     1
102
RTVSPropertyOp15
 70
     1
102
RTVSPropertyOp16
 70
     1
102
RTVSPropertyOp17
 70
     1
102
RTVSPropertyOp18
 70
     1
102
RTVSPropertyOp19
 70
     1
102
RTVSPropertyOp20
 70
     1
102
RTVSPropertyOp21
 70
     1
102
RTVSPropertyOp22
 70
     1
102
RTVSPropertyOp23
 70
     1
102
RTVSPropertyOp24
 70
     1
102
RTVSPropertyOp25
 70
     1
102
RTVSPropertyOp26
 70
     1
102
RTVSPropertyOp27
 70
     1
102
RTVSPropertyOp28
 70
     1
102
RTVSPropertyOp29
 70
     1
102
RTVSPropertyOp30
 70
     1
102
RTVSPropertyOp31
 70
     1
102
RTVSPropertyOp32
 70
     1
102
RTVSPropertyOp33
 70
     1
102
RTVSPropertyOp34
 70
     1
102
RTVSPropertyOp35
 70
     1
102
RTVSPropertyOp36
 70
     1
102
RTVSPropertyOp37
 70
     1
102
RTVSPropertyOp38
 70
     1
102
RTVSPropertyOp39
 70
     1
102
RTVSPropertyOp40
 70
     1
102
RTVSPropertyOp41
 70
     1
102
RTVSPropertyOp42
 70
     1
102
RTVSPropertyOp43
 70
     1
102
RTVSPropertyOp44
 70
     1
102
RTVSPropertyOp45
 70
     1
102
RTVSPropertyOp46
 70
     1
102
RTVSPropertyOp47
 70
     1
102
RTVSPropertyOp48
 70
     1
102
RTVSPropertyOp49
 70
     1
102
RTVSPropertyOp50
 70
     1
102
RTVSPropertyOp51
 70
     0
102
RTVSPropertyOp52
 70
     0
102
RTVSPropertyOp53
 70
     1
102
RTVSPropertyOp54
 70
     1
102
RTVSPropertyOp55
 70
     1
102
RTVSPropertyOp56
 70
     1
102
RTVSPropertyOp57
 70
     1
102
RTVSPost2010Prop28
280
     0
102
RTVSPost2010PropOp28
 70
     1
102
RTVSPost2010Prop29
280
     1
102
RTVSPost2010PropOp29
 70
     1
102
RTVSPost2010Prop30
280
     1
102
RTVSPost2010PropOp30
 70
     1
102
RTVSPost2010Prop31
280
     0
102
RTVSPost2010PropOp31
 70
     1
102
RTVSPost2010Prop32
280
     0
102
RTVSPost2010PropOp32
 70
     1
102
RTVSPost2010Prop33
280
     0
102
RTVSPost2010PropOp33
 70
     1
102
RTVSPost2010Prop34
280
     0
102
RTVSPost2010PropOp34
 70
     1
102
RTVSPost2010Prop35
280
     0
102
RTVSPost2010PropOp35
 70
     1
102
RTVSPost2010Prop36
280
     0
102
RTVSPost2010PropOp36
 70
     1
102
RTVSPost2010Prop37
 90
       50
102
RTVSPost2010PropOp37
 70
     1
102
RTVSPost2010Prop38
140
0.0
102
RTVSPost2010PropOp38
 70
     1
102
RTVSPost2010Prop39
140
1.0
102
RTVSPost2010PropOp39
 70
     1
102
RTVSPost2010Prop40
 90
        0
102
RTVSPost2010PropOp40
 70
     1
102
RTVSPost2010Prop41ColorIndex
 90
       18
102
RTVSPost2010Prop41ColorRGB
 90
        0
102
RTVSPost2010PropOp41
 70
     1
102
RTVSPost2010Prop42
 90
       50
102
RTVSPost2010PropOp42
 70
     1
102
RTVSPost2010Prop43
 90
        3
102
RTVSPost2010PropOp43
 70
     1
102
RTVSPost2010Prop44ColorIndex
 90
        5
102
RTVSPost2010Prop44ColorRGB
 90
      255
102
RTVSPost2010PropOp44
 70
     1
102
RTVSPost2010Prop45
280
     0
102
RTVSPost2010PropOp45
 70
     1
102
RTVSPost2010Prop46
 90
       50
102
RTVSPost2010PropOp46
 70
     1
102
RTVSPost2010Prop47
 90
       50
102
RTVSPost2010PropOp47
 70
     1
102
RTVSPost2010Prop48
 90
       50
102
RTVSPost2010PropOp48
 70
     1
102
RTVSPost2010Prop49
280
     0
102
RTVSPost2010PropOp49
 70
     1
102
RTVSPost2010Prop50
 90
       50
102
RTVSPost2010PropOp50
 70
     1
102
RTVSPost2010Prop51ColorIndex
 90
      256
102
RTVSPost2010Prop51ColorRGB
 90
-16777216
102
RTVSPost2010PropOp51
 70
     0
102
RTVSPost2010Prop52
140
1.0
102
RTVSPost2010PropOp52
 70
     0
102
RTVSPost2010Prop53
 90
        2
102
RTVSPost2010PropOp53
 70
     1
102
RTVSPost2010Prop54
  1
strokes_ogs.tif
102
RTVSPost2010PropOp54
 70
     1
102
RTVSPost2010Prop55
280
     0
102
RTVSPost2010PropOp55
 70
     1
102
RTVSPost2010Prop56
140
1.0
102
RTVSPost2010PropOp56
 70
     1
102
RTVSPost2010Prop57
140
1.0
102
RTVSPost2010PropOp57
 70
     1
  0
ENDSEC
  0
EOF
