  0
SECTION
  2
HEADER
  9
$ACADVER
  1
AC1015
  9
$ACADMAINTVER
 70
     6
  9
$DWGCODEPAGE
  3
ANSI_1252
  9
$INSBASE
 10
0.0
 20
0.0
 30
0.0
  9
$EXTMIN
 10
133978.9969952313
 20
3891.266711806951
 30
0.0
  9
$EXTMAX
 10
143031.4241946104
 20
11897.82480075524
 30
0.0
  9
$LIMMIN
 10
0.0
 20
0.0
  9
$LIMMAX
 10
59400.0
 20
42000.0
  9
$ORTHOMODE
 70
     1
  9
$REGENMODE
 70
     1
  9
$FILLMODE
 70
     1
  9
$QTEXTMODE
 70
     0
  9
$MIRRTEXT
 70
     0
  9
$LTSCALE
 40
500.0
  9
$ATTMODE
 70
     1
  9
$TEXTSIZE
 40
0.2
  9
$TRACEWID
 40
0.05
  9
$TEXTSTYLE
  7
STANDARD
  9
$CLAYER
  8
0
  9
$CELTYPE
  6
CONTINUOUS
  9
$CECOLOR
 62
   256
  9
$CELTSCALE
 40
1.0
  9
$DISPSILH
 70
     0
  9
$DIMSCALE
 40
1.0
  9
$DIMASZ
 40
0.18
  9
$DIMEXO
 40
0.0625
  9
$DIMDLI
 40
0.38
  9
$DIMRND
 40
0.0
  9
$DIMDLE
 40
0.0
  9
$DIMEXE
 40
0.18
  9
$DIMTP
 40
0.0
  9
$DIMTM
 40
0.0
  9
$DIMTXT
 40
0.18
  9
$DIMCEN
 40
0.09
  9
$DIMTSZ
 40
0.0
  9
$DIMTOL
 70
     0
  9
$DIMLIM
 70
     0
  9
$DIMTIH
 70
     1
  9
$DIMTOH
 70
     1
  9
$DIMSE1
 70
     0
  9
$DIMSE2
 70
     0
  9
$DIMTAD
 70
     0
  9
$DIMZIN
 70
     0
  9
$DIMBLK
  1

  9
$DIMASO
 70
     1
  9
$DIMSHO
 70
     1
  9
$DIMPOST
  1

  9
$DIMAPOST
  1

  9
$DIMALT
 70
     0
  9
$DIMALTD
 70
     2
  9
$DIMALTF
 40
25.4
  9
$DIMLFAC
 40
1.0
  9
$DIMTOFL
 70
     0
  9
$DIMTVP
 40
0.0
  9
$DIMTIX
 70
     0
  9
$DIMSOXD
 70
     0
  9
$DIMSAH
 70
     0
  9
$DIMBLK1
  1

  9
$DIMBLK2
  1

  9
$DIMSTYLE
  2
Standard
  9
$DIMCLRD
 70
     0
  9
$DIMCLRE
 70
     0
  9
$DIMCLRT
 70
     0
  9
$DIMTFAC
 40
1.0
  9
$DIMGAP
 40
0.09
  9
$DIMJUST
 70
     0
  9
$DIMSD1
 70
     0
  9
$DIMSD2
 70
     0
  9
$DIMTOLJ
 70
     1
  9
$DIMTZIN
 70
     0
  9
$DIMALTZ
 70
     0
  9
$DIMALTTZ
 70
     0
  9
$DIMUPT
 70
     0
  9
$DIMDEC
 70
     4
  9
$DIMTDEC
 70
     4
  9
$DIMALTU
 70
     2
  9
$DIMALTTD
 70
     2
  9
$DIMTXSTY
  7
STANDARD
  9
$DIMAUNIT
 70
     0
  9
$DIMADEC
 70
     0
  9
$DIMALTRND
 40
0.0
  9
$DIMAZIN
 70
     0
  9
$DIMDSEP
 70
    46
  9
$DIMATFIT
 70
     3
  9
$DIMFRAC
 70
     0
  9
$DIMLDRBLK
  1

  9
$DIMLUNIT
 70
     2
  9
$DIMLWD
 70
    -2
  9
$DIMLWE
 70
    -2
  9
$DIMTMOVE
 70
     0
  9
$LUNITS
 70
     2
  9
$LUPREC
 70
     4
  9
$SKETCHINC
 40
0.1
  9
$FILLETRAD
 40
0.0
  9
$AUNITS
 70
     0
  9
$AUPREC
 70
     0
  9
$MENU
  1
.
  9
$ELEVATION
 40
0.0
  9
$PELEVATION
 40
0.0
  9
$THICKNESS
 40
0.0
  9
$LIMCHECK
 70
     0
  9
$CHAMFERA
 40
0.0
  9
$CHAMFERB
 40
0.0
  9
$CHAMFERC
 40
0.0
  9
$CHAMFERD
 40
0.0
  9
$SKPOLY
 70
     0
  9
$TDCREATE
 40
2454198.329016597
  9
$TDUCREATE
 40
2454198.28734993
  9
$TDUPDATE
 40
2460301.587274908
  9
$TDUUPDATE
 40
2460301.545608241
  9
$TDINDWG
 40
0.0814236111
  9
$TDUSRTIMER
 40
0.0814236111
  9
$USRTIMER
 70
     1
  9
$ANGBASE
 50
0.0
  9
$ANGDIR
 70
     0
  9
$PDMODE
 70
     0
  9
$PDSIZE
 40
0.0
  9
$PLINEWID
 40
0.0
  9
$SPLFRAME
 70
     0
  9
$SPLINETYPE
 70
     6
  9
$SPLINESEGS
 70
     8
  9
$HANDSEED
  5
109E2
  9
$SURFTAB1
 70
     6
  9
$SURFTAB2
 70
     6
  9
$SURFTYPE
 70
     6
  9
$SURFU
 70
     6
  9
$SURFV
 70
     6
  9
$UCSBASE
  2

  9
$UCSNAME
  2

  9
$UCSORG
 10
0.0
 20
0.0
 30
0.0
  9
$UCSXDIR
 10
1.0
 20
0.0
 30
0.0
  9
$UCSYDIR
 10
0.0
 20
1.0
 30
0.0
  9
$UCSORTHOREF
  2

  9
$UCSORTHOVIEW
 70
     0
  9
$UCSORGTOP
 10
0.0
 20
0.0
 30
0.0
  9
$UCSORGBOTTOM
 10
0.0
 20
0.0
 30
0.0
  9
$UCSORGLEFT
 10
0.0
 20
0.0
 30
0.0
  9
$UCSORGRIGHT
 10
0.0
 20
0.0
 30
0.0
  9
$UCSORGFRONT
 10
0.0
 20
0.0
 30
0.0
  9
$UCSORGBACK
 10
0.0
 20
0.0
 30
0.0
  9
$PUCSBASE
  2

  9
$PUCSNAME
  2

  9
$PUCSORG
 10
0.0
 20
0.0
 30
0.0
  9
$PUCSXDIR
 10
1.0
 20
0.0
 30
0.0
  9
$PUCSYDIR
 10
0.0
 20
1.0
 30
0.0
  9
$PUCSORTHOREF
  2

  9
$PUCSORTHOVIEW
 70
     0
  9
$PUCSORGTOP
 10
0.0
 20
0.0
 30
0.0
  9
$PUCSORGBOTTOM
 10
0.0
 20
0.0
 30
0.0
  9
$PUCSORGLEFT
 10
0.0
 20
0.0
 30
0.0
  9
$PUCSORGRIGHT
 10
0.0
 20
0.0
 30
0.0
  9
$PUCSORGFRONT
 10
0.0
 20
0.0
 30
0.0
  9
$PUCSORGBACK
 10
0.0
 20
0.0
 30
0.0
  9
$USERI1
 70
     0
  9
$USERI2
 70
     0
  9
$USERI3
 70
     0
  9
$USERI4
 70
     0
  9
$USERI5
 70
     0
  9
$USERR1
 40
0.0
  9
$USERR2
 40
0.0
  9
$USERR3
 40
0.0
  9
$USERR4
 40
0.0
  9
$USERR5
 40
0.0
  9
$WORLDVIEW
 70
     1
  9
$SHADEDGE
 70
     3
  9
$SHADEDIF
 70
    70
  9
$TILEMODE
 70
     0
  9
$MAXACTVP
 70
    64
  9
$PINSBASE
 10
0.0
 20
0.0
 30
0.0
  9
$PLIMCHECK
 70
     0
  9
$PEXTMIN
 10
1.049999952316284
 20
0.7999999523162842
 30
0.0
  9
$PEXTMAX
 10
9.449999570846556
 20
7.199999570846557
 30
0.0
  9
$PLIMMIN
 10
-0.2500002402958907
 20
-0.2499999962453767
  9
$PLIMMAX
 10
10.74999951940822
 20
8.249999763458732
  9
$UNITMODE
 70
     0
  9
$VISRETAIN
 70
     1
  9
$PLINEGEN
 70
     0
  9
$PSLTSCALE
 70
     1
  9
$TREEDEPTH
 70
  3020
  9
$CMLSTYLE
  2
Standard
  9
$CMLJUST
 70
     0
  9
$CMLSCALE
 40
1.0
  9
$PROXYGRAPHICS
 70
     1
  9
$MEASUREMENT
 70
     0
  9
$CELWEIGHT
370
    -1
  9
$ENDCAPS
280
     0
  9
$JOINSTYLE
280
     0
  9
$LWDISPLAY
290
     0
  9
$INSUNITS
 70
     0
  9
$HYPERLINKBASE
  1

  9
$STYLESHEET
  1
Daniele.ctb
  9
$XEDIT
290
     1
  9
$CEPSNTYPE
380
     0
  9
$PSTYLEMODE
290
     1
  9
$FINGERPRINTGUID
  2
{DDD00D4B-BAB8-467C-AFF1-09B7304343A5}
  9
$VERSIONGUID
  2
{9F525A44-D543-4486-8F07-A04EEB260C02}
  9
$EXTNAMES
290
     1
  9
$PSVPSCALE
 40
0.0
  9
$OLESTARTUP
290
     0
  0
ENDSEC
  0
SECTION
  2
CLASSES
  0
CLASS
  1
ACDBDICTIONARYWDFLT
  2
AcDbDictionaryWithDefault
  3
ObjectDBX Classes
 90
        0
280
     0
281
     0
  0
CLASS
  1
TABLESTYLE
  2
AcDbTableStyle
  3
ObjectDBX Classes
 90
     4095
280
     0
281
     0
  0
CLASS
  1
DICTIONARYVAR
  2
AcDbDictionaryVar
  3
ObjectDBX Classes
 90
        0
280
     0
281
     0
  0
CLASS
  1
ACDBPLACEHOLDER
  2
AcDbPlaceHolder
  3
ObjectDBX Classes
 90
        0
280
     0
281
     0
  0
CLASS
  1
LAYOUT
  2
AcDbLayout
  3
ObjectDBX Classes
 90
        0
280
     0
281
     0
  0
CLASS
  1
DIMASSOC
  2
AcDbDimAssoc
  3
"AcDbDimAssoc|Product Desc:     AcDim ARX App For Dimension|Company:          Autodesk, Inc.|WEB Address:      www.autodesk.com"
 90
        0
280
     0
281
     0
  0
CLASS
  1
SORTENTSTABLE
  2
AcDbSortentsTable
  3
ObjectDBX Classes
 90
        0
280
     0
281
     0
  0
CLASS
  1
VISUALSTYLE
  2
AcDbVisualStyle
  3
ObjectDBX Classes
 90
     4095
280
     0
281
     0
  0
CLASS
  1
SCALE
  2
AcDbScale
  3
ObjectDBX Classes
 90
     1153
280
     0
281
     0
  0
CLASS
  1
MATERIAL
  2
AcDbMaterial
  3
ObjectDBX Classes
 90
     1153
280
     0
281
     0
  0
CLASS
  1
MLEADERSTYLE
  2
AcDbMLeaderStyle
  3
ACDB_MLEADERSTYLE_CLASS
 90
     4095
280
     0
281
     0
  0
ENDSEC
  0
SECTION
  2
TABLES
  0
TABLE
  2
VPORT
  5
8
102
{ACAD_XDICTIONARY
360
109A6
102
}
330
0
100
AcDbSymbolTable
 70
     1
  0
VPORT
  5
10961
330
8
100
AcDbSymbolTableRecord
100
AcDbViewportTableRecord
  2
*Active
 70
     0
 10
0.0
 20
0.0
 11
1.0
 21
1.0
 12
138137.8592177605
 22
6732.823761299645
 13
0.0
 23
0.0
 14
1.0
 24
1.0
 15
0.0
 25
0.0
 16
0.0
 26
0.0
 36
1.0
 17
0.0
 27
0.0
 37
0.0
 40
9724.329244393884
 41
1.575396825396825
 42
50.0
 43
0.0
 44
0.0
 50
0.0
 51
0.0
 71
     0
 72
   100
 73
     1
 74
     1
 75
     0
 76
     0
 77
     0
 78
     0
281
     0
 65
     1
110
0.0
120
0.0
130
0.0
111
1.0
121
0.0
131
0.0
112
0.0
122
1.0
132
0.0
 79
     0
146
0.0
  0
ENDTAB
  0
TABLE
  2
LTYPE
  5
5
330
0
100
AcDbSymbolTable
 70
     1
  0
LTYPE
  5
13
330
5
100
AcDbSymbolTableRecord
100
AcDbLinetypeTableRecord
  2
ByBlock
 70
     0
  3

 72
    65
 73
     0
 40
0.0
  0
LTYPE
  5
14
330
5
100
AcDbSymbolTableRecord
100
AcDbLinetypeTableRecord
  2
ByLayer
 70
     0
  3

 72
    65
 73
     0
 40
0.0
  0
LTYPE
  5
15
330
5
100
AcDbSymbolTableRecord
100
AcDbLinetypeTableRecord
  2
CONTINUOUS
 70
     0
  3
Solid Line
 72
    65
 73
     0
 40
0.0
  0
ENDTAB
  0
TABLE
  2
LAYER
  5
2
102
{ACAD_XDICTIONARY
360
287B
102
}
330
0
100
AcDbSymbolTable
 70
     4
  0
LAYER
  5
10
330
2
100
AcDbSymbolTableRecord
100
AcDbLayerTableRecord
  2
0
 70
     0
 62
     7
  6
CONTINUOUS
370
    -3
390
F
  0
LAYER
  5
33
330
2
100
AcDbSymbolTableRecord
100
AcDbLayerTableRecord
  2
_8___INFO_IMP__A_PAVIMENTO
 70
     0
 62
   255
  6
CONTINUOUS
370
    -3
390
F
  0
LAYER
  5
2870
330
2
100
AcDbSymbolTableRecord
100
AcDbLayerTableRecord
  2
DEFPOINTS
 70
     0
 62
     7
  6
CONTINUOUS
290
     0
370
    -3
390
F
  0
LAYER
  5
1095D
330
2
100
AcDbSymbolTableRecord
100
AcDbLayerTableRecord
  2
TODO
 70
     0
 62
     7
  6
CONTINUOUS
370
    -3
390
F
  0
ENDTAB
  0
TABLE
  2
STYLE
  5
3
330
0
100
AcDbSymbolTable
 70
     3
  0
STYLE
  5
11
330
3
100
AcDbSymbolTableRecord
100
AcDbTextStyleTableRecord
  2
STANDARD
 70
     0
 40
0.0
 41
1.0
 50
0.0
 71
     0
 42
0.2
  3
ARIAL.TTF
  4

1001
ACAD
1000
Arial
1071
       34
  0
STYLE
  5
2875
330
3
100
AcDbSymbolTableRecord
100
AcDbTextStyleTableRecord
  2
CKSTANDARD
 70
     0
 40
0.0
 41
0.75
 50
0.0
 71
     0
 42
2.5
  3
ARIAL.TTF
  4

1001
ACAD
1000
Arial
1071
       34
  0
STYLE
  5
10997
330
3
100
AcDbSymbolTableRecord
100
AcDbTextStyleTableRecord
  2
MtXpl_Swis721 BlkOul BT
 70
     0
 40
0.2
 41
1.0
 50
0.0
 71
     0
 42
0.2
  3

  4

1001
ACAD
1000
Swis721 BlkOul BT
1071
       82
  0
ENDTAB
  0
TABLE
  2
VIEW
  5
6
330
0
100
AcDbSymbolTable
 70
     0
  0
ENDTAB
  0
TABLE
  2
UCS
  5
7
330
0
100
AcDbSymbolTable
 70
     0
  0
ENDTAB
  0
TABLE
  2
APPID
  5
9
330
0
100
AcDbSymbolTable
 70
     5
  0
APPID
  5
12
330
9
100
AcDbSymbolTableRecord
100
AcDbRegAppTableRecord
  2
ACAD
 70
     0
  0
APPID
  5
287A
330
9
100
AcDbSymbolTableRecord
100
AcDbRegAppTableRecord
  2
ACAD_PSEXT
 70
     0
  0
APPID
  5
BC6F
330
9
100
AcDbSymbolTableRecord
100
AcDbRegAppTableRecord
  2
DCO15
 70
     0
  0
APPID
  5
E1AA
330
9
100
AcDbSymbolTableRecord
100
AcDbRegAppTableRecord
  2
ACAD_EXEMPT_FROM_CAD_STANDARDS
 70
     0
  0
APPID
  5
109DF
330
9
100
AcDbSymbolTableRecord
100
AcDbRegAppTableRecord
  2
ACAD_MLEADERVER
 70
     0
  0
ENDTAB
  0
TABLE
  2
DIMSTYLE
  5
A
330
0
100
AcDbSymbolTable
 70
     1
100
AcDbDimStyleTable
  0
DIMSTYLE
105
1624
330
A
100
AcDbSymbolTableRecord
100
AcDbDimStyleTableRecord
  2
Standard
 70
     0
178
     0
340
11
  0
ENDTAB
  0
TABLE
  2
BLOCK_RECORD
  5
1
330
0
100
AcDbSymbolTable
 70
     0
  0
BLOCK_RECORD
  5
22
102
{ACAD_XDICTIONARY
360
455E
102
}
330
1
100
AcDbSymbolTableRecord
100
AcDbBlockTableRecord
  2
*Model_Space
340
25
  0
BLOCK_RECORD
  5
1E
330
1
100
AcDbSymbolTableRecord
100
AcDbBlockTableRecord
  2
*Paper_Space
340
21
  0
ENDTAB
  0
ENDSEC
  0
SECTION
  2
BLOCKS
  0
BLOCK
  5
23
330
22
100
AcDbEntity
  8
0
100
AcDbBlockBegin
  2
*Model_Space
 70
     0
 10
0.0
 20
0.0
 30
0.0
  3
*Model_Space
  1

  0
ENDBLK
  5
24
330
22
100
AcDbEntity
  8
0
100
AcDbBlockEnd
  0
BLOCK
  5
1F
330
1E
100
AcDbEntity
 67
     1
  8
0
100
AcDbBlockBegin
  2
*Paper_Space
 70
     0
 10
0.0
 20
0.0
 30
0.0
  3
*Paper_Space
  1

  0
ENDBLK
  5
20
330
1E
100
AcDbEntity
 67
     1
  8
0
100
AcDbBlockEnd
  0
ENDSEC
  0
SECTION
  2
ENTITIES
  0
TEXT
  5
1259
330
22
100
AcDbEntity
  8
_8___INFO_IMP__A_PAVIMENTO
100
AcDbText
 10
20535.0
 20
6500.0
 30
0.0
 40
166.666667
  1

 41
0.754286
100
AcDbText
  0
TEXT
  5
125A
330
22
100
AcDbEntity
  8
_8___INFO_IMP__A_PAVIMENTO
100
AcDbText
 10
20535.0
 20
6200.0
 30
0.0
 40
166.666667
  1

 41
0.754286
100
AcDbText
  0
TEXT
  5
125B
330
22
100
AcDbEntity
  8
_8___INFO_IMP__A_PAVIMENTO
100
AcDbText
 10
20535.0
 20
5900.0
 30
0.0
 40
166.666667
  1

 41
0.754286
100
AcDbText
  0
TEXT
  5
125D
330
22
100
AcDbEntity
  8
_8___INFO_IMP__A_PAVIMENTO
100
AcDbText
 10
20535.0
 20
5600.0
 30
0.0
 40
166.666667
  1

 41
0.754286
100
AcDbText
  0
TEXT
  5
1269
330
22
100
AcDbEntity
  8
_8___INFO_IMP__A_PAVIMENTO
100
AcDbText
 10
23385.0
 20
6500.0
 30
0.0
 40
166.666667
  1

 41
0.754286
100
AcDbText
  0
TEXT
  5
126A
330
22
100
AcDbEntity
  8
_8___INFO_IMP__A_PAVIMENTO
100
AcDbText
 10
23385.0
 20
6200.0
 30
0.0
 40
166.666667
  1

 41
0.754286
100
AcDbText
  0
TEXT
  5
126B
330
22
100
AcDbEntity
  8
_8___INFO_IMP__A_PAVIMENTO
100
AcDbText
 10
23385.0
 20
5900.0
 30
0.0
 40
166.666667
  1

 41
0.754286
100
AcDbText
  0
TEXT
  5
126D
330
22
100
AcDbEntity
  8
_8___INFO_IMP__A_PAVIMENTO
100
AcDbText
 10
23385.0
 20
5600.0
 30
0.0
 40
166.666667
  1

 41
0.754286
100
AcDbText
  0
TEXT
  5
1279
330
22
100
AcDbEntity
  8
_8___INFO_IMP__A_PAVIMENTO
100
AcDbText
 10
26235.0
 20
6500.0
 30
0.0
 40
166.666667
  1

 41
0.754286
100
AcDbText
  0
TEXT
  5
127A
330
22
100
AcDbEntity
  8
_8___INFO_IMP__A_PAVIMENTO
100
AcDbText
 10
26235.0
 20
6200.0
 30
0.0
 40
166.666667
  1

 41
0.754286
100
AcDbText
  0
TEXT
  5
127B
330
22
100
AcDbEntity
  8
_8___INFO_IMP__A_PAVIMENTO
100
AcDbText
 10
26235.0
 20
5900.0
 30
0.0
 40
166.666667
  1

 41
0.754286
100
AcDbText
  0
TEXT
  5
127D
330
22
100
AcDbEntity
  8
_8___INFO_IMP__A_PAVIMENTO
100
AcDbText
 10
26235.0
 20
5600.0
 30
0.0
 40
166.666667
  1

 41
0.754286
100
AcDbText
  0
MTEXT
  5
F5BD
330
22
100
AcDbEntity
  8
TODO
  6
Continuous
 62
     1
100
AcDbMText
 10
133994.5989582048
 20
11879.10244518701
 30
0.0
 40
437.746504
 41
8729.555840438261
 71
     1
 72
     5
  1
{\fSwis721 BlkOul BT|b0|i0|c0|p82;\C256;SECCIÓN SISTEMA EUROFLEX}
  7
CKSTANDARD
 73
     1
 44
1.0
  0
POLYLINE
  5
F5BE
330
22
100
AcDbEntity
  8
TODO
  6
Continuous
370
     5
100
AcDb3dPolyline
 66
     1
 10
0.0
 20
0.0
 30
0.0
 70
     8
  0
VERTEX
  5
F5BF
330
F5BE
100
AcDbEntity
  8
TODO
  6
Continuous
370
     5
100
AcDbVertex
100
AcDb3dPolylineVertex
 10
136285.5342720084
 20
5928.595334747704
 30
0.0
 70
    32
  0
VERTEX
  5
F5C0
330
F5BE
100
AcDbEntity
  8
TODO
  6
Continuous
370
     5
100
AcDbVertex
100
AcDb3dPolylineVertex
 10
136380.4265593519
 20
5967.694471662355
 30
0.0
 70
    32
  0
VERTEX
  5
F5C1
330
F5BE
100
AcDbEntity
  8
TODO
  6
Continuous
370
     5
100
AcDbVertex
100
AcDb3dPolylineVertex
 10
136335.8359706233
 20
5867.091074432508
 30
0.0
 70
    32
  0
VERTEX
  5
F5C2
330
F5BE
100
AcDbEntity
  8
TODO
  6
Continuous
370
     5
100
AcDbVertex
100
AcDb3dPolylineVertex
 10
136285.5342720084
 20
5928.595334747704
 30
0.0
 70
    32
  0
SEQEND
  5
F5C3
330
F5BE
100
AcDbEntity
  8
TODO
  6
Continuous
370
     5
  0
POLYLINE
  5
F5C4
330
22
100
AcDbEntity
  8
TODO
  6
Continuous
370
     5
100
AcDb3dPolyline
 66
     1
 10
0.0
 20
0.0
 30
0.0
 70
     8
  0
VERTEX
  5
F5C5
330
F5C4
100
AcDbEntity
  8
TODO
  6
Continuous
370
     5
100
AcDbVertex
100
AcDb3dPolylineVertex
 10
135221.6695769242
 20
3891.266711806951
 30
0.0
 70
    32
  0
VERTEX
  5
F5C6
330
F5C4
100
AcDbEntity
  8
TODO
  6
Continuous
370
     5
100
AcDbVertex
100
AcDb3dPolylineVertex
 10
136259.7736278156
 20
3891.266711806951
 30
0.0
 70
    32
  0
VERTEX
  5
F5C7
330
F5C4
100
AcDbEntity
  8
TODO
  6
Continuous
370
     5
100
AcDbVertex
100
AcDb3dPolylineVertex
 10
137309.0802404073
 20
5258.857871529763
 30
0.0
 70
    32
  0
SEQEND
  5
F5C8
330
F5C4
100
AcDbEntity
  8
TODO
  6
Continuous
370
     5
  0
LWPOLYLINE
  5
F5C9
330
22
100
AcDbEntity
  8
TODO
  6
Continuous
370
     5
100
AcDbPolyline
 90
       15
 70
     0
 43
0.0
 10
137853.8735754499
 20
8177.350982857162
 10
137371.8488217718
 20
8182.093749551903
 10
137347.9471559537
 20
8189.278336723146
 10
137344.3783414112
 20
8183.31465979015
 10
136899.3096014831
 20
8185.709522180565
 10
136183.386621008
 20
8183.31465979015
 10
136183.386621008
 20
8401.669760092482
 10
138195.1649451268
 20
8394.485172921239
 10
138195.1649451268
 20
8330.058678810536
 10
138123.5538638448
 20
8326.489864267962
 10
138121.1590014544
 20
8263.237322309411
 10
138128.3435886257
 20
8248.915106053028
 10
138195.1649451268
 20
8242.951429120032
 10
138195.1649451268
 20
8179.698887161489
 10
137853.8735754499
 20
8177.350982857162
  0
LWPOLYLINE
  5
F5CA
330
22
100
AcDbEntity
  8
TODO
  6
Continuous
370
     5
100
AcDbPolyline
 90
       32
 70
     0
 43
0.0
 10
136219.215640692
 20
7873.10954310259
 10
136210.8571013686
 20
7882.642034578152
 10
136217.9947304538
 20
7894.569388444128
 10
136219.215640692
 20
7910.112514938766
 10
136213.251963759
 20
7919.645006414336
 10
136212.0310535208
 20
7933.967222670719
 10
136219.215640692
 20
7950.684301317524
 10
136212.0310535208
 20
7957.821930402672
 10
136213.251963759
 20
7988.861225305867
 10
136212.0310535208
 20
8029.433011684625
 10
136215.5998680633
 20
8036.570640769773
 10
136212.0310535208
 20
8044.929180093175
 10
136219.215640692
 20
8053.287719416578
 10
136210.8571013686
 20
8065.215073282554
 10
136219.215640692
 20
8075.921516910283
 10
136210.8571013686
 20
8087.848870776252
 10
136219.215640692
 20
8099.776224642228
 10
136213.251963759
 20
8109.308716117797
 10
136212.0310535208
 20
8123.630932374188
 10
136215.5998680633
 20
8131.989471697583
 10
136212.0310535208
 20
8139.174058868826
 10
136219.215640692
 20
8147.485640106141
 10
136212.0310535208
 20
8155.844179429536
 10
136216.8207783016
 20
8167.771533295512
 10
136210.8571013686
 20
8173.7352102285
 10
136333.746412657
 20
8173.7352102285
 10
136234.7118091006
 20
8074.700606672028
 10
136234.7118091006
 20
8061.646258739973
 10
136345.673766523
 20
8171.387305924174
 10
136505.5660496476
 20
8171.387305924174
 10
136509.1348641902
 20
8165.423628991193
 10
136219.215640692
 20
7873.10954310259
  0
LWPOLYLINE
  5
F5CB
330
22
100
AcDbEntity
  8
TODO
  6
Continuous
370
     5
100
AcDbPolyline
 90
        5
 70
     0
 43
0.0
 10
136318.2502442485
 20
7743.035644642921
 10
136405.357493939
 20
7840.896296047235
 10
136417.284847805
 20
7843.291158437649
 10
136326.5618254858
 20
7741.861692490762
 10
136318.2502442485
 20
7743.035644642921
  0
LWPOLYLINE
  5
F5CC
330
22
100
AcDbEntity
  8
TODO
  6
Continuous
370
     5
100
AcDbPolyline
 90
       36
 70
     0
 43
0.0
 10
136226.3532697771
 20
7437.573294650094
 10
136212.0310535208
 20
7465.043775010708
 10
136219.215640692
 20
7512.753190474621
 10
136212.0310535208
 20
7519.937777645857
 10
136213.251963759
 20
7539.002760596988
 10
136212.0310535208
 20
7584.364271756567
 10
136215.5998680633
 20
7591.501900841715
 10
136212.0310535208
 20
7599.860440165117
 10
136216.8207783016
 20
7635.642501763046
 10
136252.6028398995
 20
7667.90270690449
 10
136250.2079775091
 20
7675.040335989637
 10
136220.3895928442
 20
7647.616813715111
 10
136212.0310535208
 20
7663.112982123668
 10
136216.8207783016
 20
7802.719372058891
 10
136213.251963759
 20
7809.857001144046
 10
136216.8207783016
 20
7818.215540467441
 10
136219.215640692
 20
7831.363804571673
 10
136210.8571013686
 20
7843.291158437649
 10
136345.673766523
 20
7987.64031506762
 10
136521.0622180562
 20
8167.771533295512
 10
136541.3481112455
 20
8173.7352102285
 10
136700.066442218
 20
8173.7352102285
 10
136727.4899644925
 20
8167.771533295512
 10
136652.310068668
 20
8084.280056233678
 10
136652.310068668
 20
8072.352702367702
 10
136711.993796084
 20
8134.384334087998
 10
136725.0951021021
 20
8135.558286240164
 10
136727.4899644925
 20
8149.880502496548
 10
136744.2070431393
 20
8167.771533295512
 10
136763.3189841766
 20
8173.7352102285
 10
136951.8087417278
 20
8171.387305924174
 10
136729.8848268829
 20
7937.5360372133
 10
136715.5626106266
 20
7930.398408128145
 10
136339.7100895901
 20
7548.582210158638
 10
136232.3169467102
 20
7436.399342497934
 10
136226.3532697771
 20
7437.573294650094
  0
LWPOLYLINE
  5
F5CD
330
22
100
AcDbEntity
  8
TODO
  6
Continuous
370
     5
100
AcDbPolyline
 90
       35
 70
     0
 43
0.0
 10
136338.5361374379
 20
7403.012143290412
 10
136262.1353313751
 20
7411.323724527734
 10
136238.2806236431
 20
7429.261713412779
 10
136479.3164795252
 20
7675.040335989637
 10
136493.6386957816
 20
7682.177965074792
 10
136540.1741590934
 20
7739.466830100348
 10
136592.6732993381
 20
7787.223203650341
 10
136691.7079028946
 20
7891.000573901554
 10
136709.5989336936
 20
7898.18516107279
 10
136711.993796084
 20
7910.112514938766
 10
136725.0951021021
 20
7913.681329481347
 10
136743.0330909872
 20
7942.325761994121
 10
136963.7360955938
 20
8159.412993972117
 10
136966.1309579842
 20
8171.387305924174
 10
137393.3086671133
 20
8171.387305924174
 10
137103.342485529
 20
7877.899267883418
 10
137063.9916093886
 20
7842.070248199394
 10
137061.5967469981
 20
7830.142894333418
 10
137046.1005785896
 20
7825.400127638684
 10
137016.2352358386
 20
7782.433478869512
 10
136784.7788295181
 20
7548.582210158638
 10
136706.030119151
 20
7460.254050229887
 10
136691.7079028946
 20
7455.511283535147
 10
136688.139088352
 20
7441.189067278756
 10
136673.8168720956
 20
7436.399342497934
 10
136672.5959618574
 20
7424.471988631958
 10
136658.273745601
 20
7420.903174089384
 10
136643.9984874307
 20
7400.617280900005
 10
136611.7382822892
 20
7404.186095442579
 10
136441.1395555369
 20
7400.617280900005
 10
136447.1032324699
 20
7417.287401460722
 10
136476.9216171349
 20
7444.757881821337
 10
136464.9942632689
 20
7447.152744211751
 10
136429.2122016709
 20
7407.75490998516
 10
136338.5361374379
 20
7403.012143290412
  0
LWPOLYLINE
  5
F5CE
330
22
100
AcDbEntity
  8
TODO
  6
Continuous
370
     5
100
AcDbPolyline
 90
       23
 70
     0
 43
0.0
 10
136799.1010457745
 20
7014.01135814967
 10
136756.1343970053
 20
7017.580172692244
 10
136725.0951021021
 20
7054.583144528428
 10
136719.1314251691
 20
7369.577985996817
 10
136238.2806236431
 20
7375.541662929798
 10
136210.8571013686
 20
7391.037831338355
 10
136184.6075312463
 20
7420.903174089384
 10
136187.0023936367
 20
8171.387305924174
 10
136202.4985620452
 20
8174.956120466755
 10
136200.1036996548
 20
8075.921516910283
 10
136196.5348851122
 20
7858.787326846199
 10
136204.8934244356
 20
7850.428787522796
 10
136204.8934244356
 20
7460.254050229887
 10
136212.0310535208
 20
7436.399342497934
 10
136235.8857612527
 20
7412.544634765982
 10
136286.0369971931
 20
7395.827556119184
 10
136732.2796892733
 20
7391.037831338355
 10
136739.4173183585
 20
7379.110477472379
 10
136745.3809952915
 20
7054.583144528428
 10
136779.9891047372
 20
7045.050653052858
 10
136935.1386211671
 20
7041.434880424196
 10
136938.7074357097
 20
7011.616495759255
 10
136799.1010457745
 20
7014.01135814967
  0
LWPOLYLINE
  5
F5CF
330
22
100
AcDbEntity
  8
TODO
  6
Continuous
370
     5
100
AcDbPolyline
 90
       24
 70
     0
 43
0.0
 10
136183.386621008
 20
6418.582826572572
 10
136187.0023936367
 20
7361.219446673414
 10
136350.4634913038
 20
7363.614309063822
 10
136357.601120389
 20
7355.255769740426
 10
136297.9643510591
 20
7324.216474837231
 10
136243.070348424
 20
7274.112196982911
 10
136246.6391629665
 20
7268.14852004993
 10
136232.3169467102
 20
7250.257489250958
 10
136204.8934244356
 20
7182.262180597681
 10
136204.8934244356
 20
7102.292559992333
 10
136258.5665168325
 20
6988.93574017947
 10
136312.2865673155
 20
6872.010105824025
 10
136315.8553818581
 20
6848.155398092073
 10
136355.2062579986
 20
6772.975502267553
 10
136361.1699349316
 20
6751.515656926014
 10
136399.393817006
 20
6669.151173930251
 10
136399.393817006
 20
6609.51440460037
 10
136391.0352776826
 20
6573.732343002441
 10
136383.8506905113
 20
6561.758031050376
 10
136367.1336118646
 20
6522.407154909873
 10
136336.1412750474
 20
6486.625093311945
 10
136290.7797638879
 20
6448.448169323601
 10
136231.142994558
 20
6420.977688962987
 10
136183.386621008
 20
6418.582826572572
  0
LWPOLYLINE
  5
F5D0
330
22
100
AcDbEntity
  8
TODO
  6
Continuous
370
     5
100
AcDbPolyline
 90
       22
 70
     0
 43
0.0
 10
136362.3908451698
 20
5816.01666591032
 10
136306.3228903825
 20
5832.733744557117
 10
136238.2806236431
 20
5881.664070259278
 10
136208.4622389782
 20
5929.373485723183
 10
136196.5348851122
 20
5973.514086644514
 10
136196.5348851122
 20
6036.766628603058
 10
136212.0310535208
 20
6088.091816695625
 10
136244.2443005762
 20
6135.801232159531
 10
136286.0369971931
 20
6168.014479214893
 10
136342.1049519805
 20
6190.695234794679
 10
136401.7417213103
 20
6194.264049337253
 10
136464.9942632689
 20
6178.767880928703
 10
136512.7036787328
 20
6146.554633873347
 10
136544.9638838742
 20
6104.761937256342
 10
136566.4237292157
 20
6052.262797011615
 10
136569.9925437583
 20
5980.69867381575
 10
136562.8549146732
 20
5944.916612217821
 10
136530.6416676178
 20
5885.232884801851
 10
136493.6386957816
 20
5851.845685594337
 10
136464.9942632689
 20
5833.907696709284
 10
136401.7417213103
 20
5816.01666591032
 10
136362.3908451698
 20
5816.01666591032
  0
LWPOLYLINE
  5
F5D1
330
22
100
AcDbEntity
  8
TODO
  6
Continuous
370
     5
100
AcDbPolyline
 90
       12
 70
     0
 43
0.0
 10
136175.0280816846
 20
5639.454262225001
 10
136175.0280816846
 20
6406.655472706596
 10
137078.313825645
 20
6400.691795773608
 10
137466.0937005474
 20
6403.086658164015
 10
140141.2019487244
 20
6394.72811884062
 10
140033.8088058446
 20
6243.194375039413
 10
139842.9241859028
 20
6021.270460194508
 10
139681.81099254
 20
5860.157266831651
 10
139601.8883300207
 20
5800.52049750177
 10
139570.8490351175
 20
5764.738435903841
 10
139403.8191229078
 20
5641.80216652932
 10
136175.0280816846
 20
5639.454262225001
  0
LWPOLYLINE
  5
F5D2
330
22
100
AcDbEntity
  8
TODO
  6
Continuous
370
     5
100
AcDbPolyline
 90
       19
 70
     0
 43
0.0
 10
136751.3446722245
 20
5319.669695975783
 10
136552.1015129594
 20
5410.34576020886
 10
136517.4934035136
 20
5430.631653398232
 10
136612.9591925275
 20
5528.445346716457
 10
136601.0318386615
 20
5529.666256954712
 10
136509.1348641902
 20
5442.559007264208
 10
136505.5660496476
 20
5434.200467940813
 10
136424.4224768901
 20
5477.167116709978
 10
136286.0369971931
 20
5559.484641619652
 10
136278.8524100219
 20
5567.843180943048
 10
136333.746412657
 20
5629.874812663344
 10
137058.0279324555
 20
5629.874812663344
 10
136899.3096014831
 20
5462.844900453587
 10
136888.6031578554
 20
5455.660313282351
 10
136887.3822476171
 20
5443.732959416375
 10
136870.6651689703
 20
5438.990192721634
 10
136784.7788295181
 20
5344.698355859902
 10
136768.0617508713
 20
5320.84364812795
 10
136751.3446722245
 20
5319.669695975783
  0
LWPOLYLINE
  5
F5D3
330
22
100
AcDbEntity
  8
TODO
  6
Continuous
370
     5
100
AcDbPolyline
 90
      228
 70
     0
 43
0.0
 10
137710.6983709721
 20
5112.02103930118
 10
137543.6684587623
 20
5120.379578624583
 10
137209.5616762568
 20
5168.135952174576
 10
136935.1386211671
 20
5243.268889913015
 10
136711.993796084
 20
5323.238510518364
 10
136597.4630241189
 20
5380.527375543912
 10
136398.1729067678
 20
5481.909883404718
 10
136290.7797638879
 20
5546.383335601509
 10
136175.0280816846
 20
5629.874812663344
 10
136110.6015875739
 20
5666.877784499527
 10
136103.4639584887
 20
5681.200000755918
 10
135991.281090828
 20
5767.08634020816
 10
135948.361400145
 20
5794.556820568774
 10
135943.5716753641
 20
5806.484174434758
 10
135848.1058863502
 20
5885.232884801851
 10
135671.4965245788
 20
6060.621336335011
 10
135567.7191543276
 20
6179.941833080869
 10
135436.4713037158
 20
6362.514871785264
 10
135417.3593626785
 20
6379.231950432062
 10
135298.0388659327
 20
6573.732343002441
 10
135245.539725688
 20
6660.839592692937
 10
135134.5777682655
 20
6883.937459690002
 10
135039.1119792516
 20
7138.121579676343
 10
134983.0440244643
 20
7333.795924398888
 10
134935.2876509143
 20
7543.792485377809
 10
134899.5055893164
 20
7794.360832735489
 10
134901.9004517068
 20
7889.826621749395
 10
134911.4329431824
 20
7874.283495254756
 10
134923.3602970483
 20
7695.326229179016
 10
134935.2876509143
 20
7644.001041086449
 10
134937.6825133048
 20
7618.972381202329
 10
134943.6461902377
 20
7611.787794031094
 10
134943.6461902377
 20
7560.509564024615
 10
134952.0047295611
 20
7548.582210158638
 10
134959.1893167324
 20
7480.539943419266
 10
134967.5478560558
 20
7468.61258955329
 10
134967.5478560558
 20
7444.757881821337
 10
134975.8594372931
 20
7429.261713412779
 10
134983.0440244643
 20
7369.577985996817
 10
134991.4025637877
 20
7357.650632130841
 10
135030.7534399282
 20
7194.189534463658
 10
135047.470518575
 20
7166.719054103036
 10
135051.0393331176
 20
7138.121579676343
 10
135062.9666869836
 20
7126.147267724285
 10
135062.9666869836
 20
7107.082284773154
 10
135086.8683528016
 20
7054.583144528428
 10
135091.6111194963
 20
7027.112664167813
 10
135126.2192289421
 20
6931.693833239995
 10
135158.4324759975
 20
6872.010105824025
 10
135162.00129054
 20
6848.155398092073
 10
135226.4277846508
 20
6720.476362022819
 10
135245.539725688
 20
6696.621654290866
 10
135256.2931274018
 20
6660.839592692937
 10
135734.7490665374
 20
6665.582359387678
 10
135737.1439289278
 20
8251.309968443442
 10
135617.8234321819
 20
8245.346291510446
 10
135527.1473679488
 20
8241.777476967873
 10
135518.7888286255
 20
8248.915106053028
 10
134949.6098671707
 20
8245.346291510446
 10
134907.8641286398
 20
8242.951429120032
 10
134901.9004517068
 20
7906.543700396192
 10
134892.3679602313
 20
8151.101412734803
 10
134892.3679602313
 20
8231.024075254056
 10
134899.5055893164
 20
8246.520243662613
 10
134904.2953140973
 20
8370.630465189286
 10
134899.5055893164
 20
8382.55781905527
 10
134907.8641286398
 20
8398.05398746382
 10
134916.2226679632
 20
8493.519776477719
 10
134931.7188363718
 20
8597.34410481502
 10
134987.7867911591
 20
8831.195373525901
 10
134994.9713783303
 20
8875.335974447225
 10
135011.6884569771
 20
8911.164994131243
 10
135026.0106732335
 20
8972.022673699379
 10
135035.5431647091
 20
8991.087656650503
 10
135074.8940408496
 20
9110.408153396354
 10
135074.8940408496
 20
9129.520094433574
 10
135086.8683528016
 20
9146.237173080372
 10
135090.4371673442
 20
9170.091880812332
 10
135117.8606896187
 20
9224.985883447473
 10
135185.9029563581
 20
9372.90385462001
 10
135218.1162034135
 20
9448.083750444537
 10
135230.0435572794
 20
9456.44228976794
 10
135301.6076804753
 20
9594.874727551003
 10
135388.7149301658
 20
9734.481117486233
 10
135400.6422840318
 20
9752.372148285198
 10
135420.9281772212
 20
9778.621718407565
 10
135441.2140704105
 20
9814.403780005494
 10
135621.3922467245
 20
10041.11741963122
 10
135758.6037742693
 20
10196.21997797501
 10
135826.6460410087
 20
10259.47251993354
 10
135849.2798385024
 20
10273.79473618994
 10
135880.3191334056
 20
10309.57679778787
 10
136115.3913123547
 20
10504.07719035824
 10
136469.7839880497
 20
10730.79082998397
 10
136628.4553609361
 20
10808.36558819891
 10
136632.0241754786
 20
10814.32926513189
 10
136655.9258412967
 20
10814.32926513189
 10
136679.7805490286
 20
10830.99938569261
 10
136760.9241217861
 20
10859.64381820539
 10
136918.4215425203
 20
10918.1066353831
 10
136938.7074357097
 20
10930.08094733517
 10
137157.062536012
 20
10981.35917734165
 10
137272.8142182153
 20
11010.00360985443
 10
137654.6304161848
 20
11049.40144408102
 10
137913.5573028659
 20
11045.78567145236
 10
138176.0530040896
 20
11021.93096372041
 10
138418.2628121239
 20
10977.79036279908
 10
138524.4350447655
 20
10950.31988243846
 10
138850.1832879477
 20
10842.97369764467
 10
138998.1012591202
 20
10766.57289158191
 10
139190.2067893002
 20
10665.14342563501
 10
139288.0674407045
 20
10611.47033323813
 10
139478.9990187323
 20
10474.2588056933
 10
139663.919961741
 20
10298.87035416014
 10
139661.5250993506
 20
10291.68576698891
 10
139467.0716648663
 20
10470.68999115073
 10
139284.4986261619
 20
10604.33270415296
 10
138986.1739052542
 20
10766.57289158191
 10
138846.567515319
 20
10832.22029593086
 10
138563.785920906
 20
10930.08094733517
 10
138334.771335062
 20
10986.14890212248
 10
138143.8397570342
 20
11017.14123893958
 10
138000.6645525564
 20
11033.85831758639
 10
137658.1992307274
 20
11041.04290475763
 10
137538.8787339815
 20
11033.85831758639
 10
137225.0578446653
 20
10989.71771666505
 10
137006.702744363
 20
10938.39252857248
 10
136848.0313714767
 20
10884.71943617559
 10
136744.2070431393
 20
10842.97369764467
 10
136553.2754651115
 20
10759.43526249675
 10
136422.0276144997
 20
10691.43995384347
 10
136122.5289414399
 20
10498.11351342525
 10
136118.9601268973
 20
10080.51525385782
 10
136159.531913276
 20
10067.36698975359
 10
136207.24132874
 20
10037.54860508865
 10
136246.6391629665
 20
9993.408004167315
 10
136266.9250561559
 20
9944.477678465155
 10
136283.6421348027
 20
9889.583675830014
 10
136283.6421348027
 20
8699.947522914066
 10
136307.4968425347
 20
8612.84027322357
 10
136336.1412750474
 20
8585.416750949043
 10
136348.0686289134
 20
8556.772318436262
 10
136359.9959827794
 20
8501.878315801121
 10
136356.4271682368
 20
8480.418470459583
 10
136359.9959827794
 20
8454.168900337216
 10
136354.0323058464
 20
8410.028299415884
 10
137763.1975112169
 20
8407.63343702547
 10
137973.1940721958
 20
8408.80738917763
 10
138032.8777996118
 20
8405.238574635056
 10
138099.6991561129
 20
8408.80738917763
 10
138159.3359254427
 20
8405.238574635056
 10
138219.0196528587
 20
8408.80738917763
 10
138310.869669244
 20
8404.064622482896
 10
138318.0542564152
 20
8407.63343702547
 10
138326.4127957386
 20
8404.064622482896
 10
138831.0713469104
 20
8408.80738917763
 10
138858.5418272711
 20
8405.238574635056
 10
138885.9653495456
 20
8408.80738917763
 10
140644.7335058302
 20
8394.485172921239
 10
140630.4112895738
 20
8513.805669667097
 10
140610.1253963844
 20
8612.84027322357
 10
140594.6292279758
 20
8716.664601560871
 10
140570.7745202439
 20
8795.413311927965
 10
140562.4159809205
 20
8835.985098306723
 10
140538.5612731886
 20
8931.450887320621
 10
140486.0621329438
 20
9080.589768731414
 10
140458.5916525832
 20
9146.237173080372
 10
140451.4540234981
 20
9182.019234678308
 10
140431.1681303087
 20
9220.196158666644
 10
140387.0275293874
 20
9325.194439156105
 10
140371.4844028927
 20
9344.306380193324
 10
140348.850605399
 20
9401.548287132791
 10
140282.0292488979
 20
9535.191000135033
 10
140270.1018950319
 20
9539.980724915862
 10
140143.5968111148
 20
9739.223884180974
 10
139952.665233087
 20
9993.408004167315
 10
139681.81099254
 20
10283.3272276655
 10
139690.1695318634
 20
10285.72209005591
 10
139964.6395450391
 20
9995.755908471641
 10
140155.5241649808
 20
9740.444794419222
 10
140335.7023412948
 20
9463.626876939175
 10
140391.7702960821
 20
9332.379026327348
 10
140419.2407764427
 20
9272.695298911378
 10
140431.1681303087
 20
9265.557669826223
 10
140441.9215320225
 20
9227.333787751799
 10
140464.5553295162
 20
9173.660695354905
 10
140480.0984560109
 20
9140.273496147383
 10
140494.4206722672
 20
9105.665386701621
 10
140494.4206722672
 20
9086.553445664402
 10
140565.9847954631
 20
8875.335974447225
 10
140606.5565818418
 20
8711.874876780043
 10
140654.3129553918
 20
8430.314192605263
 10
140678.1676631238
 20
8135.558286240164
 10
140674.5988485812
 20
8075.921516910283
 10
140678.1676631238
 20
8017.505657818649
 10
140669.8091238004
 20
7973.36505689731
 10
140666.2403092578
 20
7862.35614138878
 10
140642.3386434398
 20
7632.073687220472
 10
140577.9121493291
 20
7313.510031209502
 10
140478.8775457726
 20
6991.330602569884
 10
140462.2074252119
 20
6959.117355514521
 10
140446.6642987172
 20
6911.407940050616
 10
140431.1681303087
 20
6887.506274232575
 10
140419.2407764427
 20
6863.65156650063
 10
140415.6719619001
 20
6839.796858768677
 10
140395.3860687108
 20
6815.942151036717
 10
140391.7702960821
 20
6792.087443304765
 10
140359.5570490267
 20
6744.331069754771
 10
140291.5617403734
 20
6609.51440460037
 10
140287.9929258309
 20
6594.018236191812
 10
140276.0655719649
 20
6585.659696868417
 10
140240.2365522809
 20
6514.048615586471
 10
140231.8780129575
 20
6434.125953067211
 10
140179.3788727128
 20
6400.691795773608
 10
140150.7813982861
 20
6393.554166688453
 10
140097.0613478031
 20
6307.620869150123
 10
140021.8814519786
 20
6218.118757069213
 10
139780.8455960964
 20
5941.300839589159
 10
139630.5327625335
 20
5804.089312044343
 10
139451.5285383717
 20
5660.914107566539
 10
139236.7422526119
 20
5514.170088546161
 10
138942.0333043329
 20
5359.020572116286
 10
138747.5329117625
 20
5283.840676291766
 10
138703.3923108412
 20
5263.554783102387
 10
138437.327795075
 20
5188.421845363955
 10
138179.6218186321
 20
5135.922705119221
 10
137884.9128703531
 20
5112.02103930118
 10
137710.6983709721
 20
5112.02103930118
  0
POLYLINE
  5
F5D4
330
22
100
AcDbEntity
  8
TODO
  6
Continuous
370
     5
100
AcDb3dPolyline
 66
     1
 10
0.0
 20
0.0
 30
0.0
 70
     8
  0
VERTEX
  5
F5D5
330
F5D4
100
AcDbEntity
  8
TODO
  6
Continuous
370
     5
100
AcDbVertex
100
AcDb3dPolylineVertex
 10
141761.0941775017
 20
9540.377208213751
 30
0.0
 70
    32
  0
VERTEX
  5
F5D6
330
F5D4
100
AcDbEntity
  8
TODO
  6
Continuous
370
     5
100
AcDbVertex
100
AcDb3dPolylineVertex
 10
138929.5518440813
 20
9540.377208213751
 30
0.0
 70
    32
  0
VERTEX
  5
F5D7
330
F5D4
100
AcDbEntity
  8
TODO
  6
Continuous
370
     5
100
AcDbVertex
100
AcDb3dPolylineVertex
 10
136155.4900457936
 20
8055.708295819524
 30
0.0
 70
    32
  0
SEQEND
  5
F5D8
330
F5D4
100
AcDbEntity
  8
TODO
  6
Continuous
370
     5
  0
POLYLINE
  5
F5D9
330
22
100
AcDbEntity
  8
TODO
  6
Continuous
370
     5
100
AcDb3dPolyline
 66
     1
 10
0.0
 20
0.0
 30
0.0
 70
     8
  0
VERTEX
  5
F5DA
330
F5D9
100
AcDbEntity
  8
TODO
  6
Continuous
370
     5
100
AcDbVertex
100
AcDb3dPolylineVertex
 10
138220.3442953809
 20
9994.779377080064
 30
0.0
 70
    32
  0
VERTEX
  5
F5DB
330
F5D9
100
AcDbEntity
  8
TODO
  6
Continuous
370
     5
100
AcDbVertex
100
AcDb3dPolylineVertex
 10
136758.0805063873
 20
9994.779377080064
 30
0.0
 70
    32
  0
VERTEX
  5
F5DC
330
F5D9
100
AcDbEntity
  8
TODO
  6
Continuous
370
     5
100
AcDbVertex
100
AcDb3dPolylineVertex
 10
136160.8302071122
 20
9593.024762378322
 30
0.0
 70
    32
  0
SEQEND
  5
F5DD
330
F5D9
100
AcDbEntity
  8
TODO
  6
Continuous
370
     5
  0
MTEXT
  5
F5DE
330
22
100
AcDbEntity
  8
TODO
100
AcDbMText
 10
135165.8799200903
 20
4128.466982560247
 30
0.0
 40
168.36404
 41
1084.477958274089
 71
     1
 72
     5
  1
SOLERA
 73
     1
 44
1.0
  0
LWPOLYLINE
  5
F5DF
330
22
100
AcDbEntity
  8
TODO
  6
Continuous
370
     5
100
AcDbPolyline
 90
       14
 70
     0
 43
0.0
 10
136123.7498516781
 20
8523.385119228747
 10
136116.5652645069
 20
8585.416750949043
 10
136122.5289414399
 20
8604.481733900167
 10
136151.1733739526
 20
8624.767627089546
 10
136151.1733739526
 20
8636.694980955523
 10
136123.7498516781
 20
8618.803950156558
 10
136121.3549892877
 20
8684.451354505516
 10
136270.4938706985
 20
8839.553912849296
 10
136271.7147809367
 20
8767.989789653438
 10
136243.070348424
 20
8732.160769969421
 10
136254.99770229
 20
8732.160769969421
 10
136270.4938706985
 20
8752.4466631588
 10
136276.4575476315
 20
8676.092815182114
 10
136123.7498516781
 20
8523.385119228747
  0
LWPOLYLINE
  5
F5E0
330
22
100
AcDbEntity
  8
TODO
  6
Continuous
370
     5
100
AcDbPolyline
 90
       51
 70
     0
 43
0.0
 10
134934.1136987622
 20
8504.273178191528
 10
134931.7188363718
 20
8520.990256838333
 10
134975.8594372931
 20
8740.519309292824
 10
134993.7974261781
 20
8815.699205117344
 10
134999.7611031111
 20
8819.268019659925
 10
135006.8987321963
 20
8863.40862058125
 10
135030.7534399282
 20
8950.515870271753
 10
135047.470518575
 20
8979.160302784534
 10
135057.0030100506
 20
9022.126951553691
 10
135071.325226307
 20
9057.909013151628
 10
135082.0786280208
 20
9100.875661920792
 10
135110.7230605336
 20
9182.019234678308
 10
135265.8256188774
 20
9511.33629240308
 10
135277.7529727433
 20
9519.694831726483
 10
135277.7529727433
 20
9531.62218559246
 10
135317.1508069699
 20
9603.233266874406
 10
135341.0055147019
 20
9630.656789148932
 10
135397.0734694892
 20
9730.865344857571
 10
135465.0687781425
 20
9829.899948414044
 10
135585.6101851266
 20
9981.480650301339
 10
135734.7490665374
 20
10148.5105625111
 10
135738.3178810799
 20
10119.86612999832
 10
135734.7490665374
 20
10092.44260772379
 10
135739.5387913182
 20
10080.51525385782
 10
135733.5751143852
 20
10073.33066668658
 10
135739.5387913182
 20
10064.97212736318
 10
135733.5751143852
 20
10041.11741963122
 10
135739.5387913182
 20
10032.75888030783
 10
135734.7490665374
 20
9973.122110977936
 10
135738.3178810799
 20
9961.194757111967
 10
135734.7490665374
 20
9949.220445159903
 10
135739.5387913182
 20
9889.583675830014
 10
135735.9699767756
 20
9882.446046744866
 10
135739.5387913182
 20
9874.087507421464
 10
135733.5751143852
 20
9834.689673194873
 10
135739.5387913182
 20
9809.661013310753
 10
135735.9699767756
 20
9802.476426139518
 10
135739.5387913182
 20
9794.117886816115
 10
135733.5751143852
 20
9754.767010675612
 10
135739.5387913182
 20
9730.865344857571
 10
135734.7490665374
 20
9671.22857552769
 10
135738.3178810799
 20
9659.301221661713
 10
135734.7490665374
 20
9647.373867795737
 10
135735.9699767756
 20
9633.051651539346
 10
135734.7490665374
 20
9591.258954922341
 10
135735.9699767756
 20
9331.1581160891
 10
135734.7490665374
 20
9257.199130502828
 10
135735.9699767756
 20
9193.946588544284
 10
135734.7490665374
 20
9066.26755247503
 10
135737.1439289278
 20
8501.878315801121
 10
134934.1136987622
 20
8504.273178191528
  0
LWPOLYLINE
  5
F5E1
330
22
100
AcDbEntity
  8
TODO
  6
Continuous
370
     5
100
AcDbPolyline
 90
       15
 70
     0
 43
0.0
 10
136198.9297475026
 20
8420.734743043606
 10
136169.0644047516
 20
8457.73771487979
 10
136170.2853149899
 20
8478.023608069168
 10
136159.531913276
 20
8472.059931136173
 10
136130.8874807633
 20
8510.236855124516
 10
136270.4938706985
 20
8662.991509163978
 10
136280.0733202602
 20
8660.596646773563
 10
136295.5694886687
 20
8612.84027322357
 10
136262.1353313751
 20
8573.489397083067
 10
136274.062685241
 20
8573.489397083067
 10
136301.5331656017
 20
8597.34410481502
 10
136307.4968425347
 20
8600.912919357594
 10
136324.2139211815
 20
8585.416750949043
 10
136336.1412750474
 20
8561.56204321709
 10
136198.9297475026
 20
8420.734743043606
  0
LWPOLYLINE
  5
F5E2
330
22
100
AcDbEntity
  8
TODO
  6
Continuous
370
     5
100
AcDbPolyline
 90
       11
 70
     0
 43
0.0
 10
135745.5024682512
 20
6418.582826572572
 10
135746.6764204034
 20
9857.370428774666
 10
135752.6400973363
 20
10167.62250354831
 10
135793.2118837151
 20
10211.76310446965
 10
135805.1392375811
 20
10215.33191901222
 10
135808.7550102097
 20
10229.65413526861
 10
135916.1011950035
 20
10329.86269097725
 10
136095.1054191653
 20
10476.65366808371
 10
136111.8224978122
 20
10477.82762023588
 10
136107.0327730313
 20
6418.582826572572
 10
135745.5024682512
 20
6418.582826572572
  0
LWPOLYLINE
  5
F5E3
330
22
100
AcDbEntity
  8
TODO
  6
Continuous
370
     5
100
AcDbPolyline
 90
       11
 70
     0
 43
0.0
 10
135494.9341208935
 20
6304.052054607542
 10
135436.4713037158
 20
6374.442225651241
 10
135420.9281772212
 20
6398.296933383193
 10
135424.5439498498
 20
6406.655472706596
 10
135602.3272637734
 20
6409.05033509701
 10
135578.4255979554
 20
6388.764441907631
 10
135574.8567834127
 20
6374.442225651241
 10
135558.139704766
 20
6369.652500870412
 10
135519.9627807776
 20
6331.475576882076
 10
135498.5029354361
 20
6301.657192217128
 10
135494.9341208935
 20
6304.052054607542
  0
LWPOLYLINE
  5
F5E4
330
22
100
AcDbEntity
  8
TODO
  6
Continuous
370
     5
100
AcDbPolyline
 90
       16
 70
     0
 43
0.0
 10
135721.6477605192
 20
6027.234137127496
 10
135620.2182945723
 20
6135.801232159531
 10
135611.8597552489
 20
6156.087125348917
 10
135584.3892748883
 20
6181.162743319117
 10
135516.393966235
 20
6263.480268228792
 10
135498.5029354361
 20
6292.124700741566
 10
135564.150339785
 20
6347.018703376714
 10
135610.6388450107
 20
6403.086658164015
 10
135729.9593417565
 20
6406.655472706596
 10
135727.6114374522
 20
6147.728586025514
 10
135695.3981903968
 20
6120.305063750988
 10
135697.7460947012
 20
6111.946524427578
 10
135725.2165750618
 20
6135.801232159531
 10
135725.2165750618
 20
6039.161490993472
 10
135723.9956648236
 20
6027.234137127496
 10
135721.6477605192
 20
6027.234137127496
  0
LWPOLYLINE
  5
F5E5
330
22
100
AcDbEntity
  8
TODO
  6
Continuous
370
     5
100
AcDbPolyline
 90
       11
 70
     0
 43
0.0
 10
136055.7075849387
 20
5728.909416219816
 10
135944.7456275163
 20
5824.375205233722
 10
135928.0755069556
 20
5827.944019776296
 10
135865.9969171492
 20
5893.591424125254
 10
135849.2798385024
 20
5899.555101058242
 10
135739.5387913182
 20
6009.343106328532
 10
135737.1439289278
 20
6406.655472706596
 10
136107.0327730313
 20
6406.655472706596
 10
136104.6379106409
 20
5777.839741921976
 10
136077.2143883664
 20
5758.774758970845
 10
136055.7075849387
 20
5728.909416219816
  0
LWPOLYLINE
  5
F5E6
330
22
100
AcDbEntity
  8
TODO
  6
Continuous
370
     5
100
AcDbPolyline
 90
        8
 70
     0
 43
0.0
 10
136159.531913276
 20
5647.765843462315
 10
136116.5652645069
 20
5675.23632382293
 10
136115.3913123547
 20
6406.655472706596
 10
136166.7165004473
 20
6406.655472706596
 10
136163.1007278186
 20
5738.488865781474
 10
136161.9267756665
 20
5657.345293023958
 10
136160.7528235143
 20
5647.765843462315
 10
136159.531913276
 20
5647.765843462315
  0
LWPOLYLINE
  5
F5E7
330
22
100
AcDbEntity
  8
TODO
  6
Continuous
370
     5
100
AcDbPolyline
 90
        5
 70
     0
 43
0.0
 10
136095.1054191653
 20
5695.522217012302
 10
136064.0661242621
 20
5720.550876896421
 10
136103.4639584887
 20
5758.774758970845
 10
136107.0327730313
 20
5690.73249223148
 10
136095.1054191653
 20
5695.522217012302
  0
LWPOLYLINE
  5
F5E8
330
22
100
AcDbEntity
  8
TODO
  6
Continuous
370
     5
100
AcDbPolyline
 90
        6
 70
     0
 43
0.0
 10
136266.9250561559
 20
5573.806857876043
 10
136198.9297475026
 20
5619.168369035622
 10
136195.313974874
 20
5631.095722901598
 10
136314.6344716198
 20
5627.479950272937
 10
136318.2502442485
 20
5621.516273339948
 10
136266.9250561559
 20
5573.806857876043
  0
LWPOLYLINE
  5
F5E9
330
22
100
AcDbEntity
  8
TODO
  6
Continuous
370
     5
100
AcDbPolyline
 90
       58
 70
     0
 43
0.0
 10
136130.8874807633
 20
6417.408874420405
 10
136115.3913123547
 20
6418.582826572572
 10
136121.3549892877
 20
6657.223820064275
 10
136117.7861747451
 20
6843.365673311244
 10
136121.3549892877
 20
7030.728436796475
 10
136116.5652645069
 20
7393.43269372877
 10
136120.1810371355
 20
7400.617280900005
 10
136116.5652645069
 20
7408.975820223408
 10
136123.7498516781
 20
7417.287401460722
 10
136117.7861747451
 20
7425.645940784118
 10
136116.5652645069
 20
7441.189067278756
 10
136120.1810371355
 20
7448.326696363911
 10
136116.5652645069
 20
7456.685235687313
 10
136123.7498516781
 20
7465.043775010708
 10
136116.5652645069
 20
7472.181404095863
 10
136117.7861747451
 20
7519.937777645857
 10
136116.5652645069
 20
7536.607898206574
 10
136117.7861747451
 20
7737.071967709933
 10
136116.5652645069
 20
7775.248891698277
 10
136122.5289414399
 20
7784.828341259927
 10
136123.7498516781
 20
7799.150557516317
 10
136116.5652645069
 20
7806.288186601465
 10
136117.7861747451
 20
7855.218512303625
 10
136116.5652645069
 20
7877.899267883418
 10
136123.7498516781
 20
7894.569388444128
 10
136117.7861747451
 20
7902.92792776753
 10
136116.5652645069
 20
7918.471054262169
 10
136120.1810371355
 20
7925.608683347324
 10
136116.5652645069
 20
7933.967222670719
 10
136121.3549892877
 20
7954.253115860098
 10
136117.7861747451
 20
7969.749284268648
 10
136121.3549892877
 20
7985.292410763286
 10
136116.5652645069
 20
8029.433011684625
 10
136120.1810371355
 20
8036.570640769773
 10
136116.5652645069
 20
8044.929180093175
 10
136121.3549892877
 20
8072.352702367702
 10
136116.5652645069
 20
8075.921516910283
 10
136123.7498516781
 20
8084.280056233678
 10
136117.7861747451
 20
8092.63859555708
 10
136116.5652645069
 20
8108.134763965631
 10
136120.1810371355
 20
8116.493303289033
 10
136116.5652645069
 20
8123.630932374188
 10
136123.7498516781
 20
8131.989471697583
 10
136116.5652645069
 20
8171.387305924174
 10
136120.1810371355
 20
8195.242013656127
 10
136116.5652645069
 20
8219.09672138808
 10
136117.7861747451
 20
8247.74115390086
 10
136116.5652645069
 20
8266.806136851992
 10
136120.1810371355
 20
8275.164676175395
 10
136116.5652645069
 20
8282.34926334663
 10
136123.7498516781
 20
8290.707802670033
 10
136116.5652645069
 20
8306.203971078583
 10
136121.3549892877
 20
8374.199279731867
 10
136115.3913123547
 20
8401.669760092482
 10
136175.0280816846
 20
8398.05398746382
 10
136172.6801773803
 20
6462.723427493904
 10
136163.1007278186
 20
6420.977688962987
 10
136130.8874807633
 20
6417.408874420405
  0
LWPOLYLINE
  5
F5EA
330
22
100
AcDbEntity
  8
TODO
  6
Continuous
370
     5
100
AcDbPolyline
 90
        7
 70
     0
 43
0.0
 10
135605.896078316
 20
6417.408874420405
 10
135407.826871203
 20
6423.372551353394
 10
135269.3944334199
 20
6636.937926874896
 10
135271.7892958103
 20
6651.260143131287
 10
135737.1439289278
 20
6653.655005521701
 10
135737.1439289278
 20
6418.582826572572
 10
135605.896078316
 20
6417.408874420405
  0
LWPOLYLINE
  5
F5EB
330
22
100
AcDbEntity
  8
TODO
  6
Continuous
370
     5
100
AcDbPolyline
 90
        4
 70
     0
 43
0.0
 10
136183.386621008
 20
7373.146800539391
 10
136187.0023936367
 20
7400.617280900005
 10
136204.8934244356
 20
7381.505339862793
 10
136183.386621008
 20
7373.146800539391
  0
LWPOLYLINE
  5
F5EC
330
22
100
AcDbEntity
  8
TODO
  6
Continuous
370
     5
100
AcDbPolyline
 90
        5
 70
     0
 43
0.0
 10
136198.9297475026
 20
8501.878315801121
 10
136200.1036996548
 20
8513.805669667097
 10
136234.7118091006
 20
8544.844964570286
 10
136235.8857612527
 20
8537.66037739905
 10
136198.9297475026
 20
8501.878315801121
  0
LWPOLYLINE
  5
F5ED
330
22
100
AcDbEntity
  8
TODO
  6
Continuous
370
     5
100
AcDbPolyline
 90
        9
 70
     0
 43
0.0
 10
136262.1353313751
 20
8408.80738917763
 10
136207.24132874
 20
8414.771066110618
 10
136342.1049519805
 20
8549.634689351107
 10
136345.673766523
 20
8410.028299415884
 10
136294.3485784304
 20
8415.991976348872
 10
136321.8190587911
 20
8445.810361013813
 10
136314.6344716198
 20
8448.20522340422
 10
136282.4212245645
 20
8414.771066110618
 10
136262.1353313751
 20
8408.80738917763
  0
LWPOLYLINE
  5
F5EE
330
22
100
AcDbEntity
  8
TODO
  6
Continuous
370
     5
100
AcDbPolyline
 90
       12
 70
     0
 43
0.0
 10
136166.7165004473
 20
8408.80738917763
 10
136121.3549892877
 20
8413.597113958458
 10
136116.5652645069
 20
8457.73771487979
 10
136120.1810371355
 20
8466.096254203192
 10
136116.5652645069
 20
8473.23388328834
 10
136121.3549892877
 20
8493.519776477719
 10
136116.5652645069
 20
8497.13554910638
 10
136123.7498516781
 20
8504.273178191528
 10
136142.8148346292
 20
8468.4911165936
 10
136166.7165004473
 20
8448.20522340422
 10
136190.5712081792
 20
8412.37620372021
 10
136166.7165004473
 20
8408.80738917763
  0
LWPOLYLINE
  5
F5EF
330
22
100
AcDbEntity
  8
TODO
  6
Continuous
370
     5
100
AcDbPolyline
 90
        5
 70
     0
 43
0.0
 10
136175.0280816846
 20
9746.40847135221
 10
136176.2489919228
 20
9758.335825218186
 10
136210.8571013686
 20
9794.117886816115
 10
136208.4622389782
 20
9778.621718407565
 10
136175.0280816846
 20
9746.40847135221
  0
LWPOLYLINE
  5
F5F0
330
22
100
AcDbEntity
  8
TODO
  6
Continuous
370
     5
100
AcDbPolyline
 90
       20
 70
     0
 43
0.0
 10
136118.9601268973
 20
9611.54484811172
 10
136123.7498516781
 20
9635.44651392976
 10
136118.9601268973
 20
9659.301221661713
 10
136123.7498516781
 20
9683.155929393666
 10
136118.9601268973
 20
9691.514468717069
 10
136154.7421884952
 20
9727.296530314998
 10
136141.6408824771
 20
9722.553763620257
 10
136118.9601268973
 20
9704.615774735204
 10
136118.9601268973
 20
9790.549072273541
 10
136139.2460200867
 20
9798.907611596944
 10
136264.5301937655
 20
9928.981510056612
 10
136276.4575476315
 20
9862.160153555487
 10
136252.6028398995
 20
9845.443074908682
 10
136238.2806236431
 20
9822.762319328896
 10
136250.2079775091
 20
9822.762319328896
 10
136274.062685241
 20
9850.185841603423
 10
136270.4938706985
 20
9761.90463976076
 10
136184.6075312463
 20
9683.155929393666
 10
136121.3549892877
 20
9609.196943807394
 10
136118.9601268973
 20
9611.54484811172
  0
LWPOLYLINE
  5
F5F1
330
22
100
AcDbEntity
  8
TODO
  6
Continuous
370
     5
100
AcDbPolyline
 90
        6
 70
     0
 43
0.0
 10
136175.0280816846
 20
9199.910265477265
 10
136171.459267142
 20
9205.873942410253
 10
136214.4259159112
 20
9248.840591179425
 10
136216.8207783016
 20
9241.65600400819
 10
136178.6438543133
 20
9197.515403086858
 10
136175.0280816846
 20
9199.910265477265
  0
LWPOLYLINE
  5
F5F2
330
22
100
AcDbEntity
  8
TODO
  6
Continuous
370
     5
100
AcDbPolyline
 90
       20
 70
     0
 43
0.0
 10
136118.9601268973
 20
9071.057277255852
 10
136121.3549892877
 20
9146.237173080372
 10
136154.7421884952
 20
9165.302156031503
 10
136154.7421884952
 20
9182.019234678308
 10
136142.8148346292
 20
9179.624372287893
 10
136127.3186662207
 20
9160.512431250674
 10
136118.9601268973
 20
9166.52306626975
 10
136123.7498516781
 20
9190.377774001703
 10
136121.3549892877
 20
9202.30512786768
 10
136116.5652645069
 20
9213.058529581496
 10
136116.5652645069
 20
9229.728650142213
 10
136271.7147809367
 20
9388.446981114656
 10
136270.4938706985
 20
9308.477360509307
 10
136238.2806236431
 20
9273.869251063537
 10
136250.2079775091
 20
9271.521346759218
 10
136262.1353313751
 20
9279.832927996533
 10
136270.4938706985
 20
9298.944869033745
 10
136271.7147809367
 20
9217.801296276237
 10
136124.9238038303
 20
9069.836367017604
 10
136118.9601268973
 20
9071.057277255852
  0
LWPOLYLINE
  5
F5F3
330
22
100
AcDbEntity
  8
TODO
  6
Continuous
370
     5
100
AcDbPolyline
 90
        8
 70
     0
 43
0.0
 10
136195.313974874
 20
9047.202569523899
 10
136214.4259159112
 20
9077.02095418884
 10
136226.3532697771
 20
9078.194906341007
 10
136231.142994558
 20
9092.51712259739
 10
136243.070348424
 20
9093.738032835645
 10
136238.2806236431
 20
9078.194906341007
 10
136208.4622389782
 20
9045.981659285651
 10
136195.313974874
 20
9047.202569523899
  0
LWPOLYLINE
  5
F5F4
330
22
100
AcDbEntity
  8
TODO
  6
Continuous
370
     5
100
AcDbPolyline
 90
        5
 70
     0
 43
0.0
 10
136130.8874807633
 20
8979.160302784534
 10
136166.7165004473
 20
9017.33722677287
 10
136175.0280816846
 20
9014.942364382456
 10
136139.2460200867
 20
8976.76544039412
 10
136130.8874807633
 20
8979.160302784534
  0
LWPOLYLINE
  5
F5F5
330
22
100
AcDbEntity
  8
TODO
  6
Continuous
370
     5
100
AcDbPolyline
 90
        5
 70
     0
 43
0.0
 10
136219.215640692
 20
8892.05305309403
 10
136250.2079775091
 20
8925.487210387633
 10
136258.5665168325
 20
8923.092347997219
 10
136226.3532697771
 20
8889.658190703616
 10
136219.215640692
 20
8892.05305309403
  0
LWPOLYLINE
  5
F5F6
330
22
100
AcDbEntity
  8
TODO
  6
Continuous
370
     5
100
AcDbPolyline
 90
       15
 70
     0
 43
0.0
 10
136123.7498516781
 20
8889.658190703616
 10
136118.9601268973
 20
8911.164994131243
 10
136123.7498516781
 20
8935.019701863195
 10
136116.5652645069
 20
8958.874409595148
 10
136118.9601268973
 20
9056.735060999461
 10
136147.6045594101
 20
9078.194906341007
 10
136270.4938706985
 20
9203.479080019846
 10
136271.7147809367
 20
9125.951279890993
 10
136262.1353313751
 20
9113.976967938936
 10
136274.062685241
 20
9110.408153396354
 10
136271.7147809367
 20
9038.844030200496
 10
136198.9297475026
 20
8961.269271985562
 10
136187.0023936367
 20
8958.874409595148
 10
136184.6075312463
 20
8946.947055729172
 10
136123.7498516781
 20
8889.658190703616
  0
LWPOLYLINE
  5
F5F7
330
22
100
AcDbEntity
  8
TODO
  6
Continuous
370
     5
100
AcDbPolyline
 90
        6
 70
     0
 43
0.0
 10
136154.7421884952
 20
8820.488929898173
 10
136187.0023936367
 20
8862.23466842909
 10
136198.9297475026
 20
8859.839806038675
 10
136184.6075312463
 20
8835.985098306723
 10
136158.3579611239
 20
8815.699205117344
 10
136154.7421884952
 20
8820.488929898173
  0
LWPOLYLINE
  5
F5F8
330
22
100
AcDbEntity
  8
TODO
  6
Continuous
370
     5
100
AcDbPolyline
 90
       26
 70
     0
 43
0.0
 10
136123.7498516781
 20
8707.13211008531
 10
136116.5652645069
 20
8711.874876780043
 10
136123.7498516781
 20
8744.088123835398
 10
136121.3549892877
 20
8757.236387939629
 10
136115.3913123547
 20
8772.732556348179
 10
136128.4926183728
 20
8779.917143519415
 10
136127.3186662207
 20
8795.413311927965
 10
136115.3913123547
 20
8803.771851251367
 10
136123.7498516781
 20
8815.699205117344
 10
136116.5652645069
 20
8824.057744440746
 10
136120.1810371355
 20
8832.416283764149
 10
136116.5652645069
 20
8839.553912849296
 10
136123.7498516781
 20
8847.912452172699
 10
136115.3913123547
 20
8859.839806038675
 10
136122.5289414399
 20
8875.335974447225
 10
136216.8207783016
 20
8962.443224137729
 10
136223.9584073868
 20
8979.160302784534
 10
136238.2806236431
 20
8985.123979717515
 10
136262.1353313751
 20
9020.952999401532
 10
136274.062685241
 20
9022.126951553691
 10
136266.9250561559
 20
8847.912452172699
 10
136254.99770229
 20
8845.517589782285
 10
136222.7844552346
 20
8814.525252965184
 10
136219.215640692
 20
8800.203036708794
 10
136204.8934244356
 20
8795.413311927965
 10
136123.7498516781
 20
8707.13211008531
  0
LWPOLYLINE
  5
F5F9
330
22
100
AcDbEntity
  8
TODO
  6
Continuous
370
     5
100
AcDbPolyline
 90
        6
 70
     0
 43
0.0
 10
136171.459267142
 20
8656.980874144901
 10
136175.0280816846
 20
8671.303090401292
 10
136207.24132874
 20
8698.773570761907
 10
136214.4259159112
 20
8696.378708371492
 10
136200.1036996548
 20
8668.955186096966
 10
136171.459267142
 20
8656.980874144901
  0
LWPOLYLINE
  5
F5FA
330
22
100
AcDbEntity
  8
TODO
  6
Continuous
370
     5
100
AcDbPolyline
 90
        5
 70
     0
 43
0.0
 10
136202.4985620452
 20
9594.874727551003
 10
136206.0673765878
 20
9611.54484811172
 10
136234.7118091006
 20
9630.656789148932
 10
136232.3169467102
 20
9618.729435282956
 10
136202.4985620452
 20
9594.874727551003
  0
LWPOLYLINE
  5
F5FB
330
22
100
AcDbEntity
  8
TODO
  6
Continuous
370
     5
100
AcDbPolyline
 90
        5
 70
     0
 43
0.0
 10
136130.8874807633
 20
9528.053371049886
 10
136166.7165004473
 20
9566.230295038229
 10
136175.0280816846
 20
9563.835432647815
 10
136142.8148346292
 20
9528.053371049886
 10
136130.8874807633
 20
9528.053371049886
  0
LWPOLYLINE
  5
F5FC
330
22
100
AcDbEntity
  8
TODO
  6
Continuous
370
     5
100
AcDbPolyline
 90
        5
 70
     0
 43
0.0
 10
136219.215640692
 20
9427.797857255158
 10
136223.9584073868
 20
9444.514935901963
 10
136258.5665168325
 20
9475.554230805152
 10
136259.7874270708
 20
9468.369643633916
 10
136219.215640692
 20
9427.797857255158
  0
LWPOLYLINE
  5
F5FD
330
22
100
AcDbEntity
  8
TODO
  6
Continuous
370
     5
100
AcDbPolyline
 90
        8
 70
     0
 43
0.0
 10
136118.9601268973
 20
9427.797857255158
 10
136121.3549892877
 20
9599.617494245744
 10
136271.7147809367
 20
9754.767010675612
 10
136274.062685241
 20
9677.192252460678
 10
136262.1353313751
 20
9662.870036204295
 10
136274.062685241
 20
9659.301221661713
 10
136271.7147809367
 20
9582.947373685027
 10
136118.9601268973
 20
9427.797857255158
  0
LWPOLYLINE
  5
F5FE
330
22
100
AcDbEntity
  8
TODO
  6
Continuous
370
     5
100
AcDbPolyline
 90
        5
 70
     0
 43
0.0
 10
136159.531913276
 20
9372.90385462001
 10
136187.0023936367
 20
9402.769197371039
 10
136195.313974874
 20
9400.374334980632
 10
136166.7165004473
 20
9370.555950315691
 10
136159.531913276
 20
9372.90385462001
  0
LWPOLYLINE
  5
F5FF
330
22
100
AcDbEntity
  8
TODO
  6
Continuous
370
     5
100
AcDbPolyline
 90
       15
 70
     0
 43
0.0
 10
136118.9601268973
 20
9241.65600400819
 10
136123.7498516781
 20
9292.981192100757
 10
136115.3913123547
 20
9304.908545966733
 10
136123.7498516781
 20
9316.83589983271
 10
136118.9601268973
 20
9325.194439156105
 10
136135.6772055441
 20
9337.121793022088
 10
136118.9601268973
 20
9339.516655412495
 10
136118.9601268973
 20
9420.66022817001
 10
136130.8874807633
 20
9424.229042712584
 10
136270.4938706985
 20
9569.799109580803
 10
136276.4575476315
 20
9456.44228976794
 10
136270.4938706985
 20
9396.805520438058
 10
136166.7165004473
 20
9298.944869033745
 10
136135.6772055441
 20
9255.97822026458
 10
136118.9601268973
 20
9241.65600400819
  0
LWPOLYLINE
  5
F600
330
22
100
AcDbEntity
  8
TODO
  6
Continuous
370
     5
100
AcDbPolyline
 90
        5
 70
     0
 43
0.0
 10
136123.7498516781
 20
9987.444327234327
 10
136122.5289414399
 20
10072.15671453442
 10
136183.386621008
 20
10043.51228202163
 10
136135.6772055441
 20
9991.013141776908
 10
136123.7498516781
 20
9987.444327234327
  0
LWPOLYLINE
  5
F601
330
22
100
AcDbEntity
  8
TODO
  6
Continuous
370
     5
100
AcDbPolyline
 90
        8
 70
     0
 43
0.0
 10
136154.7421884952
 20
9913.438383561974
 10
136157.1370508856
 20
9925.36573742795
 10
136184.6075312463
 20
9949.220445159903
 10
136187.0023936367
 20
9961.194757111967
 10
136202.4985620452
 20
9961.194757111967
 10
136200.1036996548
 20
9949.220445159903
 10
136166.7165004473
 20
9915.833245952388
 10
136154.7421884952
 20
9913.438383561974
  0
LWPOLYLINE
  5
F602
330
22
100
AcDbEntity
  8
TODO
  6
Continuous
370
     5
100
AcDbPolyline
 90
       13
 70
     0
 43
0.0
 10
136118.9601268973
 20
9797.686701358696
 10
136121.3549892877
 20
9877.656321964037
 10
136130.8874807633
 20
9886.01486128744
 10
136118.9601268973
 20
9888.409723677854
 10
136121.3549892877
 20
9964.763571654541
 10
136187.0023936367
 20
10029.19006576525
 10
136198.9297475026
 20
10031.58492815566
 10
136228.7481321676
 20
9996.976818709889
 10
136216.8207783016
 20
9988.618279386494
 10
136217.9947304538
 20
9981.480650301339
 10
136234.7118091006
 20
9983.828554605665
 10
136258.5665168325
 20
9937.293091293926
 10
136118.9601268973
 20
9797.686701358696
  0
MTEXT
  5
F603
330
22
100
AcDbEntity
  8
TODO
100
AcDbMText
 10
138891.8702696909
 20
4467.957104860514
 30
0.0
 40
168.36404
 41
4337.377562075999
 71
     1
 72
     5
  1
PLANCHA EUROFLEX 20/50
 73
     1
 44
1.0
  0
POLYLINE
  5
F604
330
22
100
AcDbEntity
  8
TODO
  6
Continuous
370
     5
100
AcDb3dPolyline
 66
     1
 10
0.0
 20
0.0
 30
0.0
 70
     8
  0
VERTEX
  5
F605
330
F604
100
AcDbEntity
  8
TODO
  6
Continuous
370
     5
100
AcDbVertex
100
AcDb3dPolylineVertex
 10
143000.2653605099
 20
5152.674538980835
 30
0.0
 70
    32
  0
VERTEX
  5
F606
330
F604
100
AcDbEntity
  8
TODO
  6
Continuous
370
     5
100
AcDbVertex
100
AcDb3dPolylineVertex
 10
140734.2726840401
 20
5152.674538980835
 30
0.0
 70
    32
  0
VERTEX
  5
F607
330
F604
100
AcDbEntity
  8
TODO
  6
Continuous
370
     5
100
AcDbVertex
100
AcDb3dPolylineVertex
 10
139802.0438241198
 20
7117.515997978677
 30
0.0
 70
    32
  0
SEQEND
  5
F608
330
F604
100
AcDbEntity
  8
TODO
  6
Continuous
370
     5
  0
POLYLINE
  5
F609
330
22
100
AcDbEntity
  8
TODO
  6
Continuous
370
     5
100
AcDb3dPolyline
 66
     1
 10
0.0
 20
0.0
 30
0.0
 70
     8
  0
VERTEX
  5
F60A
330
F609
100
AcDbEntity
  8
TODO
  6
Continuous
370
     5
100
AcDbVertex
100
AcDb3dPolylineVertex
 10
142330.1882448434
 20
4226.245272452201
 30
0.0
 70
    32
  0
VERTEX
  5
F60B
330
F609
100
AcDbEntity
  8
TODO
  6
Continuous
370
     5
100
AcDbVertex
100
AcDb3dPolylineVertex
 10
138858.4924081234
 20
4226.245272452201
 30
0.0
 70
    32
  0
VERTEX
  5
F60C
330
F609
100
AcDbEntity
  8
TODO
  6
Continuous
370
     5
100
AcDbVertex
100
AcDb3dPolylineVertex
 10
138261.2421088484
 20
6606.574076063676
 30
0.0
 70
    32
  0
SEQEND
  5
F60D
330
F609
100
AcDbEntity
  8
TODO
  6
Continuous
370
     5
  0
LWPOLYLINE
  5
F60E
330
22
100
AcDbEntity
  8
TODO
  6
Continuous
370
     5
100
AcDbPolyline
 90
       16
 70
     0
 43
0.0
 10
140060.0583759669
 20
8173.7352102285
 10
138203.4765263641
 20
8179.698887161489
 10
138203.4765263641
 20
8242.951429120032
 10
138271.5187931035
 20
8248.915106053028
 10
138272.6927452556
 20
8322.92104972538
 10
138203.4765263641
 20
8330.058678810536
 10
138203.4765263641
 20
8394.485172921239
 10
140270.1018950319
 20
8386.126633597843
 10
140270.1018950319
 20
8322.92104972538
 10
140198.49081375
 20
8320.526187334974
 10
140196.0959513595
 20
8263.237322309411
 10
140204.454490683
 20
8246.520243662613
 10
140272.4497993363
 20
8242.951429120032
 10
140267.7070326415
 20
8174.956120466755
 10
140246.2002292139
 20
8171.387305924174
 10
140060.0583759669
 20
8173.7352102285
  0
LWPOLYLINE
  5
F60F
330
22
100
AcDbEntity
  8
TODO
  6
Continuous
370
     5
100
AcDbPolyline
 90
        6
 70
     0
 43
0.0
 10
139959.8498202583
 20
7387.469016795781
 10
139956.2810057157
 20
7393.43269372877
 10
140067.2429631382
 20
7503.220698999052
 10
140079.1703170041
 20
7500.825836608645
 10
139968.2083595817
 20
7387.469016795781
 10
139959.8498202583
 20
7387.469016795781
  0
LWPOLYLINE
  5
F610
330
22
100
AcDbEntity
  8
TODO
  6
Continuous
370
     5
100
AcDbPolyline
 90
       23
 70
     0
 43
0.0
 10
139634.1015770761
 20
7297.966904714864
 10
139635.2755292282
 20
7364.788261215988
 10
139629.3118522952
 20
7369.577985996817
 10
139622.1742232101
 20
7363.614309063822
 10
139296.4259800279
 20
7369.577985996817
 10
139291.6362552471
 20
7375.541662929798
 10
139714.0242395953
 20
7801.498461820644
 10
139944.3536518497
 20
8031.827874075032
 10
140048.1310221009
 20
8134.384334087998
 10
140064.8481007477
 20
8159.412993972117
 10
140279.6343865075
 20
8163.028766600779
 10
140243.8523249095
 20
8127.199746916762
 10
140242.6314146713
 20
8115.272393050778
 10
140254.5587685373
 20
8117.667255441193
 10
140287.9929258309
 20
8151.101412734803
 10
140290.3877882213
 20
8163.028766600779
 10
140502.7322535046
 20
8163.028766600779
 10
139974.1720365147
 20
7632.073687220472
 10
139861.989168854
 20
7524.680544340597
 10
139860.8152167018
 20
7512.753190474621
 10
139848.8878628358
 20
7510.358328084207
 10
139647.2498411803
 20
7301.582677343533
 10
139634.1015770761
 20
7297.966904714864
  0
LWPOLYLINE
  5
F611
330
22
100
AcDbEntity
  8
TODO
  6
Continuous
370
     5
100
AcDbPolyline
 90
       32
 70
     0
 43
0.0
 10
139968.2083595817
 20
7182.262180597681
 10
139969.3823117338
 20
7206.116888329634
 10
139949.0964185445
 20
7259.789980726528
 10
139945.5276040019
 20
7277.681011525492
 10
139878.7062475008
 20
7333.795924398888
 10
139836.9605089698
 20
7348.118140655271
 10
139777.2767815539
 20
7351.686955197845
 10
139721.2088267666
 20
7336.190786789295
 10
139671.1045489123
 20
7301.582677343533
 10
139637.6703916186
 20
7250.257489250958
 10
139635.2755292282
 20
7277.681011525492
 10
140191.3062265787
 20
7832.537756723832
 10
140293.9566027639
 20
7939.930899603714
 10
140449.0591611076
 20
8087.848870776252
 10
140520.6702423896
 20
8161.807856362524
 10
140661.450584477
 20
8159.412993972117
 10
140665.0193990196
 20
8109.308716117797
 10
140661.450584477
 20
8091.417685318833
 10
140637.5958767451
 20
8072.352702367702
 10
140639.9907391355
 20
8065.215073282554
 10
140660.2766323249
 20
8079.490331452856
 10
140661.450584477
 20
7978.10782359205
 10
140654.3129553918
 20
7862.35614138878
 10
140573.1693826343
 20
7789.571107954667
 10
140526.6339193226
 20
7731.108290776945
 10
140296.3514651543
 20
7504.394651151219
 10
140236.6677377383
 20
7453.116421144732
 10
140188.9583222744
 20
7397.001508271343
 10
140061.2792862052
 20
7277.681011525492
 10
140060.0583759669
 20
7265.753657659516
 10
140048.1310221009
 20
7264.579705507349
 10
139968.2083595817
 20
7182.262180597681
  0
LWPOLYLINE
  5
F612
330
22
100
AcDbEntity
  8
TODO
  6
Continuous
370
     5
100
AcDbPolyline
 90
        5
 70
     0
 43
0.0
 10
140024.276314369
 20
7003.257956435853
 10
140119.7421033829
 20
7104.68742238274
 10
140131.6694572489
 20
7103.51347023058
 10
140036.2036682349
 20
7003.257956435853
 10
140024.276314369
 20
7003.257956435853
  0
LWPOLYLINE
  5
F613
330
22
100
AcDbEntity
  8
TODO
  6
Continuous
370
     5
100
AcDbPolyline
 90
       32
 70
     0
 43
0.0
 10
139952.665233087
 20
6763.443010791991
 10
139945.5276040019
 20
6999.689141893279
 10
139932.4262979837
 20
7005.652818826267
 10
139872.7425705678
 20
7003.257956435853
 10
139869.1737560252
 20
7018.801082930499
 10
139916.8831714891
 20
7047.398557357184
 10
139964.6395450391
 20
7115.440824096557
 10
139969.3823117338
 20
7166.719054103036
 10
140081.5651793946
 20
7277.681011525492
 10
140150.7813982861
 20
7349.292092807438
 10
140174.636106018
 20
7363.614309063822
 10
140196.0959513595
 20
7393.43269372877
 10
140231.8780129575
 20
7420.903174089384
 10
140365.5207259597
 20
7560.509564024615
 10
140391.7702960821
 20
7579.574546975738
 10
140651.9180930014
 20
7850.428787522796
 10
140654.3129553918
 20
7818.215540467441
 10
140630.4112895738
 20
7623.71514789707
 10
140618.4839357078
 20
7611.787794031094
 10
140618.4839357078
 20
7599.860440165117
 10
140601.8138151471
 20
7596.291625622544
 10
140579.1330595673
 20
7565.252330719348
 10
140530.2027338652
 20
7516.322005017195
 10
140532.5975962556
 20
7504.394651151219
 10
140619.7048459461
 20
7591.501900841715
 10
140606.5565818418
 20
7492.467297285242
 10
140577.9121493291
 20
7381.505339862793
 10
140570.7745202439
 20
7325.437385075486
 10
140335.7023412948
 20
7086.796391583775
 10
140291.5617403734
 20
7051.014329985846
 10
140007.5592357222
 20
6763.443010791991
 10
139952.665233087
 20
6763.443010791991
  0
LWPOLYLINE
  5
F615
330
22
100
AcDbEntity
  8
TODO
  6
Continuous
370
     5
100
AcDbPolyline
 90
       18
 70
     0
 43
0.0
 10
138092.5145689416
 20
5138.270609423547
 10
138087.7718022469
 20
5144.234286356535
 10
138560.2171063634
 20
5629.874812663344
 10
138906.251242735
 20
5627.479950272937
 10
138909.8200572776
 20
5621.516273339948
 10
138926.5371359243
 20
5629.874812663344
 10
139282.1037637715
 20
5631.095722901598
 10
139128.1751575799
 20
5467.634625234416
 10
139017.2132001575
 20
5406.776945666279
 10
138783.3619314465
 20
5302.952617328978
 10
138655.6828953773
 20
5257.591106169406
 10
138549.4637046496
 20
5225.377859114044
 10
138543.5000277166
 20
5240.920985608682
 10
138533.967536241
 20
5228.993631742705
 10
138520.8192721368
 20
5227.772721504458
 10
138516.0765054421
 20
5213.450505248067
 10
138176.0530040896
 20
5144.234286356535
 10
138092.5145689416
 20
5138.270609423547
  0
LWPOLYLINE
  5
F616
330
22
100
AcDbEntity
  8
TODO
  6
Continuous
370
     5
100
AcDbPolyline
 90
       16
 70
     0
 43
0.0
 10
137714.2671855147
 20
5120.379578624583
 10
137562.7334417135
 20
5128.738117947985
 10
137359.9214679058
 20
5158.556502612926
 10
137813.3017890712
 20
5629.874812663344
 10
138176.0530040896
 20
5629.874812663344
 10
137992.306013233
 20
5440.164144873794
 10
138004.233367099
 20
5440.164144873794
 10
138183.1906331747
 20
5627.479950272937
 10
138539.931213174
 20
5631.095722901598
 10
138533.967536241
 20
5615.552596406953
 10
138149.8034339672
 20
5217.019319790648
 10
138128.3435886257
 20
5205.091965924672
 10
138125.9487262352
 20
5193.164612058696
 10
138068.6598612097
 20
5135.922705119221
 10
137881.3440558105
 20
5120.379578624583
 10
137714.2671855147
 20
5120.379578624583
  0
POLYLINE
  5
F617
330
22
100
AcDbEntity
  8
TODO
  6
Continuous
370
     5
100
AcDb3dPolyline
 66
     1
 10
0.0
 20
0.0
 30
0.0
 70
     8
  0
VERTEX
  5
F618
330
F617
100
AcDbEntity
  8
TODO
  6
Continuous
370
     5
100
AcDbVertex
100
AcDb3dPolylineVertex
 10
137247.7956381647
 20
5247.655309829497
 30
0.0
 70
    32
  0
VERTEX
  5
F619
330
F617
100
AcDbEntity
  8
TODO
  6
Continuous
370
     5
100
AcDbVertex
100
AcDb3dPolylineVertex
 10
137342.6879255081
 20
5292.245898558016
 30
0.0
 70
    32
  0
VERTEX
  5
F61A
330
F617
100
AcDbEntity
  8
TODO
  6
Continuous
370
     5
100
AcDbVertex
100
AcDb3dPolylineVertex
 10
137303.5887885934
 20
5202.845063028435
 30
0.0
 70
    32
  0
VERTEX
  5
F61B
330
F617
100
AcDbEntity
  8
TODO
  6
Continuous
370
     5
100
AcDbVertex
100
AcDb3dPolylineVertex
 10
137247.7956381647
 20
5247.655309829497
 30
0.0
 70
    32
  0
SEQEND
  5
F61C
330
F617
100
AcDbEntity
  8
TODO
  6
Continuous
370
     5
  0
LWPOLYLINE
  5
F61D
330
22
100
AcDbEntity
  8
TODO
  6
Continuous
370
     5
100
AcDbPolyline
 90
        6
 70
     0
 43
0.0
 10
137066.386471779
 20
5249.232566845996
 10
137192.8445976099
 20
5394.849591800303
 10
137236.9851985313
 20
5434.200467940813
 10
137248.9125523973
 20
5433.026515788646
 10
137078.313825645
 20
5248.058614693837
 10
137066.386471779
 20
5249.232566845996
  0
LWPOLYLINE
  5
F61E
330
22
100
AcDbEntity
  8
TODO
  6
Continuous
370
     5
100
AcDbPolyline
 90
       22
 70
     0
 43
0.0
 10
137336.0198020877
 20
5156.2085983086
 10
137097.3788085961
 20
5203.918013772505
 10
136775.2463380425
 20
5308.916294261973
 10
136781.2100149755
 20
5324.412462670523
 10
136906.4941886544
 20
5456.881223520599
 10
136918.4215425203
 20
5460.45003806318
 10
136923.1643092151
 20
5474.772254319563
 10
136939.8813878619
 20
5479.561979100392
 10
136942.2762502523
 20
5493.884195356775
 10
137042.4848059609
 20
5589.303026284593
 10
137073.5241008641
 20
5629.874812663344
 10
137431.4855911017
 20
5629.874812663344
 10
137332.4509875452
 20
5532.061119345119
 10
137336.0198020877
 20
5526.097442412138
 10
137347.9471559537
 20
5528.445346716457
 10
137448.2026697485
 20
5629.874812663344
 10
137803.7692975956
 20
5631.095722901598
 10
137568.6971186465
 20
5384.096190086493
 10
137519.7667929443
 20
5335.165864384333
 10
137507.8394390784
 20
5332.771001993926
 10
137505.491534774
 20
5320.84364812795
 10
137336.0198020877
 20
5156.2085983086
  0
LWPOLYLINE
  5
F61F
330
22
100
AcDbEntity
  8
TODO
  6
Continuous
370
     5
100
AcDbPolyline
 90
        7
 70
     0
 43
0.0
 10
137714.2671855147
 20
5145.45519659479
 10
137715.488095753
 20
5157.382550460767
 10
137896.8402242191
 20
5336.3398165365
 10
137896.8402242191
 20
5326.80732506093
 10
137884.9128703531
 20
5302.952617328978
 10
137865.8009293159
 20
5295.768030157742
 10
137714.2671855147
 20
5145.45519659479
  0
LWPOLYLINE
  5
F620
330
22
100
AcDbEntity
  8
TODO
  6
Continuous
370
     5
100
AcDbPolyline
 90
        7
 70
     0
 43
0.0
 10
138635.3970021879
 20
5332.771001993926
 10
138637.7918645783
 20
5344.698355859902
 10
138822.7128075871
 20
5527.271394564297
 10
138822.7128075871
 20
5515.344040698321
 10
138674.7478783284
 20
5364.984249049274
 10
138652.1140808347
 20
5337.560726774747
 10
138635.3970021879
 20
5332.771001993926
  0
POLYLINE
  5
F621
330
22
100
AcDbEntity
  8
TODO
  6
Continuous
370
     5
100
AcDb3dPolyline
 66
     1
 10
0.0
 20
0.0
 30
0.0
 70
     8
  0
VERTEX
  5
F622
330
F621
100
AcDbEntity
  8
TODO
  6
Continuous
370
     5
100
AcDbVertex
100
AcDb3dPolylineVertex
 10
138300.341245763
 20
6623.377918614075
 30
0.0
 70
    32
  0
VERTEX
  5
F623
330
F621
100
AcDbEntity
  8
TODO
  6
Continuous
370
     5
100
AcDbVertex
100
AcDb3dPolylineVertex
 10
138216.6515201199
 20
6690.373630743125
 30
0.0
 70
    32
  0
VERTEX
  5
F624
330
F621
100
AcDbEntity
  8
TODO
  6
Continuous
370
     5
100
AcDbVertex
100
AcDb3dPolylineVertex
 10
138222.1429719337
 20
6589.770233513278
 30
0.0
 70
    32
  0
VERTEX
  5
F625
330
F621
100
AcDbEntity
  8
TODO
  6
Continuous
370
     5
100
AcDbVertex
100
AcDb3dPolylineVertex
 10
138300.341245763
 20
6623.377918614075
 30
0.0
 70
    32
  0
SEQEND
  5
F626
330
F621
100
AcDbEntity
  8
TODO
  6
Continuous
370
     5
  0
LWPOLYLINE
  5
F627
330
22
100
AcDbEntity
  8
TODO
  6
Continuous
370
     5
100
AcDbPolyline
 90
       22
 70
     0
 43
0.0
 10
139332.2080416258
 20
5816.01666591032
 10
139276.1400868385
 20
5832.733744557117
 10
139208.1447781852
 20
5881.664070259278
 10
139178.2794354342
 20
5929.373485723183
 10
139166.3520815682
 20
5973.514086644514
 10
139166.3520815682
 20
6036.766628603058
 10
139181.8952080629
 20
6088.091816695625
 10
139214.1084551182
 20
6135.801232159531
 10
139255.8541936491
 20
6168.014479214893
 10
139311.9221484364
 20
6190.695234794679
 10
139371.6058758524
 20
6194.264049337253
 10
139434.8584178109
 20
6178.767880928703
 10
139482.5678332749
 20
6146.554633873347
 10
139514.7810803302
 20
6104.761937256342
 10
139536.2409256718
 20
6052.262797011615
 10
139539.8566983004
 20
5980.69867381575
 10
139532.6721111292
 20
5944.916612217821
 10
139500.4588640738
 20
5885.232884801851
 10
139463.4558922377
 20
5851.845685594337
 10
139434.8584178109
 20
5833.907696709284
 10
139371.6058758524
 20
5816.01666591032
 10
139332.2080416258
 20
5816.01666591032
  0
LWPOLYLINE
  5
F628
330
22
100
AcDbEntity
  8
TODO
  6
Continuous
370
     5
100
AcDbPolyline
 90
        8
 70
     0
 43
0.0
 10
139165.1781294161
 20
5492.663285118528
 10
139189.032837148
 20
5510.554315917492
 10
139226.0358089842
 20
5559.484641619652
 10
139289.2883509427
 20
5627.479950272937
 10
139387.1020442609
 20
5629.874812663344
 10
139288.0674407045
 20
5559.484641619652
 10
139172.3157585012
 20
5490.268422728113
 10
139165.1781294161
 20
5492.663285118528
  0
POLYLINE
  5
F629
330
22
100
AcDbEntity
  8
TODO
  6
Continuous
370
     5
100
AcDb3dPolyline
 66
     1
 10
0.0
 20
0.0
 30
0.0
 70
     8
  0
VERTEX
  5
F62A
330
F629
100
AcDbEntity
  8
TODO
  6
Continuous
370
     5
100
AcDbVertex
100
AcDb3dPolylineVertex
 10
139365.7649820028
 20
8647.050396132596
 30
0.0
 70
    32
  0
VERTEX
  5
F62B
330
F629
100
AcDbEntity
  8
TODO
  6
Continuous
370
     5
100
AcDbVertex
100
AcDb3dPolylineVertex
 10
138249.4626572821
 20
8647.050396132596
 30
0.0
 70
    32
  0
VERTEX
  5
F62C
330
F629
100
AcDbEntity
  8
TODO
  6
Continuous
370
     5
100
AcDbVertex
100
AcDb3dPolylineVertex
 10
137797.4063439654
 20
8351.390630474561
 30
0.0
 70
    32
  0
SEQEND
  5
F62D
330
F629
100
AcDbEntity
  8
TODO
  6
Continuous
370
     5
  0
LWPOLYLINE
  5
F62E
330
22
100
AcDbEntity
  8
TODO
  6
Continuous
370
     5
100
AcDbPolyline
 90
        5
 70
     0
 43
0.0
 10
138131.9124031682
 20
8254.878782986016
 10
138131.9124031682
 20
8318.13132494456
 10
138266.7290683226
 20
8318.13132494456
 10
138266.7290683226
 20
8254.878782986016
 10
138131.9124031682
 20
8254.878782986016
  0
LWPOLYLINE
  5
F62F
330
22
100
AcDbEntity
  8
TODO
  6
Continuous
370
     5
100
AcDbPolyline
 90
        7
 70
     0
 43
0.0
 10
138195.1649451268
 20
7850.428787522796
 10
138235.6897734195
 20
7888.60571151114
 10
138248.8380375237
 20
7913.681329481347
 10
138298.942315378
 20
7956.647978250512
 10
138307.3008547014
 20
7954.253115860098
 10
138207.0922989927
 20
7849.254835370637
 10
138195.1649451268
 20
7850.428787522796
  0
LWPOLYLINE
  5
F630
330
22
100
AcDbEntity
  8
TODO
  6
Continuous
370
     5
100
AcDbPolyline
 90
       19
 70
     0
 43
0.0
 10
137034.1732247236
 20
6907.792167421954
 10
137035.3471768757
 20
7006.826770978434
 10
137022.2458708576
 20
7014.01135814967
 10
136950.6347895757
 20
7015.185310301837
 10
136954.2036041183
 20
7049.793419747599
 10
136783.6048773659
 20
7053.362234290173
 10
136772.8514756521
 20
7062.941683851823
 10
136781.2100149755
 20
7083.227577041202
 10
137857.4893480786
 20
8170.166395685927
 10
138061.5222321245
 20
8171.387305924174
 10
138020.9504457458
 20
8129.594609307169
 10
137988.7371986904
 20
8098.602272490069
 10
137985.1214260618
 20
8084.280056233678
 10
137970.7992098054
 20
8079.490331452856
 10
137968.451305501
 20
8067.562977586873
 10
137985.1214260618
 20
8072.352702367702
 10
138075.8444483809
 20
8167.771533295512
 10
138288.2358717503
 20
8167.771533295512
 10
137034.1732247236
 20
6907.792167421954
  0
LWPOLYLINE
  5
F633
330
22
100
AcDbEntity
  8
TODO
  6
Continuous
370
     5
100
AcDbPolyline
 90
       21
 70
     0
 43
0.0
 10
138207.0922989927
 20
6409.05033509701
 10
138176.0530040896
 20
6417.408874420405
 10
138133.0863553204
 20
6462.723427493904
 10
138133.0863553204
 20
6505.690076263068
 10
138156.9410630523
 20
6546.261862641826
 10
138168.9153750044
 20
6585.659696868417
 10
138180.8427288704
 20
6594.018236191812
 10
138197.5128494311
 20
6657.223820064275
 10
138197.5128494311
 20
6693.052839748292
 10
138180.8427288704
 20
6725.266086803647
 10
138147.4085715768
 20
6752.689609078174
 10
138219.0196528587
 20
6758.653286011162
 10
138224.9833297917
 20
6764.61696294415
 10
138233.3418691151
 20
6836.228044226096
 10
138240.4794982003
 20
6804.014797170741
 10
138335.9452872142
 20
6605.945590057789
 10
138344.3038265376
 20
6570.116570373779
 10
138352.662365861
 20
6529.544783995021
 10
138320.4491188056
 20
6462.723427493904
 10
138271.5187931035
 20
6420.977688962987
 10
138207.0922989927
 20
6409.05033509701
  0
LWPOLYLINE
  5
F634
330
22
100
AcDbEntity
  8
TODO
  6
Continuous
370
     5
100
AcDbPolyline
 90
        5
 70
     0
 43
0.0
 10
136532.9895719222
 20
7521.111729798024
 10
136632.0241754786
 20
7622.541195744911
 10
136643.9984874307
 20
7620.146333354496
 10
136541.3481112455
 20
7518.716867407609
 10
136532.9895719222
 20
7521.111729798024
  0
LWPOLYLINE
  5
F635
330
22
100
AcDbEntity
  8
TODO
  6
Continuous
370
     5
100
AcDbPolyline
 90
        5
 70
     0
 43
0.0
 10
137865.8009293159
 20
7516.322005017195
 10
137956.5239516351
 20
7611.787794031094
 10
137968.451305501
 20
7611.787794031094
 10
137872.9855164872
 20
7515.148052865028
 10
137865.8009293159
 20
7516.322005017195
  0
LWPOLYLINE
  5
F636
330
22
100
AcDbEntity
  8
TODO
  6
Continuous
370
     5
100
AcDbPolyline
 90
        6
 70
     0
 43
0.0
 10
136918.4215425203
 20
7453.116421144732
 10
136921.9903570629
 20
7465.043775010708
 10
137022.2458708576
 20
7564.078378567188
 10
137023.4198230098
 20
7555.719839243786
 10
136930.3488963863
 20
7456.685235687313
 10
136918.4215425203
 20
7453.116421144732
  0
LWPOLYLINE
  5
F637
330
22
100
AcDbEntity
  8
TODO
  6
Continuous
370
     5
100
AcDbPolyline
 90
       27
 70
     0
 43
0.0
 10
136756.1343970053
 20
7071.300223175225
 10
136753.7395346149
 20
7241.898949927563
 10
136753.7395346149
 20
7274.112196982911
 10
136772.8514756521
 20
7301.582677343533
 10
136825.3506158968
 20
7345.723278264864
 10
136832.488244982
 20
7364.788261215988
 10
136852.7741381714
 20
7385.074154405367
 10
136850.379275781
 20
7393.43269372877
 10
136760.9241217861
 20
7301.582677343533
 10
136753.7395346149
 20
7321.868570532912
 10
136759.7032115479
 20
7345.723278264864
 10
136753.7395346149
 20
7352.860907350012
 10
136757.3553072436
 20
7381.505339862793
 10
136739.4173183585
 20
7397.001508271343
 10
136676.211734486
 20
7400.617280900005
 10
136676.211734486
 20
7417.287401460722
 10
137216.6993053419
 20
7980.502685982465
 10
137376.5915884665
 20
8134.384334087998
 10
137404.0620688271
 20
8170.166395685927
 10
137622.4171691295
 20
8170.166395685927
 10
137583.0193349029
 20
8128.420657155009
 10
137594.9466887689
 20
8128.420657155009
 10
137634.3445229954
 20
8170.166395685927
 10
137843.1671318222
 20
8167.771533295512
 10
137127.2441513471
 20
7453.116421144732
 10
136876.6758039894
 20
7190.620719921077
 10
136756.1343970053
 20
7071.300223175225
  0
LWPOLYLINE
  5
F638
330
22
100
AcDbEntity
  8
TODO
  6
Continuous
370
     5
100
AcDbPolyline
 90
        6
 70
     0
 43
0.0
 10
137189.2757830674
 20
6840.970810920837
 10
137293.1001114047
 20
6942.400276867724
 10
137308.5962798132
 20
6947.190001648545
 10
137302.6326028802
 20
6931.693833239995
 10
137192.8445976099
 20
6836.228044226096
 10
137189.2757830674
 20
6840.970810920837
  0
LWPOLYLINE
  5
F639
330
22
100
AcDbEntity
  8
TODO
  6
Continuous
370
     5
100
AcDbPolyline
 90
       24
 70
     0
 43
0.0
 10
137213.1304907993
 20
6417.408874420405
 10
137192.8445976099
 20
6418.582826572572
 10
137186.880920677
 20
6431.731090676796
 10
137163.026212945
 20
6454.411846256589
 10
137154.6676736216
 20
6498.552447177921
 10
137171.3847522684
 20
6529.544783995021
 10
137178.5223813536
 20
6561.758031050376
 10
137195.2394600004
 20
6577.301157545015
 10
137195.2394600004
 20
6597.587050734393
 10
137222.6629822749
 20
6660.839592692937
 10
137219.0941677323
 20
6713.338732937671
 10
137180.917243744
 20
6749.1207945356
 10
137180.917243744
 20
6755.084471468588
 10
137288.3103866239
 20
6758.653286011162
 10
137296.6689259473
 20
6751.515656926014
 10
137236.9851985313
 20
6693.052839748292
 10
137246.564648093
 20
6648.86528074088
 10
137290.7052490143
 20
6549.8306771844
 10
137306.2014174228
 20
6522.407154909873
 10
137314.5599567462
 20
6490.193907854511
 10
137297.8428780994
 20
6442.437534304525
 10
137279.9518473005
 20
6430.510180438549
 10
137276.3830327579
 20
6418.582826572572
 10
137213.1304907993
 20
6417.408874420405
  0
LWPOLYLINE
  5
F63A
330
22
100
AcDbEntity
  8
TODO
  6
Continuous
370
     5
100
AcDbPolyline
 90
        8
 70
     0
 43
0.0
 10
137013.8873315342
 20
6919.719521287931
 10
136999.5651152778
 20
6947.190001648545
 10
136950.6347895757
 20
7002.084004283694
 10
137019.8510084672
 20
7003.257956435853
 10
137016.2352358386
 20
6991.330602569884
 10
137022.2458708576
 20
6987.761788027303
 10
137022.2458708576
 20
6923.335293916592
 10
137013.8873315342
 20
6919.719521287931
  0
LWPOLYLINE
  5
F63B
330
22
100
AcDbEntity
  8
TODO
  6
Continuous
370
     5
100
AcDbPolyline
 90
       43
 70
     0
 43
0.0
 10
136703.6352567606
 20
6417.408874420405
 10
136643.9984874307
 20
6424.54650350556
 10
136596.2421138807
 20
6448.448169323601
 10
136518.7143137518
 20
6517.617430129045
 10
136503.1711872572
 20
6543.867000251412
 10
136486.4541086104
 20
6589.228511410991
 10
136482.8852940678
 20
6645.296466198299
 10
136491.2438333912
 20
6693.052839748292
 10
136510.3557744285
 20
6740.762255212197
 10
136527.0258949891
 20
6761.048148401576
 10
136527.0258949891
 20
6772.975502267553
 10
136534.2104821604
 20
6784.902856133529
 10
136562.8549146732
 20
6846.934487853825
 10
136590.2784369477
 20
6916.150706745357
 10
136608.1694677467
 20
6931.693833239995
 10
136605.7746053563
 20
6947.190001648545
 10
136653.5309789063
 20
7039.040018033789
 10
136670.248057553
 20
7062.941683851823
 10
136685.7442259616
 20
7182.262180597681
 10
136629.6762711743
 20
7274.112196982911
 10
136629.6762711743
 20
7286.039550848895
 10
136589.1044847955
 20
7319.473708142497
 10
136529.4207573796
 20
7357.650632130841
 10
136532.9895719222
 20
7363.614309063822
 10
136711.993796084
 20
7361.219446673414
 10
136711.993796084
 20
7006.826770978434
 10
136807.4595850979
 20
7002.084004283694
 10
136779.9891047372
 20
6985.366925636888
 10
136768.0617508713
 20
6966.254984599676
 10
136753.7395346149
 20
6959.117355514521
 10
136729.8848268829
 20
6919.719521287931
 10
136727.4899644925
 20
6883.937459690002
 10
136721.5262875595
 20
6880.368645147428
 10
136733.4536414255
 20
6844.586583549499
 10
136729.8848268829
 20
6824.30069036012
 10
136741.8121807489
 20
6812.373336494144
 10
136760.9241217861
 20
6752.689609078174
 10
136789.5685542989
 20
6708.549008156842
 10
136849.2053236288
 20
6561.758031050376
 10
136840.8467843054
 20
6502.121261720495
 10
136808.63353725
 20
6454.411846256589
 10
136768.0617508713
 20
6424.54650350556
 10
136703.6352567606
 20
6417.408874420405
  0
LWPOLYLINE
  5
F63C
330
22
100
AcDbEntity
  8
TODO
  6
Continuous
370
     5
100
AcDbPolyline
 90
       22
 70
     0
 43
0.0
 10
137022.2458708576
 20
6417.408874420405
 10
136989.9856657162
 20
6424.54650350556
 10
136930.3488963863
 20
6472.302877055554
 10
136904.0993262639
 20
6537.903323318424
 10
136904.0993262639
 20
6565.373803679038
 10
136944.6711126427
 20
6665.582359387678
 10
136956.5984665087
 20
6672.766946558913
 10
136956.5984665087
 20
6693.052839748292
 10
136997.1702528874
 20
6778.939179200541
 10
137016.2352358386
 20
6815.942151036717
 10
137022.2458708576
 20
6812.373336494144
 10
137023.4198230098
 20
6772.975502267553
 10
137030.5574520949
 20
6763.443010791991
 10
137097.3788085961
 20
6758.653286011162
 10
137102.1685333769
 20
6752.689609078174
 10
137063.9916093886
 20
6716.907547480245
 10
137052.0642555226
 20
6689.43706711963
 10
137052.0642555226
 20
6660.839592692937
 10
137118.8856120237
 20
6505.690076263068
 10
137115.3167974811
 20
6469.908014665139
 10
137081.8826401875
 20
6420.977688962987
 10
137022.2458708576
 20
6417.408874420405
  0
LWPOLYLINE
  5
F63D
330
22
100
AcDbEntity
  8
TODO
  6
Continuous
370
     5
100
AcDbPolyline
 90
        6
 70
     0
 43
0.0
 10
137137.9505949748
 20
7226.402781519006
 10
137142.7403197556
 20
7241.898949927563
 10
137222.6629822749
 20
7333.795924398888
 10
137245.3437378547
 20
7345.723278264864
 10
137240.6009711599
 20
7329.006199618059
 10
137137.9505949748
 20
7226.402781519006
  0
LWPOLYLINE
  5
F63E
330
22
100
AcDbEntity
  8
TODO
  6
Continuous
370
     5
100
AcDbPolyline
 90
        5
 70
     0
 43
0.0
 10
136974.4894973076
 20
7062.941683851823
 10
137073.5241008641
 20
7172.682731036024
 10
137081.8826401875
 20
7170.334826731705
 10
136982.848036631
 20
7061.720773613575
 10
136974.4894973076
 20
7062.941683851823
  0
LWPOLYLINE
  5
F63F
330
22
100
AcDbEntity
  8
TODO
  6
Continuous
370
     5
100
AcDbPolyline
 90
        6
 70
     0
 43
0.0
 10
137741.7376658753
 20
6940.005414477317
 10
137744.1325282657
 20
6951.979726429374
 10
137843.1671318222
 20
7051.014329985846
 10
137857.4893480786
 20
7051.014329985846
 10
137757.2338342839
 20
6947.190001648545
 10
137741.7376658753
 20
6940.005414477317
  0
LWPOLYLINE
  5
F640
330
22
100
AcDbEntity
  8
TODO
  6
Continuous
370
     5
100
AcDbPolyline
 90
       21
 70
     0
 43
0.0
 10
137813.3017890712
 20
6412.619149639584
 10
137785.8782667966
 20
6420.977688962987
 10
137747.7013428083
 20
6466.339200122566
 10
137744.1325282657
 20
6493.762722397092
 10
137754.8389718934
 20
6518.838340367292
 10
137759.6286966743
 20
6534.33450877585
 10
137810.9538847668
 20
6660.839592692937
 10
137810.9538847668
 20
6693.052839748292
 10
137794.23680612
 20
6732.403715888795
 10
137765.5923736073
 20
6752.689609078174
 10
137881.3440558105
 20
6755.084471468588
 10
137884.9128703531
 20
6749.1207945356
 10
137845.5150361265
 20
6719.302409870659
 10
137827.6240053276
 20
6672.766946558913
 10
137870.5906540967
 20
6567.768666069453
 10
137890.8765472861
 20
6514.048615586471
 10
137899.2350866095
 20
6502.121261720495
 10
137899.2350866095
 20
6469.908014665139
 10
137882.5180079627
 20
6438.868719761944
 10
137857.4893480786
 20
6417.408874420405
 10
137813.3017890712
 20
6412.619149639584
  0
LWPOLYLINE
  5
F641
330
22
100
AcDbEntity
  8
TODO
  6
Continuous
370
     5
100
AcDbPolyline
 90
       18
 70
     0
 43
0.0
 10
137603.3052280922
 20
6417.408874420405
 10
137567.5231664943
 20
6441.263582152358
 10
137550.8060878475
 20
6465.118289884311
 10
137555.5958126283
 20
6471.081966817299
 10
137547.237273305
 20
6483.009320683275
 10
137548.4112254571
 20
6505.690076263068
 10
137624.8120315199
 20
6672.766946558913
 10
137612.8377195678
 20
6704.980193614269
 10
137583.0193349029
 20
6746.725932145186
 10
137567.5231664943
 20
6751.515656926014
 10
137698.7710171061
 20
6755.084471468588
 10
137654.6304161848
 20
6731.229763736628
 10
137636.7393853858
 20
6684.69430042489
 10
137643.877014471
 20
6641.727651655725
 10
137708.3035085817
 20
6490.193907854511
 10
137696.3761547157
 20
6450.79607362792
 10
137658.1992307274
 20
6417.408874420405
 10
137603.3052280922
 20
6417.408874420405
  0
LWPOLYLINE
  5
F642
330
22
100
AcDbEntity
  8
TODO
  6
Continuous
370
     5
100
AcDbPolyline
 90
       23
 70
     0
 43
0.0
 10
137412.4206081505
 20
6417.408874420405
 10
137392.1347149612
 20
6420.977688962987
 10
137382.5552653995
 20
6431.731090676796
 10
137368.2330491431
 20
6438.868719761944
 10
137353.9577909728
 20
6469.908014665139
 10
137357.5266055154
 20
6514.048615586471
 10
137374.1967260761
 20
6553.446449813062
 10
137386.1710380282
 20
6561.758031050376
 10
137386.1710380282
 20
6582.043924239755
 10
137425.5219141687
 20
6648.86528074088
 10
137421.9530996261
 20
6684.69430042489
 10
137405.2360209793
 20
6720.476362022819
 10
137377.8124987048
 20
6749.1207945356
 10
137380.2073610952
 20
6755.084471468588
 10
137495.9120852124
 20
6751.515656926014
 10
137445.807807358
 20
6713.338732937671
 10
137442.2389928155
 20
6672.766946558913
 10
137445.807807358
 20
6633.369112332322
 10
137509.0603493166
 20
6505.690076263068
 10
137509.0603493166
 20
6469.908014665139
 10
137485.2056415846
 20
6434.125953067211
 10
137460.1300236144
 20
6417.408874420405
 10
137412.4206081505
 20
6417.408874420405
  0
LWPOLYLINE
  5
F643
330
22
100
AcDbEntity
  8
TODO
  6
Continuous
370
     5
100
AcDbPolyline
 90
       23
 70
     0
 43
0.0
 10
137997.0487799277
 20
6412.619149639584
 10
137976.8098448245
 20
6420.977688962987
 10
137946.9445020734
 20
6450.79607362792
 10
137938.58596275
 20
6469.908014665139
 10
137938.58596275
 20
6502.121261720495
 10
137946.9445020734
 20
6522.407154909873
 10
137958.8718559394
 20
6529.544783995021
 10
137958.8718559394
 20
6549.8306771844
 10
137998.269690166
 20
6625.01057300892
 10
138006.6282294894
 20
6672.766946558913
 10
137994.7008756234
 20
6713.338732937671
 10
137966.0564431106
 20
6740.762255212197
 10
137968.451305501
 20
6755.084471468588
 10
138078.1923526853
 20
6756.258423620748
 10
138043.5842432395
 20
6725.266086803647
 10
138025.6932124405
 20
6689.43706711963
 10
138025.6932124405
 20
6660.839592692937
 10
138049.5948782586
 20
6589.228511410991
 10
138090.1197065512
 20
6505.690076263068
 10
138090.1197065512
 20
6462.723427493904
 10
138057.9064594959
 20
6422.198599201234
 10
138036.4466141543
 20
6412.619149639584
 10
137997.0487799277
 20
6412.619149639584
  0
LWPOLYLINE
  5
F644
330
22
100
AcDbEntity
  8
TODO
  6
Continuous
370
     5
100
AcDbPolyline
 90
        5
 70
     0
 43
0.0
 10
137698.7710171061
 20
7349.292092807438
 10
137804.9432497478
 20
7453.116421144732
 10
137807.3381121382
 20
7436.399342497934
 10
137705.9086461913
 20
7348.118140655271
 10
137698.7710171061
 20
7349.292092807438
  0
LWPOLYLINE
  5
F645
330
22
100
AcDbEntity
  8
TODO
  6
Continuous
370
     5
100
AcDbPolyline
 90
        5
 70
     0
 43
0.0
 10
137308.5962798132
 20
7405.360047594746
 10
137407.6308833697
 20
7506.789513541633
 10
137415.9894226931
 20
7504.394651151219
 10
137316.9548191366
 20
7403.012143290412
 10
137308.5962798132
 20
7405.360047594746
  0
LWPOLYLINE
  5
F646
330
22
100
AcDbEntity
  8
TODO
  6
Continuous
370
     5
100
AcDbPolyline
 90
        5
 70
     0
 43
0.0
 10
137526.9513801156
 20
7178.646407969012
 10
137627.1599358242
 20
7280.075873915906
 10
137634.3445229954
 20
7277.681011525492
 10
137538.8787339815
 20
7178.646407969012
 10
137526.9513801156
 20
7178.646407969012
  0
LWPOLYLINE
  5
F647
330
22
100
AcDbEntity
  8
TODO
  6
Continuous
370
     5
100
AcDbPolyline
 90
        5
 70
     0
 43
0.0
 10
137359.9214679058
 20
7003.257956435853
 10
137457.735161224
 20
7110.651099315728
 10
137472.0573774804
 20
7110.651099315728
 10
137368.2330491431
 20
7002.084004283694
 10
137359.9214679058
 20
7003.257956435853
  0
LWPOLYLINE
  5
F648
330
22
100
AcDbEntity
  8
TODO
  6
Continuous
370
     5
100
AcDbPolyline
 90
        6
 70
     0
 43
0.0
 10
138080.5872150757
 20
7277.681011525492
 10
138091.3406167895
 20
7297.966904714864
 10
138186.8064058034
 20
7393.43269372877
 10
138186.8064058034
 20
7381.505339862793
 10
138091.3406167895
 20
7281.296784154154
 10
138080.5872150757
 20
7277.681011525492
  0
LWPOLYLINE
  5
F649
330
22
100
AcDbEntity
  8
TODO
  6
Continuous
370
     5
100
AcDbPolyline
 90
        7
 70
     0
 43
0.0
 10
137917.1261174085
 20
7119.009638639131
 10
138024.5192602883
 20
7226.402781519006
 10
138022.1243978979
 20
7209.685702872208
 10
137974.414982434
 20
7158.360514779641
 10
137956.5239516351
 20
7151.222885694486
 10
137925.4846567319
 20
7116.614776248724
 10
137917.1261174085
 20
7119.009638639131
  0
LWPOLYLINE
  5
F64A
330
22
100
AcDbEntity
  8
TODO
  6
Continuous
370
     5
100
AcDbPolyline
 90
        7
 70
     0
 43
0.0
 10
137252.5283250259
 20
7799.150557516317
 10
137254.8762293303
 20
7811.077911382294
 10
137333.6718977835
 20
7882.642034578152
 10
137356.3056952771
 20
7898.18516107279
 10
137357.5266055154
 20
7889.826621749395
 10
137266.8505412823
 20
7802.719372058891
 10
137252.5283250259
 20
7799.150557516317
  0
LWPOLYLINE
  5
F64B
330
22
100
AcDbEntity
  8
TODO
  6
Continuous
370
     5
100
AcDbPolyline
 90
        6
 70
     0
 43
0.0
 10
137025.8146854002
 20
8017.505657818649
 10
137031.7783623332
 20
8033.001826227199
 10
137117.6647017854
 20
8111.703578508212
 10
137118.8856120237
 20
8103.345039184809
 10
137034.1732247236
 20
8016.284747580394
 10
137025.8146854002
 20
8017.505657818649
  0
LWPOLYLINE
  5
F64C
330
22
100
AcDbEntity
  8
TODO
  6
Continuous
370
     5
100
AcDbPolyline
 90
        5
 70
     0
 43
0.0
 10
136476.9216171349
 20
7910.112514938766
 10
136580.7459454722
 20
8016.284747580394
 10
136589.1044847955
 20
8013.889885189987
 10
136488.8489710008
 20
7910.112514938766
 10
136476.9216171349
 20
7910.112514938766
  0
LWPOLYLINE
  5
F64D
330
22
100
AcDbEntity
  8
TODO
  6
Continuous
370
     5
100
AcDbPolyline
 90
        9
 70
     0
 43
0.0
 10
136700.066442218
 20
7679.830060770466
 10
136700.066442218
 20
7698.89504372159
 10
136707.2040713031
 20
7695.326229179016
 10
136802.6698603171
 20
7790.792018192915
 10
136805.0647227075
 20
7782.433478869512
 10
136789.5685542989
 20
7754.962998508898
 10
136771.6305654139
 20
7748.99932157591
 10
136747.7758576819
 20
7713.217259977981
 10
136700.066442218
 20
7679.830060770466
  0
LWPOLYLINE
  5
F64E
330
22
100
AcDbEntity
  8
TODO
  6
Continuous
370
     5
100
AcDbPolyline
 90
        6
 70
     0
 43
0.0
 10
136867.0963544277
 20
7855.218512303625
 10
136966.1309579842
 20
7962.6116551835
 10
136976.884359698
 20
7962.6116551835
 10
136982.848036631
 20
7957.821930402672
 10
136875.4548937512
 20
7852.823649913211
 10
136867.0963544277
 20
7855.218512303625
  0
LWPOLYLINE
  5
F64F
330
22
100
AcDbEntity
  8
TODO
  6
Continuous
370
     5
100
AcDbPolyline
 90
        8
 70
     0
 43
0.0
 10
137081.8826401875
 20
7628.504872677899
 10
137114.0958872429
 20
7670.250611208816
 10
137137.9505949748
 20
7685.793737703454
 10
137177.3484292014
 20
7733.503153167359
 10
137189.2757830674
 20
7734.724063405607
 10
137186.880920677
 20
7722.74975145355
 10
137095.0309042917
 20
7627.330920525732
 10
137081.8826401875
 20
7628.504872677899
  0
LWPOLYLINE
  5
F650
330
22
100
AcDbEntity
  8
TODO
  6
Continuous
370
     5
100
AcDbPolyline
 90
        5
 70
     0
 43
0.0
 10
137642.7030623188
 20
7739.466830100348
 10
137746.48043257
 20
7844.465110589808
 10
137758.407786436
 20
7843.291158437649
 10
137651.0616016422
 20
7737.071967709933
 10
137642.7030623188
 20
7739.466830100348
  0
LWPOLYLINE
  5
F651
330
22
100
AcDbEntity
  8
TODO
  6
Continuous
370
     5
100
AcDbPolyline
 90
        8
 70
     0
 43
0.0
 10
137415.9894226931
 20
7962.6116551835
 10
137452.9923945293
 20
8009.147118495246
 10
137511.455211707
 20
8066.389025434713
 10
137531.7411048964
 20
8067.562977586873
 10
137526.9513801156
 20
8055.682581806985
 10
137511.455211707
 20
8049.718904873997
 10
137424.3479620165
 20
7960.216792793086
 10
137415.9894226931
 20
7962.6116551835
  0
LWPOLYLINE
  5
F652
330
22
100
AcDbEntity
  8
TODO
  6
Continuous
370
     5
100
AcDbPolyline
 90
        5
 70
     0
 43
0.0
 10
137475.626192023
 20
7572.436917890591
 10
137574.6607955795
 20
7673.866383837478
 10
137586.5881494455
 20
7671.471521447063
 10
137483.9847313464
 20
7570.042055500177
 10
137475.626192023
 20
7572.436917890591
  0
LWPOLYLINE
  5
F653
330
22
100
AcDbEntity
  8
TODO
  6
Continuous
370
     5
100
AcDbPolyline
 90
        5
 70
     0
 43
0.0
 10
137813.3017890712
 20
7910.112514938766
 10
137912.3363926277
 20
8013.889885189987
 10
137914.7312550181
 20
8001.962531324003
 10
137816.9175616998
 20
7906.543700396192
 10
137813.3017890712
 20
7910.112514938766
  0
LWPOLYLINE
  5
F654
330
22
100
AcDbEntity
  8
TODO
  6
Continuous
370
     5
100
AcDbPolyline
 90
        5
 70
     0
 43
0.0
 10
138028.0880748309
 20
7679.830060770466
 10
138131.9124031682
 20
7784.828341259927
 10
138140.2709424916
 20
7783.607431021679
 10
138036.4466141543
 20
7677.435198380052
 10
138028.0880748309
 20
7679.830060770466
  0
POLYLINE
  5
F655
330
22
100
AcDbEntity
  8
TODO
  6
Continuous
370
     5
100
AcDb3dPolyline
 66
     1
 10
0.0
 20
0.0
 30
0.0
 70
     8
  0
VERTEX
  5
F656
330
F655
100
AcDbEntity
  8
TODO
  6
Continuous
370
     5
100
AcDbVertex
100
AcDb3dPolylineVertex
 10
137802.8977957793
 20
8379.287205688954
 30
0.0
 70
    32
  0
VERTEX
  5
F657
330
F655
100
AcDbEntity
  8
TODO
  6
Continuous
370
     5
100
AcDbVertex
100
AcDb3dPolylineVertex
 10
137752.8157552369
 20
8301.088931859646
 30
0.0
 70
    32
  0
VERTEX
  5
F658
330
F655
100
AcDbEntity
  8
TODO
  6
Continuous
370
     5
100
AcDbVertex
100
AcDb3dPolylineVertex
 10
137841.9969326939
 20
8334.476958887884
 30
0.0
 70
    32
  0
VERTEX
  5
F659
330
F655
100
AcDbEntity
  8
TODO
  6
Continuous
370
     5
100
AcDbVertex
100
AcDb3dPolylineVertex
 10
137802.8977957793
 20
8379.287205688954
 30
0.0
 70
    32
  0
SEQEND
  5
F65A
330
F655
100
AcDbEntity
  8
TODO
  6
Continuous
370
     5
  0
LWPOLYLINE
  5
F65B
330
22
100
AcDbEntity
  8
TODO
  6
Continuous
370
     5
100
AcDbPolyline
 90
        5
 70
     0
 43
0.0
 10
139196.2174243192
 20
7508.010423779881
 10
139199.7862388618
 20
7519.937777645857
 10
139291.6362552471
 20
7614.182656421508
 10
139303.563609113
 20
7611.787794031094
 10
139196.2174243192
 20
7508.010423779881
  0
LWPOLYLINE
  5
F65C
330
22
100
AcDbEntity
  8
TODO
  6
Continuous
370
     5
100
AcDbPolyline
 90
        5
 70
     0
 43
0.0
 10
139578.0336222888
 20
7453.116421144732
 10
139681.81099254
 20
7558.1147016342
 10
139690.1695318634
 20
7556.893791395953
 10
139589.9609761547
 20
7450.721558754325
 10
139578.0336222888
 20
7453.116421144732
  0
LWPOLYLINE
  5
F65D
330
22
100
AcDbEntity
  8
TODO
  6
Continuous
370
     5
100
AcDbPolyline
 90
        5
 70
     0
 43
0.0
 10
138251.2328999141
 20
7448.326696363911
 10
138252.4068520662
 20
7460.254050229887
 10
138353.8363180131
 20
7560.509564024615
 10
138356.2311804036
 20
7552.151024701212
 10
138251.2328999141
 20
7448.326696363911
  0
LWPOLYLINE
  5
F65E
330
22
100
AcDbEntity
  8
TODO
  6
Continuous
370
     5
100
AcDbPolyline
 90
       33
 70
     0
 43
0.0
 10
138846.567515319
 20
7369.577985996817
 10
139013.6443856148
 20
7539.002760596988
 10
139017.2132001575
 20
7552.151024701212
 10
139031.5354164138
 20
7555.719839243786
 10
139031.5354164138
 20
7567.647193109762
 10
139069.7123404022
 20
7605.824117098105
 10
139081.6396942681
 20
7608.21897948852
 10
139085.2085088107
 20
7622.541195744911
 10
139124.6063430373
 20
7649.964718019437
 10
139184.2431123672
 20
7718.006984758809
 10
139198.5653286236
 20
7722.74975145355
 10
139270.1764099055
 20
7802.719372058891
 10
139315.5379210651
 20
7840.896296047235
 10
139339.392628797
 20
7874.283495254756
 10
139371.6058758524
 20
7896.964250834542
 10
139372.7798280046
 20
7910.112514938766
 10
139401.4242605173
 20
7925.608683347324
 10
139403.8191229078
 20
7939.930899603714
 10
139586.3921616122
 20
8117.667255441193
 10
139619.7793608197
 20
8151.101412734803
 10
139622.1742232101
 20
8163.028766600779
 10
140052.9207468817
 20
8163.028766600779
 10
139641.2392061612
 20
7743.035644642921
 10
139527.9293444345
 20
7635.642501763046
 10
139487.3575580557
 20
7586.759134146982
 10
139473.0353417993
 20
7579.574546975738
 10
139277.3140389907
 20
7369.577985996817
 10
139073.2811549447
 20
7369.577985996817
 10
139069.7123404022
 20
7375.541662929798
 10
139129.3960678181
 20
7435.225390345775
 10
139128.1751575799
 20
7448.326696363911
 10
139049.4264472128
 20
7367.183123606403
 10
138846.567515319
 20
7369.577985996817
  0
LWPOLYLINE
  5
F65F
330
22
100
AcDbEntity
  8
TODO
  6
Continuous
370
     5
100
AcDbPolyline
 90
       39
 70
     0
 43
0.0
 10
138532.7935840889
 20
7241.898949927563
 10
138514.8555952038
 20
7280.075873915906
 10
138506.5440139665
 20
7301.582677343533
 10
138452.8239634835
 20
7336.190786789295
 10
138418.2628121239
 20
7351.686955197845
 10
138386.0495650685
 20
7355.255769740426
 10
138412.2991351908
 20
7373.146800539391
 10
138425.4473992951
 20
7397.001508271343
 10
138557.822243973
 20
7531.865131511833
 10
138572.1444602294
 20
7536.607898206574
 10
138575.7132747719
 20
7550.930114462957
 10
138593.6043055709
 20
7555.719839243786
 10
138595.9991679613
 20
7570.042055500177
 10
138871.6431332892
 20
7842.070248199394
 10
139050.647357451
 20
8033.001826227199
 10
139180.6742978246
 20
8163.028766600779
 10
139260.64391843
 20
8165.423628991193
 10
139303.563609113
 20
8161.807856362524
 10
139383.5332297184
 20
8167.771533295512
 10
139381.138367328
 20
8151.101412734803
 10
139305.9584715035
 20
8079.490331452856
 10
139303.563609113
 20
8067.562977586873
 10
139320.2806877599
 20
8074.700606672028
 10
139399.0293981269
 20
8159.412993972117
 10
139530.2772487387
 20
8165.423628991193
 10
139607.8520069537
 20
8159.412993972117
 10
139353.7148450534
 20
7906.543700396192
 10
139320.2806877599
 20
7864.751003779187
 10
139297.59993218
 20
7850.428787522796
 10
139226.0358089842
 20
7770.506125003536
 10
139184.2431123672
 20
7737.071967709933
 10
139166.3520815682
 20
7710.822397587566
 10
139121.0375284947
 20
7673.866383837478
 10
139106.7153122383
 20
7651.185628257685
 10
138993.3584924255
 20
7546.187347768224
 10
138831.0713469104
 20
7367.183123606403
 10
138548.2897524974
 20
7363.614309063822
 10
138542.3260755644
 20
7357.650632130841
 10
138532.7935840889
 20
7241.898949927563
  0
LWPOLYLINE
  5
F660
330
22
100
AcDbEntity
  8
TODO
  6
Continuous
370
     5
100
AcDbPolyline
 90
       43
 70
     0
 43
0.0
 10
139037.4990933468
 20
6412.619149639584
 10
138969.5037846935
 20
6441.263582152358
 10
138918.1785966009
 20
6480.661416378949
 10
138880.0016726126
 20
6534.33450877585
 10
138856.1469648806
 20
6609.51440460037
 10
138864.505504204
 20
6648.86528074088
 10
138859.7157794232
 20
6660.839592692937
 10
138871.6431332892
 20
6700.190468833447
 10
138907.4251948872
 20
6780.160089438788
 10
138932.5008128574
 20
6827.869504902694
 10
138936.0696273999
 20
6844.586583549499
 10
139043.4627702798
 20
7083.227577041202
 10
139050.647357451
 20
7170.334826731705
 10
139019.6080625478
 20
7250.257489250958
 10
138987.3948154925
 20
7297.966904714864
 10
138909.8200572776
 20
7345.723278264864
 10
138906.251242735
 20
7357.650632130841
 10
139100.7516353054
 20
7355.255769740426
 10
139172.3157585012
 20
7349.292092807438
 10
139180.6742978246
 20
7355.255769740426
 10
139264.2127329725
 20
7354.08181758826
 10
139267.7815475151
 20
7348.118140655271
 10
139228.4306713746
 20
7327.832247465893
 10
139172.3157585012
 20
7282.470736306313
 10
139146.0661883788
 20
7253.826303793539
 10
139115.0738515618
 20
7161.976287408295
 10
139118.6426661043
 20
7102.292559992333
 10
139169.9678541969
 20
6967.475894837924
 10
139186.6379747576
 20
6947.190001648545
 10
139209.3187303374
 20
6893.469951165564
 10
139226.0358089842
 20
6848.155398092073
 10
139252.2853791066
 20
6800.399024542079
 10
139313.1430586747
 20
6660.839592692937
 10
139313.1430586747
 20
6594.018236191812
 10
139305.9584715035
 20
6585.659696868417
 10
139305.9584715035
 20
6561.758031050376
 10
139294.0311176375
 20
6540.298185708831
 10
139282.1037637715
 20
6529.544783995021
 10
139282.1037637715
 20
6517.617430129045
 10
139249.8905167161
 20
6478.266553988535
 10
139208.1447781852
 20
6446.053306933187
 10
139132.9648823607
 20
6412.619149639584
 10
139037.4990933468
 20
6412.619149639584
  0
LWPOLYLINE
  5
F661
330
22
100
AcDbEntity
  8
TODO
  6
Continuous
370
     5
100
AcDbPolyline
 90
        7
 70
     0
 43
0.0
 10
138227.3781921821
 20
6899.48058618464
 10
138227.3781921821
 20
6999.689141893279
 10
138302.5111299205
 20
6996.120327350705
 10
138307.3008547014
 20
6990.156650417717
 10
138290.5837760546
 20
6985.366925636888
 10
138254.8017144566
 20
6946.016049496386
 10
138227.3781921821
 20
6899.48058618464
  0
LWPOLYLINE
  5
F662
330
22
100
AcDbEntity
  8
TODO
  6
Continuous
370
     5
100
AcDbPolyline
 90
       41
 70
     0
 43
0.0
 10
138539.931213174
 20
6409.05033509701
 10
138504.1491515761
 20
6412.619149639584
 10
138488.6060250815
 20
6429.336228286382
 10
138449.255148941
 20
6450.79607362792
 10
138418.2628121239
 20
6490.193907854511
 10
138407.5563684961
 20
6525.975969452447
 10
138413.5200454291
 20
6573.732343002441
 10
138419.4837223621
 20
6577.301157545015
 10
138419.4837223621
 20
6597.587050734393
 10
138470.7149942825
 20
6713.338732937671
 10
138482.6423481485
 20
6720.476362022819
 10
138482.6423481485
 20
6740.762255212197
 10
138494.5697020144
 20
6756.258423620748
 10
138530.3987216984
 20
6856.513937415475
 10
138510.1128285091
 20
6935.262647782569
 10
138452.8239634835
 20
6999.689141893279
 10
138539.931213174
 20
7002.084004283694
 10
138545.894890107
 20
7006.826770978434
 10
138554.2534294304
 20
7062.941683851823
 10
138550.6846148878
 20
7082.006666802954
 10
138554.2534294304
 20
7102.292559992333
 10
138551.85856704
 20
7355.255769740426
 10
138742.7901450678
 20
7354.08181758826
 10
138655.6828953773
 20
7303.97753973394
 10
138623.4696483219
 20
7264.579705507349
 10
138581.676951705
 20
7190.620719921077
 10
138581.676951705
 20
7114.219913858309
 10
138597.2200781996
 20
7047.398557357184
 10
138609.1474320656
 20
7035.471203491208
 10
138649.7192184443
 20
6946.016049496386
 10
138668.7842013954
 20
6895.864813555978
 10
138692.6858672135
 20
6846.934487853825
 10
138712.9248023168
 20
6808.757563865482
 10
138716.5405749454
 20
6784.902856133529
 10
138739.2213305252
 20
6749.1207945356
 10
138776.1773442753
 20
6648.86528074088
 10
138772.6085297327
 20
6582.043924239755
 10
138733.2106955061
 20
6502.121261720495
 10
138679.5376031093
 20
6448.448169323601
 10
138628.2124150167
 20
6420.977688962987
 10
138539.931213174
 20
6409.05033509701
  0
LWPOLYLINE
  5
F663
330
22
100
AcDbEntity
  8
TODO
  6
Continuous
370
     5
100
AcDbPolyline
 90
        5
 70
     0
 43
0.0
 10
138640.1397688827
 20
7397.001508271343
 10
138739.2213305252
 20
7503.220698999052
 10
138747.5329117625
 20
7500.825836608645
 10
138652.1140808347
 20
7397.001508271343
 10
138640.1397688827
 20
7397.001508271343
  0
LINE
  5
F664
330
22
100
AcDbEntity
  8
TODO
370
     5
100
AcDbLine
 10
138444.4654241601
 20
7011.616495759255
 30
0.0
 11
138302.5111299205
 21
7011.616495759255
 31
0.0
  0
LINE
  5
F665
330
22
100
AcDbEntity
  8
TODO
370
     5
100
AcDbLine
 10
138452.8239634835
 20
6999.689141893279
 30
0.0
 11
138444.4654241601
 21
7011.616495759255
 31
0.0
  0
LWPOLYLINE
  5
F666
330
22
100
AcDbEntity
  8
TODO
  6
Continuous
370
     5
100
AcDbPolyline
 90
       19
 70
     0
 43
0.0
 10
138358.626042794
 20
7053.362234290173
 10
138310.869669244
 20
7068.905360784818
 10
138275.087607646
 20
7101.118607840166
 10
138254.8017144566
 20
7145.259208761498
 10
138245.2692229811
 20
7178.646407969012
 10
138257.1965768471
 20
7229.971596061587
 10
138304.905992311
 20
7286.039550848895
 10
138343.0829162993
 20
7303.97753973394
 10
138406.3354582579
 20
7303.97753973394
 10
138437.327795075
 20
7288.434413239302
 10
138476.6786712155
 20
7246.688674708384
 10
138489.8269353197
 20
7221.613056738184
 10
138498.1854746431
 20
7178.646407969012
 10
138489.8269353197
 20
7134.505807047681
 10
138477.8995814537
 20
7126.147267724285
 10
138475.5047190633
 20
7113.045961706142
 10
138462.3564549591
 20
7090.365206126356
 10
138437.327795075
 20
7068.905360784818
 10
138358.626042794
 20
7053.362234290173
  0
LWPOLYLINE
  5
F667
330
22
100
AcDbEntity
  8
TODO
  6
Continuous
370
     5
100
AcDbPolyline
 90
        7
 70
     0
 43
0.0
 10
138444.4654241601
 20
7011.616495759255
 10
138440.8966096175
 20
7017.580172692244
 10
138476.6786712155
 20
7037.866065881622
 10
138516.0765054421
 20
7079.61180441254
 10
138533.967536241
 20
7110.651099315728
 10
138536.3623986315
 20
7009.221633368841
 10
138444.4654241601
 20
7011.616495759255
  0
LWPOLYLINE
  5
F668
330
22
100
AcDbEntity
  8
TODO
  6
Continuous
370
     5
100
AcDbPolyline
 90
        7
 70
     0
 43
0.0
 10
139932.4262979837
 20
6906.618215269795
 10
139930.0314355933
 20
6928.078060611333
 10
139858.4203543114
 20
6991.330602569884
 10
139940.737879221
 20
6994.899417112458
 10
139933.6002501359
 20
6919.719521287931
 10
139938.3899749167
 20
6916.150706745357
 10
139932.4262979837
 20
6906.618215269795
  0
LWPOLYLINE
  5
F669
330
22
100
AcDbEntity
  8
TODO
  6
Continuous
370
     5
100
AcDbPolyline
 90
       35
 70
     0
 43
0.0
 10
139606.6780548015
 20
6409.05033509701
 10
139538.6357880622
 20
6424.54650350556
 10
139482.5678332749
 20
6459.15461295133
 10
139419.3152913163
 20
6530.765694233269
 10
139416.9204289259
 20
6558.189216507802
 10
139407.3879374503
 20
6567.768666069453
 10
139396.6345357365
 20
6594.018236191812
 10
139401.4242605173
 20
6677.509713253654
 10
139455.1443110003
 20
6796.830209999505
 10
139473.0353417993
 20
6827.869504902694
 10
139480.1729708844
 20
6856.513937415475
 10
139556.5268188611
 20
7018.801082930499
 10
139592.3558385451
 20
7107.082284773154
 10
139595.9246530877
 20
7173.903641274272
 10
139556.5268188611
 20
7257.442076422201
 10
139524.3135718058
 20
7301.582677343533
 10
139443.1699990483
 20
7348.118140655271
 10
139625.7430377527
 20
7352.860907350012
 10
139628.1379001431
 20
7003.257956435853
 10
139634.1015770761
 20
6997.294279502865
 10
139717.640012224
 20
6993.725464960291
 10
139723.603689157
 20
6987.761788027303
 10
139705.712658358
 20
6985.366925636888
 10
139654.3874702654
 20
6931.693833239995
 10
139657.956284808
 20
6925.730156307007
 10
139640.065254009
 20
6880.368645147428
 10
139647.2498411803
 20
6820.684917731458
 10
139683.0319027782
 20
6741.936207364357
 10
139687.7746694729
 20
6720.476362022819
 10
139723.603689157
 20
6656.049867912108
 10
139754.5960259741
 20
6585.659696868417
 10
139766.5703379262
 20
6546.261862641826
 10
139747.4583968889
 20
6474.697739445961
 10
139675.847315607
 20
6415.014012029991
 10
139606.6780548015
 20
6409.05033509701
  0
LINE
  5
F66B
330
22
100
AcDbEntity
  8
TODO
370
     5
100
AcDbLine
 10
139712.8502874431
 20
7003.257956435853
 30
0.0
 11
139872.7425705678
 21
7003.257956435853
 31
0.0
  0
POLYLINE
  5
F66C
330
22
100
AcDbEntity
  8
TODO
  6
Continuous
370
     5
100
AcDb3dPolyline
 66
     1
 10
0.0
 20
0.0
 30
0.0
 70
     8
  0
VERTEX
  5
F66D
330
F66C
100
AcDbEntity
  8
TODO
  6
Continuous
370
     5
100
AcDbVertex
100
AcDb3dPolylineVertex
 10
139863.5480844351
 20
7100.602326392
 30
0.0
 70
    32
  0
VERTEX
  5
F66E
330
F66C
100
AcDbEntity
  8
TODO
  6
Continuous
370
     5
100
AcDbVertex
100
AcDb3dPolylineVertex
 10
139785.3498106058
 20
7162.106586707188
 30
0.0
 70
    32
  0
VERTEX
  5
F66F
330
F66C
100
AcDbEntity
  8
TODO
  6
Continuous
370
     5
100
AcDbVertex
100
AcDb3dPolylineVertex
 10
139796.552372306
 20
7067.214299363754
 30
0.0
 70
    32
  0
VERTEX
  5
F670
330
F66C
100
AcDbEntity
  8
TODO
  6
Continuous
370
     5
100
AcDbVertex
100
AcDb3dPolylineVertex
 10
139863.5480844351
 20
7100.602326392
 30
0.0
 70
    32
  0
SEQEND
  5
F671
330
F66C
100
AcDbEntity
  8
TODO
  6
Continuous
370
     5
  0
LWPOLYLINE
  5
F672
330
22
100
AcDbEntity
  8
TODO
  6
Continuous
370
     5
100
AcDbPolyline
 90
       17
 70
     0
 43
0.0
 10
139773.7079670113
 20
7053.362234290173
 10
139694.9592566442
 20
7102.292559992333
 10
139675.847315607
 20
7154.791700237067
 10
139675.847315607
 20
7202.548073787053
 10
139691.3904421016
 20
7239.504087537149
 10
139709.2814729006
 20
7265.753657659516
 10
139753.4220738219
 20
7295.619000410545
 10
139780.8455960964
 20
7303.97753973394
 10
139821.4173824752
 20
7303.97753973394
 10
139860.8152167018
 20
7288.434413239302
 10
139896.5972782997
 20
7253.826303793539
 10
139918.1040817273
 20
7202.548073787053
 10
139918.1040817273
 20
7142.864346371083
 10
139885.890834672
 20
7086.796391583775
 10
139863.2100790922
 20
7068.905360784818
 10
139828.6019696465
 20
7053.362234290173
 10
139773.7079670113
 20
7053.362234290173
  0
LWPOLYLINE
  5
F673
330
22
100
AcDbEntity
  8
TODO
  6
Continuous
370
     5
100
AcDbPolyline
 90
        9
 70
     0
 43
0.0
 10
139646.0289309421
 20
7005.652818826267
 10
139634.1015770761
 20
7006.826770978434
 10
139635.2755292282
 20
7114.219913858309
 10
139667.4887762836
 20
7062.941683851823
 10
139699.748981425
 20
7030.728436796475
 10
139730.7413182421
 20
7018.801082930499
 10
139712.8502874431
 20
7003.257956435853
 10
139688.9955797112
 20
7006.826770978434
 10
139646.0289309421
 20
7005.652818826267
  0
LWPOLYLINE
  5
F674
330
22
100
AcDbEntity
  8
TODO
  6
Continuous
370
     5
100
AcDbPolyline
 90
        7
 70
     0
 43
0.0
 10
139132.9648823607
 20
7896.964250834542
 10
139129.3960678181
 20
7902.92792776753
 10
139240.3580252406
 20
8009.147118495246
 10
139240.3580252406
 20
7993.603992000608
 10
139148.4610507693
 20
7908.891604700519
 10
139141.3234216841
 20
7896.964250834542
 10
139132.9648823607
 20
7896.964250834542
  0
LWPOLYLINE
  5
F675
330
22
100
AcDbEntity
  8
TODO
  6
Continuous
370
     5
100
AcDbPolyline
 90
        5
 70
     0
 43
0.0
 10
138362.1948573365
 20
8013.889885189987
 10
138364.5897197269
 20
8025.864197142044
 10
138444.4654241601
 20
8105.739901575216
 10
138456.3927780261
 20
8104.565949423057
 10
138362.1948573365
 20
8013.889885189987
  0
LWPOLYLINE
  5
F676
330
22
100
AcDbEntity
  8
TODO
  6
Continuous
370
     5
100
AcDbPolyline
 90
        5
 70
     0
 43
0.0
 10
138587.6406286379
 20
7795.534784887655
 10
138683.1064176518
 20
7892.221484139802
 10
138691.4649569753
 20
7891.000573901554
 10
138595.9991679613
 20
7793.186880583329
 10
138587.6406286379
 20
7795.534784887655
  0
LWPOLYLINE
  5
F677
330
22
100
AcDbEntity
  8
TODO
  6
Continuous
370
     5
100
AcDbPolyline
 90
        5
 70
     0
 43
0.0
 10
138418.2628121239
 20
7623.71514789707
 10
138516.0765054421
 20
7727.539476234371
 10
138528.0038593081
 20
7727.539476234371
 10
138426.6213514472
 20
7622.541195744911
 10
138418.2628121239
 20
7623.71514789707
  0
LWPOLYLINE
  5
F678
330
22
100
AcDbEntity
  8
TODO
  6
Continuous
370
     5
100
AcDbPolyline
 90
        6
 70
     0
 43
0.0
 10
138747.5329117625
 20
7957.821930402672
 10
138748.7538220008
 20
7969.749284268648
 10
138858.5418272711
 20
8067.562977586873
 10
138856.1469648806
 20
8053.287719416578
 10
138759.4602656285
 20
7960.216792793086
 10
138747.5329117625
 20
7957.821930402672
  0
LWPOLYLINE
  5
F679
330
22
100
AcDbEntity
  8
TODO
  6
Continuous
370
     5
100
AcDbPolyline
 90
        7
 70
     0
 43
0.0
 10
138969.5037846935
 20
7734.724063405607
 10
138971.8516889978
 20
7746.651417271583
 10
139069.7123404022
 20
7844.465110589808
 10
139081.6396942681
 20
7846.859972980223
 10
139079.2448318777
 20
7834.932619114246
 10
138981.4311385595
 20
7737.071967709933
 10
138969.5037846935
 20
7734.724063405607
  0
LINE
  5
F67A
330
22
100
AcDbEntity
  8
TODO
  6
Continuous
370
     5
100
AcDbLine
 10
138802.4269143977
 20
7568.86810334801
 30
0.0
 11
138906.251242735
 21
7671.471521447063
 31
0.0
  0
LINE
  5
F67B
330
22
100
AcDbEntity
  8
TODO
  6
Continuous
370
     5
100
AcDbLine
 10
138906.251242735
 20
7671.471521447063
 30
0.0
 11
138907.4251948872
 21
7659.544167581087
 31
0.0
  0
LINE
  5
F67C
330
22
100
AcDbEntity
  8
TODO
  6
Continuous
370
     5
100
AcDbLine
 10
138907.4251948872
 20
7659.544167581087
 30
0.0
 11
138814.3542682637
 21
7566.473240957603
 31
0.0
  0
LINE
  5
F67D
330
22
100
AcDbEntity
  8
TODO
  6
Continuous
370
     5
100
AcDbLine
 10
138814.3542682637
 20
7566.473240957603
 30
0.0
 11
138802.4269143977
 21
7568.86810334801
 31
0.0
  0
LWPOLYLINE
  5
F67E
330
22
100
AcDbEntity
  8
TODO
  6
Continuous
370
     5
100
AcDbPolyline
 90
        5
 70
     0
 43
0.0
 10
139693.785304492
 20
8017.505657818649
 10
139777.2767815539
 20
8102.171087032642
 10
139785.6353208772
 20
8099.776224642228
 10
139702.0968857293
 20
8016.284747580394
 10
139693.785304492
 20
8017.505657818649
  0
LWPOLYLINE
  5
F67F
330
22
100
AcDbEntity
  8
TODO
  6
Continuous
370
     5
100
AcDbPolyline
 90
        5
 70
     0
 43
0.0
 10
139523.1396196536
 20
7840.896296047235
 10
139518.3498948728
 20
7846.859972980223
 10
139629.3118522952
 20
7954.253115860098
 10
139629.3118522952
 20
7942.325761994121
 10
139523.1396196536
 20
7840.896296047235
  0
LWPOLYLINE
  5
F680
330
22
100
AcDbEntity
  8
TODO
  6
Continuous
370
     5
100
AcDbPolyline
 90
        7
 70
     0
 43
0.0
 10
139356.0627493578
 20
7676.214288141804
 10
139432.4635554205
 20
7763.3215378323
 10
139446.7857716769
 20
7766.937310460962
 10
139451.5285383717
 20
7781.259526717353
 10
139470.6404794089
 20
7783.607431021679
 10
139368.0370613098
 20
7676.214288141804
 10
139356.0627493578
 20
7676.214288141804
  0
LWPOLYLINE
  5
F681
330
22
100
AcDbEntity
  8
TODO
  6
Continuous
370
     5
100
AcDbPolyline
 90
        5
 70
     0
 43
0.0
 10
139912.1404047944
 20
7790.792018192915
 10
140012.348960503
 20
7892.221484139802
 10
140024.276314369
 20
7891.000573901554
 10
139920.4519860317
 20
7789.571107954667
 10
139912.1404047944
 20
7790.792018192915
  0
LWPOLYLINE
  5
F682
330
22
100
AcDbEntity
  8
TODO
  6
Continuous
370
     5
100
AcDbPolyline
 90
        5
 70
     0
 43
0.0
 10
139745.0635344985
 20
7615.403566659756
 10
139747.4583968889
 20
7627.330920525732
 10
139852.4566773784
 20
7734.724063405607
 10
139858.4203543114
 20
7722.74975145355
 10
139745.0635344985
 20
7615.403566659756
  0
LWPOLYLINE
  5
F683
330
22
100
AcDbEntity
  8
TODO
  6
Continuous
370
     5
100
AcDbPolyline
 90
       21
 70
     0
 43
0.0
 10
141411.9816743979
 20
6144.15977148294
 10
141409.5868120075
 20
6255.121728905389
 10
141391.6957812085
 20
6265.875130619199
 10
141372.5838401713
 20
6280.19734687559
 10
141380.9423794947
 20
6292.124700741566
 10
141394.0906435989
 20
6335.091349510738
 10
141389.3009188181
 20
6347.018703376714
 10
141401.228272684
 20
6358.946057242691
 10
141408.4128598553
 20
6394.72811884062
 10
140767.6697752047
 20
6388.764441907631
 10
140719.9134016547
 20
6399.517843621441
 10
141706.6906226769
 20
6400.691795773608
 10
141868.9777681919
 20
6394.72811884062
 10
141423.9090282638
 20
6391.159304298038
 10
141433.4415197394
 20
6338.660164053312
 10
141448.9846462341
 20
6299.262329826714
 10
141443.0209693011
 20
6267.049082771366
 10
141428.6987530447
 20
6261.08540583837
 10
141420.3402137213
 20
6251.552914362808
 10
141423.9090282638
 20
6146.554633873347
 10
141411.9816743979
 20
6144.15977148294
  0
MTEXT
  5
F684
330
22
100
AcDbEntity
  8
TODO
100
AcDbMText
 10
140770.5356574678
 20
5436.867432158091
 30
0.0
 40
168.36404
 41
2701.123221134
 71
     1
 72
     5
  1
TUBO EUROTHERM{\Fsimplex.shx|c1;}
 73
     1
 44
1.0
  0
MTEXT
  5
F685
330
22
100
AcDbEntity
  8
TODO
100
AcDbMText
 10
140787.8505754309
 20
7006.996418069575
 30
0.0
 40
168.36404
 41
1731.488864
 71
     1
 72
     5
  1
20 - 50 mm
 73
     1
 44
1.0
  0
LWPOLYLINE
  5
F686
330
22
100
AcDbEntity
  8
TODO
  6
Continuous
370
     5
100
AcDbPolyline
 90
       31
 70
     0
 43
0.0
 10
141602.9132524257
 20
7351.686955197845
 10
140719.9134016547
 20
7352.860907350012
 10
140723.4822161973
 20
7367.183123606403
 10
140775.981356442
 20
7363.614309063822
 10
140827.3065445346
 20
7367.183123606403
 10
140863.0886061325
 20
7363.614309063822
 10
140926.3411480911
 20
7363.614309063822
 10
140986.024875507
 20
7367.183123606403
 10
141021.806937105
 20
7363.614309063822
 10
141101.7295996242
 20
7363.614309063822
 10
141403.6231350745
 20
7363.614309063822
 10
141406.0179974649
 20
7381.505339862793
 10
141389.3009188181
 20
7412.544634765982
 10
141389.3009188181
 20
7444.757881821337
 10
141373.8047504096
 20
7468.61258955329
 10
141377.3735649521
 20
7480.539943419266
 10
141409.5868120075
 20
7496.083069913904
 10
141415.5504889404
 20
7627.330920525732
 10
141425.082980416
 20
7620.146333354496
 10
141421.5141658734
 20
7560.509564024615
 10
141425.082980416
 20
7500.825836608645
 10
141421.5141658734
 20
7488.898482742668
 10
141451.3325505384
 20
7484.10875796184
 10
141448.9846462341
 20
7444.757881821337
 10
141433.4415197394
 20
7420.903174089384
 10
141433.4415197394
 20
7388.689927034029
 10
141425.082980416
 20
7381.505339862793
 10
141423.9090282638
 20
7361.219446673414
 10
141861.7931810207
 20
7357.650632130841
 10
141845.12306046
 20
7351.686955197845
 10
141602.9132524257
 20
7351.686955197845
  0
LWPOLYLINE
  5
F687
330
22
100
AcDbEntity
  8
TODO
  6
Continuous
370
     5
100
AcDbPolyline
 90
        5
 70
     0
 43
0.0
 10
140326.1698498192
 20
6709.722960309009
 10
140290.3877882213
 20
6745.551979993026
 10
140351.1985097033
 20
6749.1207945356
 10
140332.1335267522
 20
6708.549008156842
 10
140326.1698498192
 20
6709.722960309009
  0
LWPOLYLINE
  5
F688
330
22
100
AcDbEntity
  8
TODO
  6
Continuous
370
     5
100
AcDbPolyline
 90
        7
 70
     0
 43
0.0
 10
140174.636106018
 20
6412.619149639584
 10
140171.0672914755
 20
6418.582826572572
 10
140228.3091984149
 20
6502.121261720495
 10
140231.8780129575
 20
6474.697739445961
 10
140224.7403838724
 20
6450.79607362792
 10
140194.9219992074
 20
6417.408874420405
 10
140174.636106018
 20
6412.619149639584
  0
LWPOLYLINE
  5
F689
330
22
100
AcDbEntity
  8
TODO
  6
Continuous
370
     5
100
AcDbPolyline
 90
       18
 70
     0
 43
0.0
 10
140143.5968111148
 20
6405.481520554429
 10
140119.7421033829
 20
6412.619149639584
 10
140076.7754546137
 20
6462.723427493904
 10
140073.2066400711
 20
6486.625093311945
 10
140144.770763267
 20
6641.727651655725
 10
140136.4591820297
 20
6704.980193614269
 10
140091.0976708701
 20
6749.1207945356
 10
140191.3062265787
 20
6751.515656926014
 10
140215.2078923968
 20
6743.157117602612
 10
140194.9219992074
 20
6731.229763736628
 10
140165.0566564564
 20
6684.69430042489
 10
140168.672429085
 20
6633.369112332322
 10
140227.1352462628
 20
6514.048615586471
 10
140203.2805385308
 20
6494.98363263534
 10
140206.8493530734
 20
6488.972997616263
 10
140180.599782951
 20
6457.980660799163
 10
140162.708752152
 20
6415.014012029991
 10
140143.5968111148
 20
6405.481520554429
  0
LWPOLYLINE
  5
F68A
330
22
100
AcDbEntity
  8
TODO
  6
Continuous
370
     5
100
AcDbPolyline
 90
        5
 70
     0
 43
0.0
 10
140353.5933720937
 20
7337.364738941462
 10
140465.7762397545
 20
7443.536971583089
 10
140472.9138688396
 20
7441.189067278756
 10
140370.3104507406
 20
7339.759601331869
 10
140353.5933720937
 20
7337.364738941462
  0
LWPOLYLINE
  5
F68B
330
22
100
AcDbEntity
  8
TODO
  6
Continuous
370
     5
100
AcDbPolyline
 90
        5
 70
     0
 43
0.0
 10
140186.563459884
 20
7170.334826731705
 10
140290.3877882213
 20
7271.717334592504
 10
140302.3151420873
 20
7270.543382440344
 10
140198.49081375
 20
7169.11391649345
 10
140186.563459884
 20
7170.334826731705
  0
MTEXT
  5
F68C
330
22
100
AcDbEntity
  8
TODO
100
AcDbMText
 10
140969.656934807
 20
7854.793027947657
 30
0.0
 40
168.36404
 41
1904.635039
 71
     1
 72
     5
  1
45 mm
 73
     1
 44
1.0
  0
LWPOLYLINE
  5
F68D
330
22
100
AcDbEntity
  8
TODO
  6
Continuous
370
     5
100
AcDbPolyline
 90
       19
 70
     0
 43
0.0
 10
141411.9816743979
 20
7910.112514938766
 10
141411.9816743979
 20
8029.433011684625
 10
141376.1996127999
 20
8029.433011684625
 10
141373.8047504096
 20
8049.718904873997
 10
141388.1269666659
 20
8053.287719416578
 10
141389.3009188181
 20
8096.207410099654
 10
141406.0179974649
 20
8127.199746916762
 10
141403.6231350745
 20
8155.844179429536
 10
140723.4822161973
 20
8167.771533295512
 10
141857.0504143259
 20
8164.202718752938
 10
141805.7252262334
 20
8158.23904181995
 10
141423.9090282638
 20
8159.412993972117
 10
141433.4415197394
 20
8103.345039184809
 10
141441.8000590628
 20
8096.207410099654
 10
141447.7637359958
 20
8031.827874075032
 10
141420.3402137213
 20
8029.433011684625
 10
141425.082980416
 20
7930.398408128145
 10
141423.9090282638
 20
7912.507377329181
 10
141411.9816743979
 20
7910.112514938766
  0
LWPOLYLINE
  5
F68E
330
22
100
AcDbEntity
  8
TODO
  6
Continuous
370
     5
100
AcDbPolyline
 90
        6
 70
     0
 43
0.0
 10
140469.345054297
 20
7898.18516107279
 10
140513.4856552184
 20
7939.930899603714
 10
140564.8108433109
 20
8004.357393714417
 10
140580.3070117195
 20
8001.962531324003
 10
140481.272408163
 20
7896.964250834542
 10
140469.345054297
 20
7898.18516107279
  0
LWPOLYLINE
  5
F68F
330
22
100
AcDbEntity
  8
TODO
  6
Continuous
370
     5
100
AcDbPolyline
 90
        5
 70
     0
 43
0.0
 10
140079.1703170041
 20
7957.821930402672
 10
140179.3788727128
 20
8059.251396349558
 10
140191.3062265787
 20
8058.077444197399
 10
140087.5288563275
 20
7956.647978250512
 10
140079.1703170041
 20
7957.821930402672
  0
LWPOLYLINE
  5
F690
330
22
100
AcDbEntity
  8
TODO
  6
Continuous
370
     5
100
AcDbPolyline
 90
        7
 70
     0
 43
0.0
 10
140302.3151420873
 20
7731.108290776945
 10
140317.8113104958
 20
7757.357860899312
 10
140341.6660182278
 20
7774.074939546117
 10
140409.7082849672
 20
7838.50143365682
 10
140410.8822371193
 20
7826.574079790844
 10
140305.8839566298
 20
7727.539476234371
 10
140302.3151420873
 20
7731.108290776945
  0
LWPOLYLINE
  5
F691
330
22
100
AcDbEntity
  8
TODO
  6
Continuous
370
     5
100
AcDbPolyline
 90
        8
 70
     0
 43
0.0
 10
140126.879732468
 20
7564.078378567188
 10
140230.7040608053
 20
7665.507844514075
 10
140239.0626001287
 20
7664.286934275828
 10
140198.49081375
 20
7620.146333354496
 10
140192.527136817
 20
7603.429254707691
 10
140150.7813982861
 20
7574.831780281005
 10
140143.5968111148
 20
7562.857468328941
 10
140126.879732468
 20
7564.078378567188
  0
LWPOLYLINE
  5
F692
330
22
100
AcDbEntity
  8
TODO
  6
Continuous
370
     5
100
AcDbPolyline
 90
       13
 70
     0
 43
0.0
 10
140290.3877882213
 20
8173.7352102285
 10
140278.4134762692
 20
8174.956120466755
 10
140282.0292488979
 20
8241.777476967873
 10
140353.5933720937
 20
8247.74115390086
 10
140359.5570490267
 20
8270.421909480654
 10
140350.0245575512
 20
8322.92104972538
 10
140338.0972036852
 20
8330.058678810536
 10
140279.6343865075
 20
8326.489864267962
 10
140279.6343865075
 20
8386.126633597843
 10
140580.3070117195
 20
8388.521495988258
 10
140645.9544160684
 20
8382.55781905527
 10
140660.2766323249
 20
8171.387305924174
 10
140290.3877882213
 20
8173.7352102285
  0
LWPOLYLINE
  5
F693
330
22
100
AcDbEntity
  8
TODO
  6
Continuous
370
     5
100
AcDbPolyline
 90
        6
 70
     0
 43
0.0
 10
140278.4134762692
 20
8248.915106053028
 10
140210.4181676159
 20
8253.704830833849
 10
140210.4181676159
 20
8310.993695859404
 10
140346.4557430086
 20
8314.562510401985
 10
140345.2348327704
 20
8258.49455561467
 10
140278.4134762692
 20
8248.915106053028
  0
MTEXT
  5
F694
330
22
100
AcDbEntity
  8
TODO
100
AcDbMText
 10
138259.8767413652
 20
8918.864151215894
 30
0.0
 40
168.36404
 41
3965.107833231999
 71
     1
 72
     5
  1
PAVIMENTO
 73
     1
 44
1.0
  0
MTEXT
  5
F695
330
22
100
AcDbEntity
  8
TODO
100
AcDbMText
 10
138943.8148839619
 20
9809.91563017534
 30
0.0
 40
168.36404
 41
3315.803494769999
 71
     1
 72
     5
  1
CINTA PERIMETRAL
 73
     1
 44
1.0
  0
MTEXT
  5
F696
330
22
100
AcDbEntity
  8
TODO
100
AcDbMText
 10
136762.1388506853
 20
10259.7668565632
 30
0.0
 40
168.36404
 41
4770.249927118
 71
     1
 72
     5
  1
RODAPIE
 73
     1
 44
1.0
  0
LINE
  5
108BC
330
22
100
AcDbEntity
  8
TODO
  6
Continuous
370
     5
100
AcDbLine
 10
137925.4846567319
 20
6763.443010791991
 30
0.0
 11
137809.7329745286
 21
6764.61696294415
 31
0.0
  0
LINE
  5
108BD
330
22
100
AcDbEntity
  8
TODO
  6
Continuous
370
     5
100
AcDbLine
 10
137809.7329745286
 20
6764.61696294415
 30
0.0
 11
137810.9538847668
 21
6776.544316810126
 31
0.0
  0
LINE
  5
108BE
330
22
100
AcDbEntity
  8
TODO
  6
Continuous
370
     5
100
AcDbLine
 10
137810.9538847668
 20
6776.544316810126
 30
0.0
 11
138186.8064058034
 21
7154.791700237067
 31
0.0
  0
LINE
  5
108BF
330
22
100
AcDbEntity
  8
TODO
  6
Continuous
370
     5
100
AcDbLine
 10
138186.8064058034
 20
7154.791700237067
 30
0.0
 11
138203.4765263641
 21
7161.976287408295
 31
0.0
  0
LINE
  5
108C0
330
22
100
AcDbEntity
  8
TODO
  6
Continuous
370
     5
100
AcDbLine
 10
138203.4765263641
 20
7161.976287408295
 30
0.0
 11
138204.6974366023
 21
7134.505807047681
 31
0.0
  0
LINE
  5
108C1
330
22
100
AcDbEntity
  8
TODO
  6
Continuous
370
     5
100
AcDbLine
 10
138204.6974366023
 20
7134.505807047681
 30
0.0
 11
138228.5521443343
 21
7078.43785226038
 31
0.0
  0
LINE
  5
108C2
330
22
100
AcDbEntity
  8
TODO
  6
Continuous
370
     5
100
AcDbLine
 10
138228.5521443343
 20
7078.43785226038
 30
0.0
 11
138269.123930713
 21
7039.040018033789
 31
0.0
  0
LINE
  5
108C3
330
22
100
AcDbEntity
  8
TODO
  6
Continuous
370
     5
100
AcDbLine
 10
138269.123930713
 20
7039.040018033789
 30
0.0
 11
138308.5217649397
 21
7018.801082930499
 31
0.0
  0
LINE
  5
108C4
330
22
100
AcDbEntity
  8
TODO
  6
Continuous
370
     5
100
AcDbLine
 10
138308.5217649397
 20
7018.801082930499
 30
0.0
 11
138302.5111299205
 21
7011.616495759255
 31
0.0
  0
LINE
  5
108C5
330
22
100
AcDbEntity
  8
TODO
  6
Continuous
370
     5
100
AcDbLine
 10
138302.5111299205
 20
7011.616495759255
 30
0.0
 11
138221.4145152491
 21
7003.257956435853
 31
0.0
  0
LINE
  5
108C6
330
22
100
AcDbEntity
  8
TODO
  6
Continuous
370
     5
100
AcDbLine
 10
138221.4145152491
 20
7003.257956435853
 30
0.0
 11
138213.0559759257
 21
6967.475894837924
 31
0.0
  0
LINE
  5
108C7
330
22
100
AcDbEntity
  8
TODO
  6
Continuous
370
     5
100
AcDbLine
 10
138213.0559759257
 20
6967.475894837924
 30
0.0
 11
138164.1256502236
 21
6919.719521287931
 31
0.0
  0
LINE
  5
108C8
330
22
100
AcDbEntity
  8
TODO
  6
Continuous
370
     5
100
AcDbLine
 10
138164.1256502236
 20
6919.719521287931
 30
0.0
 11
138176.0530040896
 21
6918.545569135771
 31
0.0
  0
LINE
  5
108C9
330
22
100
AcDbEntity
  8
TODO
  6
Continuous
370
     5
100
AcDbLine
 10
138176.0530040896
 20
6918.545569135771
 30
0.0
 11
138207.0922989927
 21
6951.979726429374
 31
0.0
  0
LINE
  5
108CA
330
22
100
AcDbEntity
  8
TODO
  6
Continuous
370
     5
100
AcDbLine
 10
138207.0922989927
 20
6951.979726429374
 30
0.0
 11
138219.0196528587
 21
6955.548540971948
 31
0.0
  0
LINE
  5
108CB
330
22
100
AcDbEntity
  8
TODO
  6
Continuous
370
     5
100
AcDbLine
 10
138219.0196528587
 20
6955.548540971948
 30
0.0
 11
138215.4508383162
 21
6767.011825334564
 31
0.0
  0
LINE
  5
108CC
330
22
100
AcDbEntity
  8
TODO
  6
Continuous
370
     5
100
AcDbLine
 10
138215.4508383162
 20
6767.011825334564
 30
0.0
 11
138030.4829372214
 21
6768.185777486724
 31
0.0
  0
LINE
  5
108CD
330
22
100
AcDbEntity
  8
TODO
  6
Continuous
370
     5
100
AcDbLine
 10
138030.4829372214
 20
6768.185777486724
 30
0.0
 11
138099.6991561129
 21
6848.155398092073
 31
0.0
  0
LINE
  5
108CE
330
22
100
AcDbEntity
  8
TODO
  6
Continuous
370
     5
100
AcDbLine
 10
138099.6991561129
 20
6848.155398092073
 30
0.0
 11
138087.7718022469
 21
6848.155398092073
 31
0.0
  0
LINE
  5
108CF
330
22
100
AcDbEntity
  8
TODO
  6
Continuous
370
     5
100
AcDbLine
 10
138087.7718022469
 20
6848.155398092073
 30
0.0
 11
138012.5919064224
 21
6767.011825334564
 31
0.0
  0
LINE
  5
108D0
330
22
100
AcDbEntity
  8
TODO
  6
Continuous
370
     5
100
AcDbLine
 10
138012.5919064224
 20
6767.011825334564
 30
0.0
 11
137925.4846567319
 21
6763.443010791991
 31
0.0
  0
LINE
  5
108D1
330
22
100
AcDbEntity
  8
TODO
  6
Continuous
370
     5
100
AcDbLine
 10
137308.5962798132
 20
6767.011825334564
 30
0.0
 11
137034.1732247236
 21
6772.975502267553
 31
0.0
  0
LINE
  5
108D2
330
22
100
AcDbEntity
  8
TODO
  6
Continuous
370
     5
100
AcDbLine
 10
137034.1732247236
 20
6772.975502267553
 30
0.0
 11
137037.7420392662
 21
6796.830209999505
 31
0.0
  0
LINE
  5
108D3
330
22
100
AcDbEntity
  8
TODO
  6
Continuous
370
     5
100
AcDbLine
 10
137037.7420392662
 20
6796.830209999505
 30
0.0
 11
137034.1732247236
 21
6899.48058618464
 31
0.0
  0
LINE
  5
108D4
330
22
100
AcDbEntity
  8
TODO
  6
Continuous
370
     5
100
AcDbLine
 10
137034.1732247236
 20
6899.48058618464
 30
0.0
 11
137090.2411795109
 21
6942.400276867724
 31
0.0
  0
LINE
  5
108D5
330
22
100
AcDbEntity
  8
TODO
  6
Continuous
370
     5
100
AcDbLine
 10
137090.2411795109
 20
6942.400276867724
 30
0.0
 11
137091.4151316631
 21
6955.548540971948
 31
0.0
  0
LINE
  5
108D6
330
22
100
AcDbEntity
  8
TODO
  6
Continuous
370
     5
100
AcDbLine
 10
137091.4151316631
 20
6955.548540971948
 30
0.0
 11
137705.9086461913
 21
7564.078378567188
 31
0.0
  0
LINE
  5
108D7
330
22
100
AcDbEntity
  8
TODO
  6
Continuous
370
     5
100
AcDbLine
 10
137705.9086461913
 20
7564.078378567188
 30
0.0
 11
137801.3744352052
 21
7665.507844514075
 31
0.0
  0
LINE
  5
108D8
330
22
100
AcDbEntity
  8
TODO
  6
Continuous
370
     5
100
AcDbLine
 10
137801.3744352052
 20
7665.507844514075
 30
0.0
 11
138298.942315378
 21
8165.423628991193
 31
0.0
  0
LINE
  5
108D9
330
22
100
AcDbEntity
  8
TODO
  6
Continuous
370
     5
100
AcDbLine
 10
138298.942315378
 20
8165.423628991193
 30
0.0
 11
138950.3918436563
 21
8170.166395685927
 31
0.0
  0
LINE
  5
108DA
330
22
100
AcDbEntity
  8
TODO
  6
Continuous
370
     5
100
AcDbLine
 10
138950.3918436563
 20
8170.166395685927
 30
0.0
 11
138914.6097820584
 21
8131.989471697583
 31
0.0
  0
LINE
  5
108DB
330
22
100
AcDbEntity
  8
TODO
  6
Continuous
370
     5
100
AcDbLine
 10
138914.6097820584
 20
8131.989471697583
 30
0.0
 11
138918.1785966009
 21
8126.025794764595
 31
0.0
  0
LINE
  5
108DC
330
22
100
AcDbEntity
  8
TODO
  6
Continuous
370
     5
100
AcDbLine
 10
138918.1785966009
 20
8126.025794764595
 30
0.0
 11
138930.1059504669
 21
8128.420657155009
 31
0.0
  0
LINE
  5
108DD
330
22
100
AcDbEntity
  8
TODO
  6
Continuous
370
     5
100
AcDbLine
 10
138930.1059504669
 20
8128.420657155009
 30
0.0
 11
138957.5764308276
 21
8165.423628991193
 31
0.0
  0
LINE
  5
108DE
330
22
100
AcDbEntity
  8
TODO
  6
Continuous
370
     5
100
AcDbLine
 10
138957.5764308276
 20
8165.423628991193
 30
0.0
 11
139169.9678541969
 21
8167.771533295512
 31
0.0
  0
LINE
  5
108DF
330
22
100
AcDbEntity
  8
TODO
  6
Continuous
370
     5
100
AcDbLine
 10
139169.9678541969
 20
8167.771533295512
 30
0.0
 11
139023.1768770904
 21
8017.505657818649
 31
0.0
  0
LINE
  5
108E0
330
22
100
AcDbEntity
  8
TODO
  6
Continuous
370
     5
100
AcDbLine
 10
139023.1768770904
 20
8017.505657818649
 30
0.0
 11
138891.9290264786
 21
7889.826621749395
 31
0.0
  0
LINE
  5
108E1
330
22
100
AcDbEntity
  8
TODO
  6
Continuous
370
     5
100
AcDbLine
 10
138891.9290264786
 20
7889.826621749395
 30
0.0
 11
138856.1469648806
 21
7842.070248199394
 31
0.0
  0
LINE
  5
108E2
330
22
100
AcDbEntity
  8
TODO
  6
Continuous
370
     5
100
AcDbLine
 10
138856.1469648806
 20
7842.070248199394
 30
0.0
 11
138525.6089969176
 21
7512.753190474621
 31
0.0
  0
LINE
  5
108E3
330
22
100
AcDbEntity
  8
TODO
  6
Continuous
370
     5
100
AcDbLine
 10
138525.6089969176
 20
7512.753190474621
 30
0.0
 11
138374.1222112025
 21
7355.255769740426
 31
0.0
  0
LINE
  5
108E4
330
22
100
AcDbEntity
  8
TODO
  6
Continuous
370
     5
100
AcDbLine
 10
138374.1222112025
 20
7355.255769740426
 30
0.0
 11
138319.2282085674
 21
7348.118140655271
 31
0.0
  0
LINE
  5
108E5
330
22
100
AcDbEntity
  8
TODO
  6
Continuous
370
     5
100
AcDbLine
 10
138319.2282085674
 20
7348.118140655271
 30
0.0
 11
138240.4794982003
 21
7301.582677343533
 31
0.0
  0
LINE
  5
108E6
330
22
100
AcDbEntity
  8
TODO
  6
Continuous
370
     5
100
AcDbLine
 10
138240.4794982003
 20
7301.582677343533
 30
0.0
 11
138209.4402032971
 21
7233.540410604161
 31
0.0
  0
LINE
  5
108E7
330
22
100
AcDbEntity
  8
TODO
  6
Continuous
370
     5
100
AcDbLine
 10
138209.4402032971
 20
7233.540410604161
 30
0.0
 11
138201.1286220598
 21
7185.830995140255
 31
0.0
  0
LINE
  5
108E8
330
22
100
AcDbEntity
  8
TODO
  6
Continuous
370
     5
100
AcDbLine
 10
138201.1286220598
 20
7185.830995140255
 30
0.0
 11
137985.1214260618
 21
6967.475894837924
 31
0.0
  0
LINE
  5
108E9
330
22
100
AcDbEntity
  8
TODO
  6
Continuous
370
     5
100
AcDbLine
 10
137985.1214260618
 20
6967.475894837924
 30
0.0
 11
137795.4107582722
 21
6776.544316810126
 31
0.0
  0
LINE
  5
108EA
330
22
100
AcDbEntity
  8
TODO
  6
Continuous
370
     5
100
AcDbLine
 10
137795.4107582722
 20
6776.544316810126
 30
0.0
 11
137794.23680612
 21
6764.61696294415
 31
0.0
  0
LINE
  5
108EB
330
22
100
AcDbEntity
  8
TODO
  6
Continuous
370
     5
100
AcDbLine
 10
137794.23680612
 20
6764.61696294415
 30
0.0
 11
137591.3778742263
 21
6769.406687724972
 31
0.0
  0
LINE
  5
108EC
330
22
100
AcDbEntity
  8
TODO
  6
Continuous
370
     5
100
AcDbLine
 10
137591.3778742263
 20
6769.406687724972
 30
0.0
 11
137586.5881494455
 21
6775.370364657967
 31
0.0
  0
LINE
  5
108ED
330
22
100
AcDbEntity
  8
TODO
  6
Continuous
370
     5
100
AcDbLine
 10
137586.5881494455
 20
6775.370364657967
 30
0.0
 11
137686.8436632402
 21
6880.368645147428
 31
0.0
  0
LINE
  5
108EE
330
22
100
AcDbEntity
  8
TODO
  6
Continuous
370
     5
100
AcDbLine
 10
137686.8436632402
 20
6880.368645147428
 30
0.0
 11
137674.9163093742
 21
6882.763507537842
 31
0.0
  0
LINE
  5
108EF
330
22
100
AcDbEntity
  8
TODO
  6
Continuous
370
     5
100
AcDbLine
 10
137674.9163093742
 20
6882.763507537842
 30
0.0
 11
137598.5624613975
 21
6799.22507238992
 31
0.0
  0
LINE
  5
108F0
330
22
100
AcDbEntity
  8
TODO
  6
Continuous
370
     5
100
AcDbLine
 10
137598.5624613975
 20
6799.22507238992
 30
0.0
 11
137586.5881494455
 21
6796.830209999505
 31
0.0
  0
LINE
  5
108F1
330
22
100
AcDbEntity
  8
TODO
  6
Continuous
370
     5
100
AcDbLine
 10
137586.5881494455
 20
6796.830209999505
 30
0.0
 11
137566.3022562561
 21
6764.61696294415
 31
0.0
  0
LINE
  5
108F2
330
22
100
AcDbEntity
  8
TODO
  6
Continuous
370
     5
100
AcDbLine
 10
137566.3022562561
 20
6764.61696294415
 30
0.0
 11
137542.4475485241
 21
6768.185777486724
 31
0.0
  0
LINE
  5
108F3
330
22
100
AcDbEntity
  8
TODO
  6
Continuous
370
     5
100
AcDbLine
 10
137542.4475485241
 20
6768.185777486724
 30
0.0
 11
137518.5928407921
 21
6764.61696294415
 31
0.0
  0
LINE
  5
108F4
330
22
100
AcDbEntity
  8
TODO
  6
Continuous
370
     5
100
AcDbLine
 10
137518.5928407921
 20
6764.61696294415
 30
0.0
 11
137494.7381330602
 21
6768.185777486724
 31
0.0
  0
LINE
  5
108F5
330
22
100
AcDbEntity
  8
TODO
  6
Continuous
370
     5
100
AcDbLine
 10
137494.7381330602
 20
6768.185777486724
 30
0.0
 11
137470.8834253282
 21
6764.61696294415
 31
0.0
  0
LINE
  5
108F6
330
22
100
AcDbEntity
  8
TODO
  6
Continuous
370
     5
100
AcDbLine
 10
137470.8834253282
 20
6764.61696294415
 30
0.0
 11
137446.9817595102
 21
6768.185777486724
 31
0.0
  0
LINE
  5
108F7
330
22
100
AcDbEntity
  8
TODO
  6
Continuous
370
     5
100
AcDbLine
 10
137446.9817595102
 20
6768.185777486724
 30
0.0
 11
137423.1270517783
 21
6764.61696294415
 31
0.0
  0
LINE
  5
108F8
330
22
100
AcDbEntity
  8
TODO
  6
Continuous
370
     5
100
AcDbLine
 10
137423.1270517783
 20
6764.61696294415
 30
0.0
 11
137375.4176363143
 21
6764.61696294415
 31
0.0
  0
LINE
  5
108F9
330
22
100
AcDbEntity
  8
TODO
  6
Continuous
370
     5
100
AcDbLine
 10
137375.4176363143
 20
6764.61696294415
 30
0.0
 11
137369.4539593814
 21
6780.160089438788
 31
0.0
  0
LINE
  5
108FA
330
22
100
AcDbEntity
  8
TODO
  6
Continuous
370
     5
100
AcDbLine
 10
137369.4539593814
 20
6780.160089438788
 30
0.0
 11
137542.4475485241
 21
6955.548540971948
 31
0.0
  0
LINE
  5
108FB
330
22
100
AcDbEntity
  8
TODO
  6
Continuous
370
     5
100
AcDbLine
 10
137542.4475485241
 20
6955.548540971948
 30
0.0
 11
137729.8103120094
 21
7145.259208761498
 31
0.0
  0
LINE
  5
108FC
330
22
100
AcDbEntity
  8
TODO
  6
Continuous
370
     5
100
AcDbLine
 10
137729.8103120094
 20
7145.259208761498
 30
0.0
 11
137744.1325282657
 21
7150.048933542319
 31
0.0
  0
LINE
  5
108FD
330
22
100
AcDbEntity
  8
TODO
  6
Continuous
370
     5
100
AcDbLine
 10
137744.1325282657
 20
7150.048933542319
 30
0.0
 11
137767.9872359977
 21
7182.262180597681
 31
0.0
  0
LINE
  5
108FE
330
22
100
AcDbEntity
  8
TODO
  6
Continuous
370
     5
100
AcDbLine
 10
137767.9872359977
 20
7182.262180597681
 30
0.0
 11
138659.2517099199
 21
8075.921516910283
 31
0.0
  0
LINE
  5
108FF
330
22
100
AcDbEntity
  8
TODO
  6
Continuous
370
     5
100
AcDbLine
 10
138659.2517099199
 20
8075.921516910283
 30
0.0
 11
138679.5376031093
 21
8104.565949423057
 31
0.0
  0
LINE
  5
10900
330
22
100
AcDbEntity
  8
TODO
  6
Continuous
370
     5
100
AcDbLine
 10
138679.5376031093
 20
8104.565949423057
 30
0.0
 11
138667.6102492433
 21
8104.565949423057
 31
0.0
  0
LINE
  5
10901
330
22
100
AcDbEntity
  8
TODO
  6
Continuous
370
     5
100
AcDbLine
 10
138667.6102492433
 20
8104.565949423057
 30
0.0
 11
138599.61494059
 21
8035.396688617606
 31
0.0
  0
LINE
  5
10902
330
22
100
AcDbEntity
  8
TODO
  6
Continuous
370
     5
100
AcDbLine
 10
138599.61494059
 20
8035.396688617606
 30
0.0
 11
138584.0718140954
 21
8028.21210144637
 31
0.0
  0
LINE
  5
10903
330
22
100
AcDbEntity
  8
TODO
  6
Continuous
370
     5
100
AcDbLine
 10
138584.0718140954
 20
8028.21210144637
 30
0.0
 11
138489.8269353197
 21
7922.039868804743
 31
0.0
  0
LINE
  5
10904
330
22
100
AcDbEntity
  8
TODO
  6
Continuous
370
     5
100
AcDbLine
 10
138489.8269353197
 20
7922.039868804743
 30
0.0
 11
138269.123930713
 21
7698.89504372159
 31
0.0
  0
LINE
  5
10905
330
22
100
AcDbEntity
  8
TODO
  6
Continuous
370
     5
100
AcDbLine
 10
138269.123930713
 20
7698.89504372159
 30
0.0
 11
137646.2718768614
 21
7068.905360784818
 31
0.0
  0
LINE
  5
10906
330
22
100
AcDbEntity
  8
TODO
  6
Continuous
370
     5
100
AcDbLine
 10
137646.2718768614
 20
7068.905360784818
 30
0.0
 11
137457.735161224
 21
6880.368645147428
 31
0.0
  0
LINE
  5
10907
330
22
100
AcDbEntity
  8
TODO
  6
Continuous
370
     5
100
AcDbLine
 10
137457.735161224
 20
6880.368645147428
 30
0.0
 11
137381.3813132474
 21
6808.757563865482
 31
0.0
  0
LINE
  5
10908
330
22
100
AcDbEntity
  8
TODO
  6
Continuous
370
     5
100
AcDbLine
 10
137381.3813132474
 20
6808.757563865482
 30
0.0
 11
137353.9577909728
 21
6772.975502267553
 31
0.0
  0
LINE
  5
10909
330
22
100
AcDbEntity
  8
TODO
  6
Continuous
370
     5
100
AcDbLine
 10
137353.9577909728
 20
6772.975502267553
 30
0.0
 11
137308.5962798132
 21
6767.011825334564
 31
0.0
  0
LINE
  5
1090A
330
22
100
AcDbEntity
  8
TODO
  6
Continuous
370
     5
100
AcDbLine
 10
140282.0292488979
 20
6758.653286011162
 30
0.0
 11
140246.2002292139
 21
6764.61696294415
 31
0.0
  0
LINE
  5
1090B
330
22
100
AcDbEntity
  8
TODO
  6
Continuous
370
     5
100
AcDbLine
 10
140246.2002292139
 20
6764.61696294415
 30
0.0
 11
140332.1335267522
 21
6851.724212634646
 31
0.0
  0
LINE
  5
1090C
330
22
100
AcDbEntity
  8
TODO
  6
Continuous
370
     5
100
AcDbLine
 10
140332.1335267522
 20
6851.724212634646
 30
0.0
 11
140329.7386643618
 21
6860.082751958049
 31
0.0
  0
LINE
  5
1090D
330
22
100
AcDbEntity
  8
TODO
  6
Continuous
370
     5
100
AcDbLine
 10
140329.7386643618
 20
6860.082751958049
 30
0.0
 11
140272.4497993363
 21
6808.757563865482
 31
0.0
  0
LINE
  5
1090E
330
22
100
AcDbEntity
  8
TODO
  6
Continuous
370
     5
100
AcDbLine
 10
140272.4497993363
 20
6808.757563865482
 30
0.0
 11
140236.6677377383
 21
6764.61696294415
 31
0.0
  0
LINE
  5
1090F
330
22
100
AcDbEntity
  8
TODO
  6
Continuous
370
     5
100
AcDbLine
 10
140236.6677377383
 20
6764.61696294415
 30
0.0
 11
140027.8451289115
 21
6761.048148401576
 31
0.0
  0
LINE
  5
10910
330
22
100
AcDbEntity
  8
TODO
  6
Continuous
370
     5
100
AcDbLine
 10
140027.8451289115
 20
6761.048148401576
 30
0.0
 11
140027.8451289115
 21
6775.370364657967
 31
0.0
  0
LINE
  5
10911
330
22
100
AcDbEntity
  8
TODO
  6
Continuous
370
     5
100
AcDbLine
 10
140027.8451289115
 20
6775.370364657967
 30
0.0
 11
140302.3151420873
 21
7049.793419747599
 31
0.0
  0
LINE
  5
10912
330
22
100
AcDbEntity
  8
TODO
  6
Continuous
370
     5
100
AcDbLine
 10
140302.3151420873
 20
7049.793419747599
 30
0.0
 11
140320.2061728862
 21
7054.583144528428
 31
0.0
  0
LINE
  5
10913
330
22
100
AcDbEntity
  8
TODO
  6
Continuous
370
     5
100
AcDbLine
 10
140320.2061728862
 20
7054.583144528428
 30
0.0
 11
140327.3438019714
 21
7071.300223175225
 31
0.0
  0
LINE
  5
10914
330
22
100
AcDbEntity
  8
TODO
  6
Continuous
370
     5
100
AcDbLine
 10
140327.3438019714
 20
7071.300223175225
 30
0.0
 11
140351.1985097033
 21
7086.796391583775
 31
0.0
  0
LINE
  5
10915
330
22
100
AcDbEntity
  8
TODO
  6
Continuous
370
     5
100
AcDbLine
 10
140351.1985097033
 20
7086.796391583775
 30
0.0
 11
140391.7702960821
 21
7126.147267724285
 31
0.0
  0
LINE
  5
10916
330
22
100
AcDbEntity
  8
TODO
  6
Continuous
370
     5
100
AcDbLine
 10
140391.7702960821
 20
7126.147267724285
 30
0.0
 11
140398.9548832533
 21
7142.864346371083
 31
0.0
  0
LINE
  5
10917
330
22
100
AcDbEntity
  8
TODO
  6
Continuous
370
     5
100
AcDbLine
 10
140398.9548832533
 20
7142.864346371083
 30
0.0
 11
140413.2770995097
 21
7148.828023304071
 31
0.0
  0
LINE
  5
10918
330
22
100
AcDbEntity
  8
TODO
  6
Continuous
370
     5
100
AcDbLine
 10
140413.2770995097
 20
7148.828023304071
 30
0.0
 11
140418.0198662045
 21
7161.976287408295
 31
0.0
  0
LINE
  5
10919
330
22
100
AcDbEntity
  8
TODO
  6
Continuous
370
     5
100
AcDbLine
 10
140418.0198662045
 20
7161.976287408295
 30
0.0
 11
140429.9472200705
 21
7164.37114979871
 31
0.0
  0
LINE
  5
1091A
330
22
100
AcDbEntity
  8
TODO
  6
Continuous
370
     5
100
AcDbLine
 10
140429.9472200705
 20
7164.37114979871
 30
0.0
 11
140449.0591611076
 21
7190.620719921077
 31
0.0
  0
LINE
  5
1091B
330
22
100
AcDbEntity
  8
TODO
  6
Continuous
370
     5
100
AcDbLine
 10
140449.0591611076
 20
7190.620719921077
 30
0.0
 11
140477.7035936204
 21
7212.080565262615
 31
0.0
  0
LINE
  5
1091C
330
22
100
AcDbEntity
  8
TODO
  6
Continuous
370
     5
100
AcDbLine
 10
140477.7035936204
 20
7212.080565262615
 30
0.0
 11
140502.7322535046
 21
7250.257489250958
 31
0.0
  0
LINE
  5
1091D
330
22
100
AcDbEntity
  8
TODO
  6
Continuous
370
     5
100
AcDbLine
 10
140502.7322535046
 20
7250.257489250958
 30
0.0
 11
140560.0211185301
 21
7305.151491886107
 31
0.0
  0
LINE
  5
1091E
330
22
100
AcDbEntity
  8
TODO
  6
Continuous
370
     5
100
AcDbLine
 10
140560.0211185301
 20
7305.151491886107
 30
0.0
 11
140554.0574415971
 21
7262.184843116935
 31
0.0
  0
LINE
  5
1091F
330
22
100
AcDbEntity
  8
TODO
  6
Continuous
370
     5
100
AcDbLine
 10
140554.0574415971
 20
7262.184843116935
 30
0.0
 11
140546.919812512
 21
7243.119860165811
 31
0.0
  0
LINE
  5
10920
330
22
100
AcDbEntity
  8
TODO
  6
Continuous
370
     5
100
AcDbLine
 10
140546.919812512
 20
7243.119860165811
 30
0.0
 11
140536.1664107981
 21
7209.685702872208
 31
0.0
  0
LINE
  5
10921
330
22
100
AcDbEntity
  8
TODO
  6
Continuous
370
     5
100
AcDbLine
 10
140536.1664107981
 20
7209.685702872208
 30
0.0
 11
140530.2027338652
 21
7206.116888329634
 31
0.0
  0
LINE
  5
10922
330
22
100
AcDbEntity
  8
TODO
  6
Continuous
370
     5
100
AcDbLine
 10
140530.2027338652
 20
7206.116888329634
 30
0.0
 11
140523.0181466939
 21
7158.360514779641
 31
0.0
  0
LINE
  5
10923
330
22
100
AcDbEntity
  8
TODO
  6
Continuous
370
     5
100
AcDbLine
 10
140523.0181466939
 20
7158.360514779641
 30
0.0
 11
140514.7065654566
 21
7150.048933542319
 31
0.0
  0
LINE
  5
10924
330
22
100
AcDbEntity
  8
TODO
  6
Continuous
370
     5
100
AcDbLine
 10
140514.7065654566
 20
7150.048933542319
 30
0.0
 11
140511.0907928279
 21
7124.973315572119
 31
0.0
  0
LINE
  5
10925
330
22
100
AcDbEntity
  8
TODO
  6
Continuous
370
     5
100
AcDbLine
 10
140511.0907928279
 20
7124.973315572119
 30
0.0
 11
140482.4933184013
 21
7047.398557357184
 31
0.0
  0
LINE
  5
10926
330
22
100
AcDbEntity
  8
TODO
  6
Continuous
370
     5
100
AcDbLine
 10
140482.4933184013
 20
7047.398557357184
 30
0.0
 11
140475.30873123
 21
7039.040018033789
 31
0.0
  0
LINE
  5
10927
330
22
100
AcDbEntity
  8
TODO
  6
Continuous
370
     5
100
AcDbLine
 10
140475.30873123
 20
7039.040018033789
 30
0.0
 11
140478.8775457726
 21
7027.112664167813
 31
0.0
  0
LINE
  5
10928
330
22
100
AcDbEntity
  8
TODO
  6
Continuous
370
     5
100
AcDbLine
 10
140478.8775457726
 20
7027.112664167813
 30
0.0
 11
140460.9865149736
 21
6993.725464960291
 31
0.0
  0
LINE
  5
10929
330
22
100
AcDbEntity
  8
TODO
  6
Continuous
370
     5
100
AcDbLine
 10
140460.9865149736
 20
6993.725464960291
 30
0.0
 11
140421.6356388331
 21
6955.548540971948
 31
0.0
  0
LINE
  5
1092A
330
22
100
AcDbEntity
  8
TODO
  6
Continuous
370
     5
100
AcDbLine
 10
140421.6356388331
 20
6955.548540971948
 30
0.0
 11
140418.0198662045
 21
6940.005414477317
 31
0.0
  0
LINE
  5
1092B
330
22
100
AcDbEntity
  8
TODO
  6
Continuous
370
     5
100
AcDbLine
 10
140418.0198662045
 20
6940.005414477317
 30
0.0
 11
140429.9472200705
 21
6942.400276867724
 31
0.0
  0
LINE
  5
1092C
330
22
100
AcDbEntity
  8
TODO
  6
Continuous
370
     5
100
AcDbLine
 10
140429.9472200705
 20
6942.400276867724
 30
0.0
 11
140445.4903465651
 21
6963.90708029535
 31
0.0
  0
LINE
  5
1092D
330
22
100
AcDbEntity
  8
TODO
  6
Continuous
370
     5
100
AcDbLine
 10
140445.4903465651
 20
6963.90708029535
 30
0.0
 11
140446.6642987172
 21
6951.979726429374
 31
0.0
  0
LINE
  5
1092E
330
22
100
AcDbEntity
  8
TODO
  6
Continuous
370
     5
100
AcDbLine
 10
140446.6642987172
 20
6951.979726429374
 30
0.0
 11
140435.9578550895
 21
6935.262647782569
 31
0.0
  0
LINE
  5
1092F
330
22
100
AcDbEntity
  8
TODO
  6
Continuous
370
     5
100
AcDbLine
 10
140435.9578550895
 20
6935.262647782569
 30
0.0
 11
140434.7369448513
 21
6923.335293916592
 31
0.0
  0
LINE
  5
10930
330
22
100
AcDbEntity
  8
TODO
  6
Continuous
370
     5
100
AcDbLine
 10
140434.7369448513
 20
6923.335293916592
 30
0.0
 11
140367.9155883502
 21
6776.544316810126
 31
0.0
  0
LINE
  5
10931
330
22
100
AcDbEntity
  8
TODO
  6
Continuous
370
     5
100
AcDbLine
 10
140367.9155883502
 20
6776.544316810126
 30
0.0
 11
140361.9519114172
 21
6761.048148401576
 31
0.0
  0
LINE
  5
10932
330
22
100
AcDbEntity
  8
TODO
  6
Continuous
370
     5
100
AcDbLine
 10
140361.9519114172
 20
6761.048148401576
 30
0.0
 11
140282.0292488979
 21
6758.653286011162
 31
0.0
  0
LINE
  5
10933
330
22
100
AcDbEntity
  8
TODO
  6
Continuous
370
     5
100
AcDbLine
 10
139924.0677586604
 20
6409.05033509701
 30
0.0
 11
139896.5972782997
 21
6422.198599201234
 31
0.0
  0
LINE
  5
10934
330
22
100
AcDbEntity
  8
TODO
  6
Continuous
370
     5
100
AcDbLine
 10
139896.5972782997
 20
6422.198599201234
 30
0.0
 11
139850.061814988
 21
6454.411846256589
 31
0.0
  0
LINE
  5
10935
330
22
100
AcDbEntity
  8
TODO
  6
Continuous
370
     5
100
AcDbLine
 10
139850.061814988
 20
6454.411846256589
 30
0.0
 11
139850.061814988
 21
6466.339200122566
 31
0.0
  0
LINE
  5
10936
330
22
100
AcDbEntity
  8
TODO
  6
Continuous
370
     5
100
AcDbLine
 10
139850.061814988
 20
6466.339200122566
 30
0.0
 11
139826.2071072561
 21
6493.762722397092
 31
0.0
  0
LINE
  5
10937
330
22
100
AcDbEntity
  8
TODO
  6
Continuous
370
     5
100
AcDbLine
 10
139826.2071072561
 20
6493.762722397092
 30
0.0
 11
139826.2071072561
 21
6514.048615586471
 31
0.0
  0
LINE
  5
10938
330
22
100
AcDbEntity
  8
TODO
  6
Continuous
370
     5
100
AcDbLine
 10
139826.2071072561
 20
6514.048615586471
 30
0.0
 11
139819.0694781709
 21
6522.407154909873
 31
0.0
  0
LINE
  5
10939
330
22
100
AcDbEntity
  8
TODO
  6
Continuous
370
     5
100
AcDbLine
 10
139819.0694781709
 20
6522.407154909873
 30
0.0
 11
139819.0694781709
 21
6565.373803679038
 31
0.0
  0
LINE
  5
1093A
330
22
100
AcDbEntity
  8
TODO
  6
Continuous
370
     5
100
AcDbLine
 10
139819.0694781709
 20
6565.373803679038
 30
0.0
 11
139850.061814988
 21
6636.937926874896
 31
0.0
  0
LINE
  5
1093B
330
22
100
AcDbEntity
  8
TODO
  6
Continuous
370
     5
100
AcDbLine
 10
139850.061814988
 20
6636.937926874896
 30
0.0
 11
139866.7788936348
 21
6657.223820064275
 31
0.0
  0
LINE
  5
1093C
330
22
100
AcDbEntity
  8
TODO
  6
Continuous
370
     5
100
AcDbLine
 10
139866.7788936348
 20
6657.223820064275
 30
0.0
 11
139866.7788936348
 21
6677.509713253654
 31
0.0
  0
LINE
  5
1093D
330
22
100
AcDbEntity
  8
TODO
  6
Continuous
370
     5
100
AcDbLine
 10
139866.7788936348
 20
6677.509713253654
 30
0.0
 11
139882.2750620433
 21
6696.621654290866
 31
0.0
  0
LINE
  5
1093E
330
22
100
AcDbEntity
  8
TODO
  6
Continuous
370
     5
100
AcDbLine
 10
139882.2750620433
 20
6696.621654290866
 30
0.0
 11
139891.854511605
 21
6727.613991107974
 31
0.0
  0
LINE
  5
1093F
330
22
100
AcDbEntity
  8
TODO
  6
Continuous
370
     5
100
AcDbLine
 10
139891.854511605
 20
6727.613991107974
 30
0.0
 11
139906.1297697753
 21
6752.689609078174
 31
0.0
  0
LINE
  5
10940
330
22
100
AcDbEntity
  8
TODO
  6
Continuous
370
     5
100
AcDbLine
 10
139906.1297697753
 20
6752.689609078174
 30
0.0
 11
139908.5246321657
 21
6769.406687724972
 31
0.0
  0
LINE
  5
10941
330
22
100
AcDbEntity
  8
TODO
  6
Continuous
370
     5
100
AcDbLine
 10
139908.5246321657
 20
6769.406687724972
 30
0.0
 11
139920.4519860317
 21
6782.507993743115
 31
0.0
  0
LINE
  5
10942
330
22
100
AcDbEntity
  8
TODO
  6
Continuous
370
     5
100
AcDbLine
 10
139920.4519860317
 20
6782.507993743115
 30
0.0
 11
139933.6002501359
 21
6824.30069036012
 31
0.0
  0
LINE
  5
10943
330
22
100
AcDbEntity
  8
TODO
  6
Continuous
370
     5
100
AcDbLine
 10
139933.6002501359
 20
6824.30069036012
 30
0.0
 11
139944.3536518497
 21
6757.479333858995
 31
0.0
  0
LINE
  5
10944
330
22
100
AcDbEntity
  8
TODO
  6
Continuous
370
     5
100
AcDbLine
 10
139944.3536518497
 20
6757.479333858995
 30
0.0
 11
140019.4865895882
 21
6752.689609078174
 31
0.0
  0
LINE
  5
10945
330
22
100
AcDbEntity
  8
TODO
  6
Continuous
370
     5
100
AcDbLine
 10
140019.4865895882
 20
6752.689609078174
 30
0.0
 11
140015.9177750456
 21
6740.762255212197
 31
0.0
  0
LINE
  5
10946
330
22
100
AcDbEntity
  8
TODO
  6
Continuous
370
     5
100
AcDbLine
 10
140015.9177750456
 20
6740.762255212197
 30
0.0
 11
139989.6682049232
 21
6728.834901346221
 31
0.0
  0
LINE
  5
10947
330
22
100
AcDbEntity
  8
TODO
  6
Continuous
370
     5
100
AcDbLine
 10
139989.6682049232
 20
6728.834901346221
 30
0.0
 11
139969.3823117338
 21
6689.43706711963
 31
0.0
  0
LINE
  5
10948
330
22
100
AcDbEntity
  8
TODO
  6
Continuous
370
     5
100
AcDbLine
 10
139969.3823117338
 20
6689.43706711963
 30
0.0
 11
139969.3823117338
 21
6641.727651655725
 31
0.0
  0
LINE
  5
10949
330
22
100
AcDbEntity
  8
TODO
  6
Continuous
370
     5
100
AcDbLine
 10
139969.3823117338
 20
6641.727651655725
 30
0.0
 11
139989.6682049232
 21
6585.659696868417
 31
0.0
  0
LINE
  5
1094A
330
22
100
AcDbEntity
  8
TODO
  6
Continuous
370
     5
100
AcDbLine
 10
139989.6682049232
 20
6585.659696868417
 30
0.0
 11
140033.8088058446
 21
6498.552447177921
 31
0.0
  0
LINE
  5
1094B
330
22
100
AcDbEntity
  8
TODO
  6
Continuous
370
     5
100
AcDbLine
 10
140033.8088058446
 20
6498.552447177921
 30
0.0
 11
140033.8088058446
 21
6466.339200122566
 31
0.0
  0
LINE
  5
1094C
330
22
100
AcDbEntity
  8
TODO
  6
Continuous
370
     5
100
AcDbLine
 10
140033.8088058446
 20
6466.339200122566
 30
0.0
 11
140017.1386852838
 21
6434.125953067211
 31
0.0
  0
LINE
  5
1094D
330
22
100
AcDbEntity
  8
TODO
  6
Continuous
370
     5
100
AcDbLine
 10
140017.1386852838
 20
6434.125953067211
 30
0.0
 11
139992.0630673136
 21
6412.619149639584
 31
0.0
  0
LINE
  5
1094E
330
22
100
AcDbEntity
  8
TODO
  6
Continuous
370
     5
100
AcDbLine
 10
139992.0630673136
 20
6412.619149639584
 30
0.0
 11
139956.2810057157
 21
6409.05033509701
 31
0.0
  0
LINE
  5
1094F
330
22
100
AcDbEntity
  8
TODO
  6
Continuous
370
     5
100
AcDbLine
 10
139956.2810057157
 20
6409.05033509701
 30
0.0
 11
139924.0677586604
 21
6409.05033509701
 31
0.0
  0
VIEWPORT
  5
10964
102
{ACAD_XDICTIONARY
360
109A2
102
}
330
1E
100
AcDbEntity
 67
     1
  8
0
  6
Continuous
100
AcDbViewport
 10
5.249999639556163
 20
3.999999883606677
 30
0.0
 40
14.16754325027571
 41
8.992999745766948
 68
     1
 69
     1
 12
5.249999639556163
 22
3.999999883606677
 13
0.0
 23
0.0
 14
10.0
 24
10.0
 15
10.0
 25
10.0
 16
0.0
 26
0.0
 36
1.0
 17
0.0
 27
0.0
 37
0.0
 42
50.0
 43
0.0
 44
0.0
 45
8.992999745766948
 50
0.0
 51
0.0
 72
   100
 90
    32800
  1

281
     0
 71
     1
 74
     0
110
0.0
120
0.0
130
0.0
111
1.0
121
0.0
131
0.0
112
0.0
122
1.0
132
0.0
 79
     0
146
0.0
  0
VIEWPORT
  5
10966
102
{ACAD_XDICTIONARY
360
109A4
102
}
330
1E
100
AcDbEntity
 67
     1
  8
0
  6
Continuous
100
AcDbViewport
 10
5.24999976158142
 20
3.99999976158142
 30
0.0
 40
8.399999618530272
 41
6.399999618530273
 68
     2
 69
     2
 12
138505.2105949208
 22
7894.545756281095
 13
0.0
 23
0.0
 14
1.0
 24
1.0
 15
0.0
 25
0.0
 16
0.0
 26
0.0
 36
1.0
 17
0.0
 27
0.0
 37
0.0
 42
50.0
 43
0.0
 44
0.0
 45
8096.016838545475
 50
0.0
 51
0.0
 72
   100
 90
    32800
  1

281
     0
 71
     1
 74
     0
110
0.0
120
0.0
130
0.0
111
1.0
121
0.0
131
0.0
112
0.0
122
1.0
132
0.0
 79
     0
146
0.0
  0
ENDSEC
  0
SECTION
  2
OBJECTS
  0
DICTIONARY
  5
C
330
0
100
AcDbDictionary
281
     1
  3
ACAD_COLOR
350
1B
  3
ACAD_GROUP
350
D
  3
ACAD_LAYOUT
350
19
  3
ACAD_MATERIAL
350
1A
  3
ACAD_MLEADERSTYLE
350
10995
  3
ACAD_MLINESTYLE
350
16
  3
ACAD_PLOTSETTINGS
350
18
  3
ACAD_PLOTSTYLENAME
350
E
  3
ACAD_SCALELIST
350
10980
  3
ACAD_TABLESTYLE
350
1C
  3
ACAD_VISUALSTYLE
350
10967
  3
ACDBHEADERROUNDTRIPXREC
350
1099E
  3
AcDbVariableDictionary
350
1627
  3
ASE_INDEX_DICTIONARY
350
E1A6
  3
DWGPROPS
350
109A1
  0
DICTIONARY
  5
109A6
330
8
100
AcDbDictionary
280
     1
281
     1
  3
ACAD_XREC_ROUNDTRIP
360
109A7
  0
DICTIONARY
  5
287B
330
2
100
AcDbDictionary
280
     1
281
     1
  3
ACAD_LAYERFILTERS
360
1095C
  3
ACAD_LAYERSTATES
360
287C
  0
DICTIONARY
  5
455E
330
22
100
AcDbDictionary
280
     1
281
     1
  3
ACAD_SORTENTS
360
455F
  0
DICTIONARY
  5
109A2
330
10964
100
AcDbDictionary
280
     1
281
     1
  3
ACAD_XREC_ROUNDTRIP
360
109A3
  0
DICTIONARY
  5
109A4
330
10966
100
AcDbDictionary
280
     1
281
     1
  3
ACAD_XREC_ROUNDTRIP
360
109A5
  0
DICTIONARY
  5
1B
102
{ACAD_REACTORS
330
C
102
}
330
C
100
AcDbDictionary
281
     1
  0
DICTIONARY
  5
D
102
{ACAD_REACTORS
330
C
102
}
330
C
100
AcDbDictionary
281
     1
  0
DICTIONARY
  5
19
102
{ACAD_REACTORS
330
C
102
}
330
C
100
AcDbDictionary
281
     1
  3
Layout1
350
21
  3
Model
350
25
  0
DICTIONARY
  5
1A
102
{ACAD_REACTORS
330
C
102
}
330
C
100
AcDbDictionary
281
     1
  3
ByBlock
350
10993
  3
ByLayer
350
10992
  3
Global
350
10994
  0
DICTIONARY
  5
10995
102
{ACAD_REACTORS
330
C
102
}
330
C
100
AcDbDictionary
281
     1
  3
Standard
350
10996
  0
DICTIONARY
  5
16
102
{ACAD_REACTORS
330
C
102
}
330
C
100
AcDbDictionary
281
     1
  3
Standard
350
17
  0
DICTIONARY
  5
18
102
{ACAD_REACTORS
330
C
102
}
330
C
100
AcDbDictionary
281
     1
  0
ACDBDICTIONARYWDFLT
  5
E
102
{ACAD_REACTORS
330
C
102
}
330
C
100
AcDbDictionary
281
     1
  3
Normal
350
F
100
AcDbDictionaryWithDefault
340
F
  0
DICTIONARY
  5
10980
102
{ACAD_REACTORS
330
C
102
}
330
C
100
AcDbDictionary
281
     1
  3
A0
350
10981
  3
A1
350
10982
  3
A2
350
10983
  3
A3
350
10984
  3
A4
350
10985
  3
A5
350
10986
  3
A6
350
10987
  3
A7
350
10988
  3
A8
350
10989
  3
A9
350
1098A
  3
B1
350
1098B
  3
B2
350
1098C
  3
B3
350
1098D
  3
B4
350
1098E
  3
B5
350
1098F
  3
B6
350
10990
  3
B7
350
10991
  0
DICTIONARY
  5
1C
102
{ACAD_REACTORS
330
C
102
}
330
C
100
AcDbDictionary
281
     1
  3
Standard
350
1D
  0
DICTIONARY
  5
10967
102
{ACAD_REACTORS
330
C
102
}
330
C
100
AcDbDictionary
281
     1
  3
2dWireframe
350
1096C
  3
Basic
350
1096F
  3
Brighten
350
10973
  3
ColorChange
350
10977
  3
Conceptual
350
10971
  3
Dim
350
10972
  3
EdgeColorOff
350
1097A
  3
Facepattern
350
10976
  3
Flat
350
10968
  3
FlatWithEdges
350
10969
  3
Gouraud
350
1096A
  3
GouraudWithEdges
350
1096B
  3
Hidden
350
1096E
  3
JitterOff
350
10978
  3
Linepattern
350
10975
  3
OverhangOff
350
10979
  3
Realistic
350
10970
  3
Shaded
350
1097F
  3
Shaded with edges
350
1097E
  3
Shades of Gray
350
1097B
  3
Sketchy
350
1097C
  3
Thicken
350
10974
  3
Wireframe
350
1096D
  3
X-Ray
350
1097D
  0
DICTIONARY
  5
1099E
102
{ACAD_REACTORS
330
C
102
}
330
C
100
AcDbDictionary
281
     1
  3
COLORDICT
350
1099F
  3
MATERIALDICT
350
109A0
  0
DICTIONARY
  5
1627
102
{ACAD_REACTORS
330
C
102
}
330
C
100
AcDbDictionary
281
     1
  3
CANNOSCALE
350
109A8
  3
CMLEADERSTYLE
350
10998
  3
CTABLESTYLE
350
1628
  3
DIMASSOC
350
1633
  3
HIDETEXT
350
1099A
  3
MSLTSCALE
350
10999
  3
PROJECTNAME
350
1634
  3
XCLIPFRAME
350
1099B
  0
DICTIONARY
  5
E1A6
102
{ACAD_REACTORS
330
C
102
}
330
C
100
AcDbDictionary
281
     1
  3
ASEBlockHierarchyIndexRecord
350
E1A7
1001
DCO15
1040
1590223498.109
  0
XRECORD
  5
109A1
102
{ACAD_REACTORS
330
C
102
}
330
C
100
AcDbXrecord
280
     1
  1
DWGPROPS COOKIE
  2

  3

  4

  6

  7

  8
acae2
  9

300
=
301
=
302
=
303
=
304
=
305
=
306
=
307
=
308
=
309
=
 40
0.0
 41
2454198.28734993
 42
2460301.545608241
  1

 90
        0
  0
XRECORD
  5
109A7
102
{ACAD_REACTORS
330
109A6
102
}
330
109A6
100
AcDbXrecord
280
     1
102
VTR_0.000_0.000_1.000_1.000_VISUALSTYLE
340
1096C
102
VTR_0.000_0.000_1.000_1.000_GRIDDISPLAY
 70
     3
102
VTR_0.000_0.000_1.000_1.000_GRIDMAJOR
 70
     5
102
VTR_0.000_0.000_1.000_1.000_DEFAULTLIGHTING
280
     1
102
VTR_0.000_0.000_1.000_1.000_DEFAULTLIGHTINGTYPE
 70
     1
102
VTR_0.000_0.000_1.000_1.000_BRIGHTNESS
141
0.0
102
VTR_0.000_0.000_1.000_1.000_CONTRAST
142
0.0
  0
DICTIONARY
  5
1095C
102
{ACAD_REACTORS
330
287B
102
}
330
287B
100
AcDbDictionary
281
     1
  0
DICTIONARY
  5
287C
102
{ACAD_REACTORS
330
287B
102
}
330
287B
100
AcDbDictionary
281
     1
  0
SORTENTSTABLE
  5
455F
102
{ACAD_REACTORS
330
455E
102
}
330
455E
100
AcDbSortentsTable
330
22
331
1259
  5
4196
331
125A
  5
4197
331
125B
  5
4198
331
125D
  5
419A
331
1269
  5
41A6
331
126A
  5
41A7
331
126B
  5
41A8
331
126D
  5
41AA
331
1279
  5
41B6
331
127A
  5
41B7
331
127B
  5
41B8
331
127D
  5
41BA
331
F5BD
  5
F5BD
331
F5BE
  5
F5BE
331
F5C4
  5
F5C4
331
F5C9
  5
F5C9
331
F5CA
  5
F5CA
331
F5CB
  5
F5CB
331
F5CC
  5
F5CC
331
F5CD
  5
F5CD
331
F5CE
  5
F5CE
331
F5CF
  5
F5CF
331
F5D0
  5
F5D0
331
F5D1
  5
F5D1
331
F5D2
  5
F5D2
331
F5D3
  5
F5D3
331
F5D4
  5
F5D4
331
F5D9
  5
F5D9
331
F5DE
  5
F5DE
331
F5DF
  5
F5DF
331
F5E0
  5
F5E0
331
F5E1
  5
F5E1
331
F5E2
  5
F5E2
331
F5E3
  5
F5E3
331
F5E4
  5
F5E4
331
F5E5
  5
F5E5
331
F5E6
  5
F5E6
331
F5E7
  5
F5E7
331
F5E8
  5
F5E8
331
F5E9
  5
F5E9
331
F5EA
  5
F5EA
331
F5EB
  5
F5EB
331
F5EC
  5
F5EC
331
F5ED
  5
F5ED
331
F5EE
  5
F5EE
331
F5EF
  5
F5EF
331
F5F0
  5
F5F0
331
F5F1
  5
F5F1
331
F5F2
  5
F5F2
331
F5F3
  5
F5F3
331
F5F4
  5
F5F4
331
F5F5
  5
F5F5
331
F5F6
  5
F5F6
331
F5F7
  5
F5F7
331
F5F8
  5
F5F8
331
F5F9
  5
F5F9
331
F5FA
  5
F5FA
331
F5FB
  5
F5FB
331
F5FC
  5
F5FC
331
F5FD
  5
F5FD
331
F5FE
  5
F5FE
331
F5FF
  5
F5FF
331
F600
  5
F600
331
F601
  5
F601
331
F602
  5
F602
331
F603
  5
F603
331
F604
  5
F604
331
F609
  5
F609
331
F60E
  5
F60E
331
F60F
  5
F60F
331
F610
  5
F610
331
F611
  5
F611
331
F612
  5
F612
331
F613
  5
F613
331
F615
  5
F64E
331
F616
  5
F64F
331
F617
  5
F650
331
F61D
  5
F651
331
F61E
  5
F652
331
F61F
  5
F653
331
F620
  5
F654
331
F621
  5
F655
331
F627
  5
F65B
331
F628
  5
F65C
331
F629
  5
F65D
331
F62E
  5
F65E
331
F62F
  5
F65F
331
F630
  5
F660
331
F633
  5
F6B4
331
F634
  5
F6B5
331
F635
  5
F6B6
331
F636
  5
F6B7
331
F637
  5
F6B8
331
F638
  5
F6B9
331
F639
  5
F6BA
331
F63A
  5
F6BB
331
F63B
  5
F6BC
331
F63C
  5
F6BD
331
F63D
  5
F6BE
331
F63E
  5
F6BF
331
F63F
  5
F6C0
331
F640
  5
F6C1
331
F641
  5
F6C2
331
F642
  5
F6C3
331
F643
  5
F6C4
331
F644
  5
F6C5
331
F645
  5
F6C6
331
F646
  5
F6C7
331
F647
  5
F6C8
331
F648
  5
F6C9
331
F649
  5
F6CA
331
F64A
  5
F6CE
331
F64B
  5
F6D2
331
F64C
  5
F6D6
331
F64D
  5
F6D7
331
F64E
  5
F6D8
331
F64F
  5
F6FB
331
F650
  5
F6FF
331
F651
  5
F700
331
F652
  5
F701
331
F653
  5
F702
331
F654
  5
F706
331
F655
  5
F70A
331
F65B
  5
F70B
331
F65C
  5
F70C
331
F65D
  5
F713
331
F65E
  5
F71A
331
F65F
  5
F721
331
F660
  5
F728
331
F661
  5
F72F
331
F662
  5
F736
331
F663
  5
F73A
331
F664
  5
F741
331
F665
  5
F748
331
F666
  5
F749
331
F667
  5
F750
331
F668
  5
F757
331
F669
  5
F75E
331
F66B
  5
F7C8
331
F66C
  5
F7C9
331
F672
  5
F7CA
331
F673
  5
F7CB
331
F674
  5
F7CC
331
F675
  5
F7D3
331
F676
  5
F7DA
331
F677
  5
F7E1
331
F678
  5
F7E8
331
F679
  5
F7EF
331
F67A
  5
F7F6
331
F67B
  5
F7F7
331
F67C
  5
F7FE
331
F67D
  5
F805
331
F67E
  5
F80C
331
F67F
  5
F813
331
F680
  5
F81A
331
F681
  5
F821
331
F682
  5
F828
331
F683
  5
F82F
331
F684
  5
F836
331
F685
  5
F83D
331
F686
  5
F83E
331
F687
  5
F845
331
F688
  5
F84C
331
F689
  5
F853
331
F68A
  5
F85A
331
F68B
  5
F861
331
F68C
  5
F868
331
F68D
  5
F86F
331
F68E
  5
F876
331
F68F
  5
F87D
331
F690
  5
F884
331
F691
  5
F885
331
F692
  5
F886
331
F693
  5
F887
331
F694
  5
F88E
331
F695
  5
F895
331
F696
  5
F89C
331
108BC
  5
F69F
331
108BD
  5
F6A0
331
108BE
  5
F6A1
331
108BF
  5
F6A2
331
108C0
  5
F6A3
331
108C1
  5
F6A4
331
108C2
  5
F6A5
331
108C3
  5
F6A6
331
108C4
  5
F6A7
331
108C5
  5
F6A8
331
108C6
  5
F6A9
331
108C7
  5
F6AA
331
108C8
  5
F6AB
331
108C9
  5
F6AC
331
108CA
  5
F6AD
331
108CB
  5
F6AE
331
108CC
  5
F6AF
331
108CD
  5
F6B0
331
108CE
  5
F6B1
331
108CF
  5
F6B2
331
108D0
  5
F6B3
331
108D1
  5
F661
331
108D2
  5
F662
331
108D3
  5
F663
331
108D4
  5
F664
331
108D5
  5
F665
331
108D6
  5
F666
331
108D7
  5
F667
331
108D8
  5
F668
331
108D9
  5
F669
331
108DA
  5
F66A
331
108DB
  5
F66B
331
108DC
  5
F66C
331
108DD
  5
F672
331
108DE
  5
F673
331
108DF
  5
F674
331
108E0
  5
F675
331
108E1
  5
F676
331
108E2
  5
F677
331
108E3
  5
F678
331
108E4
  5
F679
331
108E5
  5
F67A
331
108E6
  5
F67B
331
108E7
  5
F67C
331
108E8
  5
F67D
331
108E9
  5
F67E
331
108EA
  5
F67F
331
108EB
  5
F680
331
108EC
  5
F681
331
108ED
  5
F682
331
108EE
  5
F683
331
108EF
  5
F684
331
108F0
  5
F685
331
108F1
  5
F686
331
108F2
  5
F687
331
108F3
  5
F688
331
108F4
  5
F689
331
108F5
  5
F68A
331
108F6
  5
F68B
331
108F7
  5
F68C
331
108F8
  5
F68D
331
108F9
  5
F68E
331
108FA
  5
F68F
331
108FB
  5
F690
331
108FC
  5
F691
331
108FD
  5
F692
331
108FE
  5
F693
331
108FF
  5
F694
331
10900
  5
F695
331
10901
  5
F696
331
10902
  5
F697
331
10903
  5
F698
331
10904
  5
F699
331
10905
  5
F69A
331
10906
  5
F69B
331
10907
  5
F69C
331
10908
  5
F69D
331
10909
  5
F69E
331
1090A
  5
F615
331
1090B
  5
F616
331
1090C
  5
F617
331
1090D
  5
F61D
331
1090E
  5
F61E
331
1090F
  5
F61F
331
10910
  5
F620
331
10911
  5
F621
331
10912
  5
F627
331
10913
  5
F628
331
10914
  5
F629
331
10915
  5
F62E
331
10916
  5
F62F
331
10917
  5
F630
331
10918
  5
F633
331
10919
  5
F634
331
1091A
  5
F635
331
1091B
  5
F636
331
1091C
  5
F637
331
1091D
  5
F638
331
1091E
  5
F639
331
1091F
  5
F63A
331
10920
  5
F63B
331
10921
  5
F63C
331
10922
  5
F63D
331
10923
  5
F63E
331
10924
  5
F63F
331
10925
  5
F640
331
10926
  5
F641
331
10927
  5
F642
331
10928
  5
F643
331
10929
  5
F644
331
1092A
  5
F645
331
1092B
  5
F646
331
1092C
  5
F647
331
1092D
  5
F648
331
1092E
  5
F649
331
1092F
  5
F64A
331
10930
  5
F64B
331
10931
  5
F64C
331
10932
  5
F64D
331
10933
  5
F769
331
10934
  5
F76A
331
10935
  5
F76B
331
10936
  5
F76C
331
10937
  5
F773
331
10938
  5
F77A
331
10939
  5
F781
331
1093A
  5
F788
331
1093B
  5
F78F
331
1093C
  5
F796
331
1093D
  5
F797
331
1093E
  5
F79E
331
1093F
  5
F7A5
331
10940
  5
F7AC
331
10941
  5
F7B3
331
10942
  5
F7B4
331
10943
  5
F7B8
331
10944
  5
F7BC
331
10945
  5
F7BD
331
10946
  5
F7BE
331
10947
  5
F7BF
331
10948
  5
F7C0
331
10949
  5
F7C1
331
1094A
  5
F7C2
331
1094B
  5
F7C3
331
1094C
  5
F7C4
331
1094D
  5
F7C5
331
1094E
  5
F7C6
331
1094F
  5
F7C7
  0
XRECORD
  5
109A3
102
{ACAD_REACTORS
330
109A2
102
}
330
109A2
100
AcDbXrecord
280
     1
102
VISUALSTYLE
340
1096C
102
GRIDDISPLAY
 70
     0
102
GRIDMAJOR
 70
     5
102
DEFAULTLIGHTING
280
     1
102
DEFAULTLIGHTINGTYPE
 70
     1
102
BRIGHTNESS
141
0.0
102
CONTRAST
142
0.0
  0
XRECORD
  5
109A5
102
{ACAD_REACTORS
330
109A4
102
}
330
109A4
100
AcDbXrecord
280
     1
102
VISUALSTYLE
340
1096C
102
GRIDDISPLAY
 70
     0
102
GRIDMAJOR
 70
     5
102
DEFAULTLIGHTING
280
     1
102
DEFAULTLIGHTINGTYPE
 70
     1
102
BRIGHTNESS
141
0.0
102
CONTRAST
142
0.0
  0
LAYOUT
  5
21
102
{ACAD_REACTORS
330
19
102
}
330
19
100
AcDbPlotSettings
  1

  2
none_device
  4
Letter_(8.50_x_11.00_Inches)
  6

 40
6.349999904632568
 41
6.349999904632568
 42
6.350006103515625
 43
6.350006103515625
 44
215.8999938964844
 45
279.3999938964844
 46
0.0
 47
0.0
 48
0.0
 49
0.0
140
0.0
141
0.0
142
1.0
143
1.0
 70
   688
 72
     0
 73
     1
 74
     5
  7

 75
    16
147
1.0
148
0.0
149
0.0
100
AcDbLayout
  1
Layout1
 70
     1
 71
     1
 10
-0.2500002402958907
 20
-0.2499999962453767
 11
10.74999951940822
 21
8.249999763458732
 12
0.0
 22
0.0
 32
0.0
 14
1.049999952316284
 24
0.7999999523162842
 34
0.0
 15
9.449999570846556
 25
7.199999570846557
 35
0.0
146
0.0
 13
0.0
 23
0.0
 33
0.0
 16
1.0
 26
0.0
 36
0.0
 17
0.0
 27
1.0
 37
0.0
 76
     0
330
1E
331
10964
  0
LAYOUT
  5
25
102
{ACAD_REACTORS
330
19
102
}
330
19
100
AcDbPlotSettings
  1

  2
none_device
  4
Letter_(8.50_x_11.00_Inches)
  6

 40
6.349999904632568
 41
6.349999904632568
 42
6.350006103515625
 43
6.350006103515625
 44
215.8999938964844
 45
279.3999938964844
 46
0.0
 47
0.0
 48
0.0
 49
0.0
140
0.0
141
0.0
142
1.0
143
8217.373666221289
 70
 11952
 72
     0
 73
     1
 74
     0
  7

 75
     0
147
0.0001216933829005
148
242268.4957579822
149
231544.1629404317
100
AcDbLayout
  1
Model
 70
     1
 71
     0
 10
0.0
 20
0.0
 11
12.0
 21
9.0
 12
0.0
 22
0.0
 32
0.0
 14
0.0
 24
0.0
 34
0.0
 15
0.0
 25
0.0
 35
0.0
146
0.0
 13
0.0
 23
0.0
 33
0.0
 16
1.0
 26
0.0
 36
0.0
 17
0.0
 27
1.0
 37
0.0
 76
     0
330
22
331
10961
1001
ACAD_PSEXT
1000
Nessuno
1000
Nessuno
1000
Non applicabile
1000
Il layout non viene stampato a meno che non venga selezionato un nuovo nome di configurazione della stampante.
1070
     0
  0
MATERIAL
  5
10993
102
{ACAD_REACTORS
330
1A
102
}
102
{ACAD_XDICTIONARY
360
109AB
102
}
330
1A
100
AcDbMaterial
  1
ByBlock
  0
MATERIAL
  5
10992
102
{ACAD_REACTORS
330
1A
102
}
102
{ACAD_XDICTIONARY
360
109A9
102
}
330
1A
100
AcDbMaterial
  1
ByLayer
  0
MATERIAL
  5
10994
102
{ACAD_REACTORS
330
1A
102
}
102
{ACAD_XDICTIONARY
360
109AD
102
}
330
1A
100
AcDbMaterial
  1
Global
  0
MLEADERSTYLE
  5
10996
102
{ACAD_REACTORS
330
10995
102
}
102
{ACAD_XDICTIONARY
360
109E0
102
}
330
10995
100
AcDbMLeaderStyle
170
     2
171
     1
172
     0
 90
        2
 40
0.0
 41
0.0
173
     1
 91
-1056964608
340
13
 92
       -2
290
     1
 42
0.09
291
     1
 43
0.36
  3
Standard
341
0
 44
0.18
300

342
11
174
     1
178
     6
175
     1
176
     0
 93
-1056964608
 45
0.18
292
     0
297
     0
 46
0.18
343
0
 94
-1056964608
 47
1.0
 49
1.0
140
1.0
293
     1
141
0.0
294
     1
177
     0
142
1.0
295
     0
296
     0
143
0.125
1001
ACAD_MLEADERVER
1070
     2
  0
MLINESTYLE
  5
17
102
{ACAD_REACTORS
330
16
102
}
330
16
100
AcDbMlineStyle
  2
STANDARD
 70
     0
  3

 62
   256
 51
90.0
 52
90.0
 71
     2
 49
0.5
 62
   256
  6
BYLAYER
 49
-0.5
 62
   256
  6
BYLAYER
  0
ACDBPLACEHOLDER
  5
F
102
{ACAD_REACTORS
330
E
102
}
330
E
  0
SCALE
  5
10981
102
{ACAD_REACTORS
330
10980
102
}
330
10980
100
AcDbScale
 70
     0
300
1:1
140
1.0
141
1.0
290
     1
  0
SCALE
  5
10982
102
{ACAD_REACTORS
330
10980
102
}
330
10980
100
AcDbScale
 70
     0
300
1/128" = 1'-0"
140
0.0078125
141
12.0
290
     0
  0
SCALE
  5
10983
102
{ACAD_REACTORS
330
10980
102
}
330
10980
100
AcDbScale
 70
     0
300
1/64" = 1'-0"
140
0.015625
141
12.0
290
     0
  0
SCALE
  5
10984
102
{ACAD_REACTORS
330
10980
102
}
330
10980
100
AcDbScale
 70
     0
300
1/32" = 1'-0"
140
0.03125
141
12.0
290
     0
  0
SCALE
  5
10985
102
{ACAD_REACTORS
330
10980
102
}
330
10980
100
AcDbScale
 70
     0
300
1/16" = 1'-0"
140
0.0625
141
12.0
290
     0
  0
SCALE
  5
10986
102
{ACAD_REACTORS
330
10980
102
}
330
10980
100
AcDbScale
 70
     0
300
3/32" = 1'-0"
140
0.09375
141
12.0
290
     0
  0
SCALE
  5
10987
102
{ACAD_REACTORS
330
10980
102
}
330
10980
100
AcDbScale
 70
     0
300
1/8" = 1'-0"
140
0.125
141
12.0
290
     0
  0
SCALE
  5
10988
102
{ACAD_REACTORS
330
10980
102
}
330
10980
100
AcDbScale
 70
     0
300
3/16" = 1'-0"
140
0.1875
141
12.0
290
     0
  0
SCALE
  5
10989
102
{ACAD_REACTORS
330
10980
102
}
330
10980
100
AcDbScale
 70
     0
300
1/4" = 1'-0"
140
0.25
141
12.0
290
     0
  0
SCALE
  5
1098A
102
{ACAD_REACTORS
330
10980
102
}
330
10980
100
AcDbScale
 70
     0
300
3/8" = 1'-0"
140
0.375
141
12.0
290
     0
  0
SCALE
  5
1098B
102
{ACAD_REACTORS
330
10980
102
}
330
10980
100
AcDbScale
 70
     0
300
1/2" = 1'-0"
140
0.5
141
12.0
290
     0
  0
SCALE
  5
1098C
102
{ACAD_REACTORS
330
10980
102
}
330
10980
100
AcDbScale
 70
     0
300
3/4" = 1'-0"
140
0.75
141
12.0
290
     0
  0
SCALE
  5
1098D
102
{ACAD_REACTORS
330
10980
102
}
330
10980
100
AcDbScale
 70
     0
300
1" = 1'-0"
140
1.0
141
12.0
290
     0
  0
SCALE
  5
1098E
102
{ACAD_REACTORS
330
10980
102
}
330
10980
100
AcDbScale
 70
     0
300
1-1/2" = 1'-0"
140
1.5
141
12.0
290
     0
  0
SCALE
  5
1098F
102
{ACAD_REACTORS
330
10980
102
}
330
10980
100
AcDbScale
 70
     0
300
3" = 1'-0"
140
3.0
141
12.0
290
     0
  0
SCALE
  5
10990
102
{ACAD_REACTORS
330
10980
102
}
330
10980
100
AcDbScale
 70
     0
300
6" = 1'-0"
140
6.0
141
12.0
290
     0
  0
SCALE
  5
10991
102
{ACAD_REACTORS
330
10980
102
}
330
10980
100
AcDbScale
 70
     0
300
1'-0" = 1'-0"
140
12.0
141
12.0
290
     0
  0
TABLESTYLE
  5
1D
102
{ACAD_REACTORS
330
1C
102
}
330
1C
100
AcDbTableStyle
  3
Standard
 70
     0
 71
     0
 40
0.06
 41
0.06
280
     0
281
     0
  7
STANDARD
140
0.18
170
     2
 62
     0
 63
   257
283
     0
274
    -2
284
     1
 64
     0
275
    -2
285
     1
 65
     0
276
    -2
286
     1
 66
     0
277
    -2
287
     1
 67
     0
278
    -2
288
     1
 68
     0
279
    -2
289
     1
 69
     0
  7
STANDARD
140
0.25
170
     5
 62
     0
 63
   257
283
     0
274
    -2
284
     1
 64
     0
275
    -2
285
     1
 65
     0
276
    -2
286
     1
 66
     0
277
    -2
287
     1
 67
     0
278
    -2
288
     1
 68
     0
279
    -2
289
     1
 69
     0
  7
STANDARD
140
0.18
170
     5
 62
     0
 63
   257
283
     0
274
    -2
284
     1
 64
     0
275
    -2
285
     1
 65
     0
276
    -2
286
     1
 66
     0
277
    -2
287
     1
 67
     0
278
    -2
288
     1
 68
     0
279
    -2
289
     1
 69
     0
  0
VISUALSTYLE
  5
1096C
102
{ACAD_REACTORS
330
10967
102
}
102
{ACAD_XDICTIONARY
360
109B7
102
}
330
10967
100
AcDbVisualStyle
  2
2dWireframe
 70
     4
 71
     0
 72
     2
 73
     0
 90
        0
 40
0.6
 41
30.0
 62
     5
 63
     7
 74
     1
 91
        4
 64
     7
 65
   257
 75
     1
175
     1
 42
1.0
 92
        0
 66
   257
 43
1.0
 76
     1
 77
     6
 78
     2
 67
     7
 79
     5
170
     0
171
     0
290
     0
174
     0
 93
        1
 44
0.0
173
     0
291
     0
 45
0.0
1001
ACAD
1000
AcDbSavedByObjectVersion
1070
     0
  0
VISUALSTYLE
  5
1096F
102
{ACAD_REACTORS
330
10967
102
}
102
{ACAD_XDICTIONARY
360
109BD
102
}
330
10967
100
AcDbVisualStyle
  2
Basic
 70
     7
 71
     1
 72
     0
 73
     1
 90
        0
 40
0.6
 41
30.0
 62
     5
 63
     7
 74
     0
 91
        4
 64
     7
 65
   257
 75
     1
175
     1
 42
1.0
 92
        8
 66
     7
 43
1.0
 76
     1
 77
     6
 78
     2
 67
     7
 79
     5
170
     0
171
     0
290
     0
174
     0
 93
        1
 44
0.0
173
     0
291
     1
 45
0.0
1001
ACAD
1000
AcDbSavedByObjectVersion
1070
     0
  0
VISUALSTYLE
  5
10973
102
{ACAD_REACTORS
330
10967
102
}
102
{ACAD_XDICTIONARY
360
109C5
102
}
330
10967
100
AcDbVisualStyle
  2
Brighten
 70
    12
 71
     2
 72
     2
 73
     0
 90
        0
 40
0.6
 41
30.0
 62
     5
 63
     7
 74
     1
 91
        4
 64
     7
 65
   257
 75
     1
175
     1
 42
1.0
 92
        8
 66
     7
 43
1.0
 76
     1
 77
     6
 78
     2
 67
     7
 79
     5
170
     0
171
     0
290
     0
174
     0
 93
        1
 44
50.0
173
     0
291
     1
 45
0.0
1001
ACAD
1000
AcDbSavedByObjectVersion
1070
     0
  0
VISUALSTYLE
  5
10977
102
{ACAD_REACTORS
330
10967
102
}
102
{ACAD_XDICTIONARY
360
109CD
102
}
330
10967
100
AcDbVisualStyle
  2
ColorChange
 70
    16
 71
     2
 72
     2
 73
     3
 90
        0
 40
0.6
 41
30.0
 62
     5
 63
     8
 74
     1
 91
        4
 64
     7
 65
   257
 75
     1
175
     1
 42
1.0
 92
        8
 66
     8
 43
1.0
 76
     1
 77
     6
 78
     2
 67
     7
 79
     5
170
     0
171
     0
290
     0
174
     0
 93
        1
 44
0.0
173
     0
291
     1
 45
0.0
1001
ACAD
1000
AcDbSavedByObjectVersion
1070
     0
  0
VISUALSTYLE
  5
10971
102
{ACAD_REACTORS
330
10967
102
}
102
{ACAD_XDICTIONARY
360
109C1
102
}
330
10967
100
AcDbVisualStyle
  2
Conceptual
 70
     9
 71
     3
 72
     2
 73
     0
 90
        0
 40
0.6
 41
30.0
 62
     5
 63
     7
 74
     2
 91
        2
 64
     7
 65
   257
 75
     1
175
     1
 42
179.0
 92
        8
 66
     7
 43
1.0
 76
     1
 77
     6
 78
     2
 67
     7
 79
     3
170
     0
171
     0
290
     0
174
     0
 93
        1
 44
0.0
173
     0
291
     0
 45
0.0
1001
ACAD
1000
AcDbSavedByObjectVersion
1070
     0
  0
VISUALSTYLE
  5
10972
102
{ACAD_REACTORS
330
10967
102
}
102
{ACAD_XDICTIONARY
360
109C3
102
}
330
10967
100
AcDbVisualStyle
  2
Dim
 70
    11
 71
     2
 72
     2
 73
     0
 90
        0
 40
0.6
 41
30.0
 62
     5
 63
     7
 74
     1
 91
        4
 64
     7
 65
   257
 75
     1
175
     1
 42
1.0
 92
        8
 66
     7
 43
1.0
 76
     1
 77
     6
 78
     2
 67
     7
 79
     5
170
     0
171
     0
290
     0
174
     0
 93
        1
 44
-50.0
173
     0
291
     1
 45
0.0
1001
ACAD
1000
AcDbSavedByObjectVersion
1070
     0
  0
VISUALSTYLE
  5
1097A
102
{ACAD_REACTORS
330
10967
102
}
102
{ACAD_XDICTIONARY
360
109D3
102
}
330
10967
100
AcDbVisualStyle
  2
EdgeColorOff
 70
    22
 71
     2
 72
     2
 73
     0
 90
        0
 40
0.6
 41
30.0
 62
     5
 63
     7
 74
     1
 91
        4
 64
     7
 65
   257
 75
     1
175
     1
 42
1.0
 92
        8
 66
     7
 43
1.0
 76
     1
 77
     6
 78
     2
 67
     7
 79
     5
170
     0
171
     0
290
     0
174
     0
 93
        1
 44
0.0
173
     0
291
     1
 45
0.0
1001
ACAD
1000
AcDbSavedByObjectVersion
1070
     0
  0
VISUALSTYLE
  5
10976
102
{ACAD_REACTORS
330
10967
102
}
102
{ACAD_XDICTIONARY
360
109CB
102
}
330
10967
100
AcDbVisualStyle
  2
Facepattern
 70
    15
 71
     2
 72
     2
 73
     0
 90
        0
 40
0.6
 41
30.0
 62
     5
 63
     7
 74
     1
 91
        4
 64
     7
 65
   257
 75
     1
175
     1
 42
1.0
 92
        8
 66
     7
 43
1.0
 76
     1
 77
     6
 78
     2
 67
     7
 79
     5
170
     0
171
     0
290
     0
174
     0
 93
        1
 44
0.0
173
     0
291
     1
 45
0.0
1001
ACAD
1000
AcDbSavedByObjectVersion
1070
     0
  0
VISUALSTYLE
  5
10968
102
{ACAD_REACTORS
330
10967
102
}
102
{ACAD_XDICTIONARY
360
109AF
102
}
330
10967
100
AcDbVisualStyle
  2
Flat
 70
     0
 71
     2
 72
     1
 73
     1
 90
        2
 40
0.6
 41
30.0
 62
     5
 63
     7
 74
     0
 91
        0
 64
     7
 65
   257
 75
     1
175
     1
 42
1.0
 92
        8
 66
     7
 43
1.0
 76
     1
 77
     6
 78
     2
 67
     7
 79
     5
170
     0
171
     0
290
     0
174
     0
 93
       13
 44
0.0
173
     0
291
     1
 45
0.0
1001
ACAD
1000
AcDbSavedByObjectVersion
1070
     0
  0
VISUALSTYLE
  5
10969
102
{ACAD_REACTORS
330
10967
102
}
102
{ACAD_XDICTIONARY
360
109B1
102
}
330
10967
100
AcDbVisualStyle
  2
FlatWithEdges
 70
     1
 71
     2
 72
     1
 73
     1
 90
        2
 40
0.6
 41
30.0
 62
     5
 63
     7
 74
     1
 91
        0
 64
     7
 65
   257
 75
     1
175
     1
 42
1.0
 92
        0
 66
   257
 43
1.0
 76
     1
 77
     6
 78
     2
 67
     7
 79
     5
170
     0
171
     0
290
     0
174
     0
 93
       13
 44
0.0
173
     0
291
     1
 45
0.0
1001
ACAD
1000
AcDbSavedByObjectVersion
1070
     0
  0
VISUALSTYLE
  5
1096A
102
{ACAD_REACTORS
330
10967
102
}
102
{ACAD_XDICTIONARY
360
109B3
102
}
330
10967
100
AcDbVisualStyle
  2
Gouraud
 70
     2
 71
     2
 72
     2
 73
     1
 90
        2
 40
0.6
 41
30.0
 62
     5
 63
     7
 74
     0
 91
        0
 64
     7
 65
   257
 75
     1
175
     1
 42
1.0
 92
        0
 66
     7
 43
1.0
 76
     1
 77
     6
 78
     2
 67
     7
 79
     5
170
     0
171
     0
290
     0
174
     0
 93
       13
 44
0.0
173
     0
291
     1
 45
0.0
1001
ACAD
1000
AcDbSavedByObjectVersion
1070
     0
  0
VISUALSTYLE
  5
1096B
102
{ACAD_REACTORS
330
10967
102
}
102
{ACAD_XDICTIONARY
360
109B5
102
}
330
10967
100
AcDbVisualStyle
  2
GouraudWithEdges
 70
     3
 71
     2
 72
     2
 73
     1
 90
        2
 40
0.6
 41
30.0
 62
     5
 63
     7
 74
     1
 91
        0
 64
     7
 65
   257
 75
     1
175
     1
 42
1.0
 92
        0
 66
   257
 43
1.0
 76
     1
 77
     6
 78
     2
 67
     7
 79
     5
170
     0
171
     0
290
     0
174
     0
 93
       13
 44
0.0
173
     0
291
     1
 45
0.0
1001
ACAD
1000
AcDbSavedByObjectVersion
1070
     0
  0
VISUALSTYLE
  5
1096E
102
{ACAD_REACTORS
330
10967
102
}
102
{ACAD_XDICTIONARY
360
109BB
102
}
330
10967
100
AcDbVisualStyle
  2
Hidden
 70
     6
 71
     1
 72
     2
 73
     2
 90
        0
 40
0.6
 41
30.0
 62
     5
 63
     7
 74
     2
 91
        2
 64
     7
 65
   257
 75
     2
175
     1
 42
40.0
 92
        0
 66
   257
 43
1.0
 76
     1
 77
     6
 78
     2
 67
     7
 79
     3
170
     0
171
     0
290
     0
174
     0
 93
        1
 44
0.0
173
     0
291
     0
 45
0.0
1001
ACAD
1000
AcDbSavedByObjectVersion
1070
     0
  0
VISUALSTYLE
  5
10978
102
{ACAD_REACTORS
330
10967
102
}
102
{ACAD_XDICTIONARY
360
109CF
102
}
330
10967
100
AcDbVisualStyle
  2
JitterOff
 70
    20
 71
     2
 72
     2
 73
     0
 90
        0
 40
0.6
 41
30.0
 62
     5
 63
     7
 74
     1
 91
        4
 64
     7
 65
   257
 75
     1
175
     1
 42
1.0
 92
       10
 66
     7
 43
1.0
 76
     1
 77
     6
 78
     2
 67
     7
 79
     5
170
     0
171
     0
290
     0
174
     0
 93
        1
 44
0.0
173
     0
291
     1
 45
0.0
1001
ACAD
1000
AcDbSavedByObjectVersion
1070
     0
  0
VISUALSTYLE
  5
10975
102
{ACAD_REACTORS
330
10967
102
}
102
{ACAD_XDICTIONARY
360
109C9
102
}
330
10967
100
AcDbVisualStyle
  2
Linepattern
 70
    14
 71
     2
 72
     2
 73
     0
 90
        0
 40
0.6
 41
30.0
 62
     5
 63
     7
 74
     1
 91
        4
 64
     7
 65
   257
 75
     7
175
     7
 42
1.0
 92
        8
 66
     7
 43
1.0
 76
     1
 77
     6
 78
     2
 67
     7
 79
     5
170
     0
171
     0
290
     0
174
     0
 93
        1
 44
0.0
173
     0
291
     1
 45
0.0
1001
ACAD
1000
AcDbSavedByObjectVersion
1070
     0
  0
VISUALSTYLE
  5
10979
102
{ACAD_REACTORS
330
10967
102
}
102
{ACAD_XDICTIONARY
360
109D1
102
}
330
10967
100
AcDbVisualStyle
  2
OverhangOff
 70
    21
 71
     2
 72
     2
 73
     0
 90
        0
 40
0.6
 41
30.0
 62
     5
 63
     7
 74
     1
 91
        4
 64
     7
 65
   257
 75
     1
175
     1
 42
1.0
 92
        9
 66
     7
 43
1.0
 76
     1
 77
     6
 78
     2
 67
     7
 79
     5
170
     0
171
     0
290
     0
174
     0
 93
        1
 44
0.0
173
     0
291
     1
 45
0.0
1001
ACAD
1000
AcDbSavedByObjectVersion
1070
     0
  0
VISUALSTYLE
  5
10970
102
{ACAD_REACTORS
330
10967
102
}
102
{ACAD_XDICTIONARY
360
109BF
102
}
330
10967
100
AcDbVisualStyle
  2
Realistic
 70
     8
 71
     2
 72
     3
 73
     0
 90
        2
 40
0.6
 41
30.0
 62
     5
 63
     7
 74
     0
 91
        0
 64
     7
 65
   257
 75
     1
175
     1
 42
1.0
 92
        8
 66
   257
 43
1.0
 76
     1
 77
     6
 78
     2
 67
     7
 79
     3
170
     0
171
     0
290
     0
174
     0
 93
       13
 44
0.0
173
     0
291
     0
 45
0.0
1001
ACAD
1000
AcDbSavedByObjectVersion
1070
     0
  0
VISUALSTYLE
  5
1097F
102
{ACAD_REACTORS
330
10967
102
}
102
{ACAD_XDICTIONARY
360
109DD
102
}
330
10967
100
AcDbVisualStyle
  2
Shaded
 70
    27
 71
     2
 72
     2
 73
     1
 90
        2
 40
0.6
 41
30.0
 62
     5
 63
     7
 74
     0
 91
        4
 64
     7
 65
   257
 75
     1
175
     1
 42
1.0
 92
        8
 66
   257
 43
1.0
 76
     1
 77
     6
 78
     2
 67
     8
 79
     3
170
     0
171
     0
290
     0
174
     0
 93
        5
 44
0.0
173
     0
291
     0
 45
0.0
1001
ACAD
1000
AcDbSavedByObjectVersion
1070
     0
  0
VISUALSTYLE
  5
1097E
102
{ACAD_REACTORS
330
10967
102
}
102
{ACAD_XDICTIONARY
360
109DB
102
}
330
10967
100
AcDbVisualStyle
  2
Shaded with edges
 70
    26
 71
     2
 72
     2
 73
     1
 90
        2
 40
0.6
 41
30.0
 62
     5
 63
     7
 74
     1
 91
       10
 64
     7
 65
   257
 75
     2
175
     1
 42
1.0
 92
        8
 66
   257
 43
1.0
 76
     1
 77
     6
 78
     2
 67
     7
 79
     3
170
     0
171
     0
290
     0
174
     0
 93
        5
 44
0.0
173
     0
291
     0
 45
0.0
1001
ACAD
1000
AcDbSavedByObjectVersion
1070
     0
  0
VISUALSTYLE
  5
1097B
102
{ACAD_REACTORS
330
10967
102
}
102
{ACAD_XDICTIONARY
360
109D5
102
}
330
10967
100
AcDbVisualStyle
  2
Shades of Gray
 70
    23
 71
     2
 72
     2
 73
     3
 90
        0
 40
0.6
 41
30.0
 62
     5
 63
     7
 74
     2
 91
        2
 64
     7
 65
     7
 75
     1
175
     1
 42
40.0
 92
        8
 66
     7
 43
1.0
 76
     1
 77
     6
 78
     2
 67
     7
 79
     3
170
     0
171
     0
290
     0
174
     0
 93
        1
 44
0.0
173
     0
291
     0
 45
0.0
1001
ACAD
1000
AcDbSavedByObjectVersion
1070
     0
  0
VISUALSTYLE
  5
1097C
102
{ACAD_REACTORS
330
10967
102
}
102
{ACAD_XDICTIONARY
360
109D7
102
}
330
10967
100
AcDbVisualStyle
  2
Sketchy
 70
    24
 71
     1
 72
     2
 73
     2
 90
        0
 40
0.6
 41
30.0
 62
     5
 63
     7
 74
     2
 91
        2
 64
     7
 65
     7
 75
     1
175
     1
 42
40.0
 92
       11
 66
     7
 43
1.0
 76
     1
 77
     6
 78
     2
 67
     7
 79
     6
170
     0
171
     0
290
     0
174
     0
 93
        1
 44
0.0
173
     0
291
     0
 45
0.0
1001
ACAD
1000
AcDbSavedByObjectVersion
1070
     0
  0
VISUALSTYLE
  5
10974
102
{ACAD_REACTORS
330
10967
102
}
102
{ACAD_XDICTIONARY
360
109C7
102
}
330
10967
100
AcDbVisualStyle
  2
Thicken
 70
    13
 71
     2
 72
     2
 73
     0
 90
        0
 40
0.6
 41
30.0
 62
     5
 63
     7
 74
     1
 91
        4
 64
     7
 65
   257
 75
     1
175
     1
 42
1.0
 92
       12
 66
     7
 43
1.0
 76
     1
 77
     6
 78
     2
 67
     7
 79
     5
170
     0
171
     0
290
     0
174
     0
 93
        1
 44
0.0
173
     0
291
     1
 45
0.0
1001
ACAD
1000
AcDbSavedByObjectVersion
1070
     0
  0
VISUALSTYLE
  5
1096D
102
{ACAD_REACTORS
330
10967
102
}
102
{ACAD_XDICTIONARY
360
109B9
102
}
330
10967
100
AcDbVisualStyle
  2
Wireframe
 70
     5
 71
     0
 72
     2
 73
     0
 90
        0
 40
0.6
 41
30.0
 62
     5
 63
     7
 74
     1
 91
        4
 64
     7
 65
   257
 75
     1
175
     1
 42
1.0
 92
        0
 66
   257
 43
1.0
 76
     1
 77
     6
 78
     2
 67
     7
 79
     3
170
     0
171
     0
290
     0
174
     0
 93
        1
 44
0.0
173
     0
291
     0
 45
0.0
1001
ACAD
1000
AcDbSavedByObjectVersion
1070
     0
  0
VISUALSTYLE
  5
1097D
102
{ACAD_REACTORS
330
10967
102
}
102
{ACAD_XDICTIONARY
360
109D9
102
}
330
10967
100
AcDbVisualStyle
  2
X-Ray
 70
    25
 71
     2
 72
     2
 73
     1
 90
        1
 40
0.5
 41
30.0
 62
     5
 63
     7
 74
     1
 91
        0
 64
     7
 65
   257
 75
     1
175
     1
 42
1.0
 92
        8
 66
     7
 43
1.0
 76
     1
 77
     6
 78
     2
 67
     7
 79
     3
170
     0
171
     0
290
     0
174
     0
 93
       13
 44
0.0
173
     0
291
     0
 45
0.0
1001
ACAD
1000
AcDbSavedByObjectVersion
1070
     0
  0
XRECORD
  5
1099F
102
{ACAD_REACTORS
330
1099E
102
}
330
1099E
100
AcDbXrecord
280
     1
340
1B
  0
XRECORD
  5
109A0
102
{ACAD_REACTORS
330
1099E
102
}
330
1099E
100
AcDbXrecord
280
     1
340
1A
  0
DICTIONARYVAR
  5
109A8
102
{ACAD_REACTORS
330
1627
102
}
330
1627
100
DictionaryVariables
280
     0
  1
1:1
  0
DICTIONARYVAR
  5
10998
102
{ACAD_REACTORS
330
1627
102
}
330
1627
100
DictionaryVariables
280
     0
  1
Standard
  0
DICTIONARYVAR
  5
1628
102
{ACAD_REACTORS
330
1627
102
}
330
1627
100
DictionaryVariables
280
     0
  1
Standard
  0
DICTIONARYVAR
  5
1633
102
{ACAD_REACTORS
330
1627
102
}
330
1627
100
DictionaryVariables
280
     0
  1
1
  0
DICTIONARYVAR
  5
1099A
102
{ACAD_REACTORS
330
1627
102
}
330
1627
100
DictionaryVariables
280
     0
  1
0
  0
DICTIONARYVAR
  5
10999
102
{ACAD_REACTORS
330
1627
102
}
330
1627
100
DictionaryVariables
280
     0
  1
0
  0
DICTIONARYVAR
  5
1634
102
{ACAD_REACTORS
330
1627
102
}
330
1627
100
DictionaryVariables
280
     0
  1

  0
DICTIONARYVAR
  5
1099B
102
{ACAD_REACTORS
330
1627
102
}
330
1627
100
DictionaryVariables
280
     0
  1
0
  0
XRECORD
  5
E1A7
102
{ACAD_REACTORS
330
E1A6
102
}
330
E1A6
100
AcDbXrecord
280
     1
330
0
330
0
330
0
330
0
330
0
330
0
330
0
330
0
330
0
330
0
330
0
330
0
330
0
330
0
330
0
330
0
330
0
330
0
330
0
330
0
330
0
330
0
330
0
330
0
330
0
330
0
330
0
330
0
330
0
330
0
330
0
330
0
330
0
330
0
330
0
330
0
330
0
330
0
330
0
  0
DICTIONARY
  5
109AB
330
10993
100
AcDbDictionary
280
     1
281
     1
  3
ACAD_XREC_ROUNDTRIP
360
109AC
  0
DICTIONARY
  5
109A9
330
10992
100
AcDbDictionary
280
     1
281
     1
  3
ACAD_XREC_ROUNDTRIP
360
109AA
  0
DICTIONARY
  5
109AD
330
10994
100
AcDbDictionary
280
     1
281
     1
  3
ACAD_XREC_ROUNDTRIP
360
109AE
  0
DICTIONARY
  5
109E0
330
10996
100
AcDbDictionary
280
     1
281
     1
  3
ACAD_XREC_ROUNDTRIP
360
109E1
  0
DICTIONARY
  5
109B7
330
1096C
100
AcDbDictionary
280
     1
281
     1
  3
ACAD_XREC_ROUNDTRIP
360
109B8
  0
DICTIONARY
  5
109BD
330
1096F
100
AcDbDictionary
280
     1
281
     1
  3
ACAD_XREC_ROUNDTRIP
360
109BE
  0
DICTIONARY
  5
109C5
330
10973
100
AcDbDictionary
280
     1
281
     1
  3
ACAD_XREC_ROUNDTRIP
360
109C6
  0
DICTIONARY
  5
109CD
330
10977
100
AcDbDictionary
280
     1
281
     1
  3
ACAD_XREC_ROUNDTRIP
360
109CE
  0
DICTIONARY
  5
109C1
330
10971
100
AcDbDictionary
280
     1
281
     1
  3
ACAD_XREC_ROUNDTRIP
360
109C2
  0
DICTIONARY
  5
109C3
330
10972
100
AcDbDictionary
280
     1
281
     1
  3
ACAD_XREC_ROUNDTRIP
360
109C4
  0
DICTIONARY
  5
109D3
330
1097A
100
AcDbDictionary
280
     1
281
     1
  3
ACAD_XREC_ROUNDTRIP
360
109D4
  0
DICTIONARY
  5
109CB
330
10976
100
AcDbDictionary
280
     1
281
     1
  3
ACAD_XREC_ROUNDTRIP
360
109CC
  0
DICTIONARY
  5
109AF
330
10968
100
AcDbDictionary
280
     1
281
     1
  3
ACAD_XREC_ROUNDTRIP
360
109B0
  0
DICTIONARY
  5
109B1
330
10969
100
AcDbDictionary
280
     1
281
     1
  3
ACAD_XREC_ROUNDTRIP
360
109B2
  0
DICTIONARY
  5
109B3
330
1096A
100
AcDbDictionary
280
     1
281
     1
  3
ACAD_XREC_ROUNDTRIP
360
109B4
  0
DICTIONARY
  5
109B5
330
1096B
100
AcDbDictionary
280
     1
281
     1
  3
ACAD_XREC_ROUNDTRIP
360
109B6
  0
DICTIONARY
  5
109BB
330
1096E
100
AcDbDictionary
280
     1
281
     1
  3
ACAD_XREC_ROUNDTRIP
360
109BC
  0
DICTIONARY
  5
109CF
330
10978
100
AcDbDictionary
280
     1
281
     1
  3
ACAD_XREC_ROUNDTRIP
360
109D0
  0
DICTIONARY
  5
109C9
330
10975
100
AcDbDictionary
280
     1
281
     1
  3
ACAD_XREC_ROUNDTRIP
360
109CA
  0
DICTIONARY
  5
109D1
330
10979
100
AcDbDictionary
280
     1
281
     1
  3
ACAD_XREC_ROUNDTRIP
360
109D2
  0
DICTIONARY
  5
109BF
330
10970
100
AcDbDictionary
280
     1
281
     1
  3
ACAD_XREC_ROUNDTRIP
360
109C0
  0
DICTIONARY
  5
109DD
330
1097F
100
AcDbDictionary
280
     1
281
     1
  3
ACAD_XREC_ROUNDTRIP
360
109DE
  0
DICTIONARY
  5
109DB
330
1097E
100
AcDbDictionary
280
     1
281
     1
  3
ACAD_XREC_ROUNDTRIP
360
109DC
  0
DICTIONARY
  5
109D5
330
1097B
100
AcDbDictionary
280
     1
281
     1
  3
ACAD_XREC_ROUNDTRIP
360
109D6
  0
DICTIONARY
  5
109D7
330
1097C
100
AcDbDictionary
280
     1
281
     1
  3
ACAD_XREC_ROUNDTRIP
360
109D8
  0
DICTIONARY
  5
109C7
330
10974
100
AcDbDictionary
280
     1
281
     1
  3
ACAD_XREC_ROUNDTRIP
360
109C8
  0
DICTIONARY
  5
109B9
330
1096D
100
AcDbDictionary
280
     1
281
     1
  3
ACAD_XREC_ROUNDTRIP
360
109BA
  0
DICTIONARY
  5
109D9
330
1097D
100
AcDbDictionary
280
     1
281
     1
  3
ACAD_XREC_ROUNDTRIP
360
109DA
  0
XRECORD
  5
109AC
102
{ACAD_REACTORS
330
109AB
102
}
330
109AB
100
AcDbXrecord
280
     1
102
MATERIAL
148
0.0
149
0.0
149
0.0
 93
        0
 94
      127
282
     0
 72
     1
 77
     1
171
     1
175
     1
179
     1
273
     0
  0
XRECORD
  5
109AA
102
{ACAD_REACTORS
330
109A9
102
}
330
109A9
100
AcDbXrecord
280
     1
102
MATERIAL
148
0.0
149
0.0
149
0.0
 93
        0
 94
      127
282
     0
 72
     1
 77
     1
171
     1
175
     1
179
     1
273
     0
  0
XRECORD
  5
109AE
102
{ACAD_REACTORS
330
109AD
102
}
330
109AD
100
AcDbXrecord
280
     1
102
MATERIAL
148
0.0
149
0.0
149
0.0
 93
        0
 94
      127
282
     0
 72
     1
 77
     1
171
     1
175
     1
179
     1
273
     0
  0
XRECORD
  5
109E1
102
{ACAD_REACTORS
330
109E0
102
}
330
109E0
100
AcDbXrecord
280
     1
102
ACAD_ROUNDTRIP_2010_MLEADER_STYLE
  0
XRECORD
  5
109B8
102
{ACAD_REACTORS
330
109B7
102
}
330
109B7
100
AcDbXrecord
280
     1
102
RTVSPropertyOp0
 70
     1
102
RTVSPropertyOp1
 70
     1
102
RTVSPropertyOp2
 70
     1
102
RTVSPropertyOp3
 70
     1
102
RTVSPropertyOp4
 70
     1
102
RTVSPropertyOp5
 70
     1
102
RTVSPropertyOp6
 70
     1
102
RTVSPropertyOp7
 70
     1
102
RTVSPropertyOp8
 70
     1
102
RTVSPropertyOp9
 70
     1
102
RTVSPropertyOp10
 70
     1
102
RTVSPropertyOp11
 70
     1
102
RTVSPropertyOp12
 70
     1
102
RTVSPropertyOp13
 70
     1
102
RTVSPropertyOp14
 70
     1
102
RTVSPropertyOp15
 70
     1
102
RTVSPropertyOp16
 70
     1
102
RTVSPropertyOp17
 70
     1
102
RTVSPropertyOp18
 70
     1
102
RTVSPropertyOp19
 70
     1
102
RTVSPropertyOp20
 70
     1
102
RTVSPropertyOp21
 70
     1
102
RTVSPropertyOp22
 70
     1
102
RTVSPropertyOp23
 70
     1
102
RTVSPropertyOp24
 70
     1
102
RTVSPropertyOp25
 70
     1
102
RTVSPropertyOp26
 70
     1
102
RTVSPropertyOp27
 70
     1
102
RTVSPropertyOp28
 70
     1
102
RTVSPropertyOp29
 70
     1
102
RTVSPropertyOp30
 70
     1
102
RTVSPropertyOp31
 70
     1
102
RTVSPropertyOp32
 70
     1
102
RTVSPropertyOp33
 70
     1
102
RTVSPropertyOp34
 70
     1
102
RTVSPropertyOp35
 70
     1
102
RTVSPropertyOp36
 70
     1
102
RTVSPropertyOp37
 70
     1
102
RTVSPropertyOp38
 70
     1
102
RTVSPropertyOp39
 70
     1
102
RTVSPropertyOp40
 70
     1
102
RTVSPropertyOp41
 70
     1
102
RTVSPropertyOp42
 70
     1
102
RTVSPropertyOp43
 70
     1
102
RTVSPropertyOp44
 70
     1
102
RTVSPropertyOp45
 70
     1
102
RTVSPropertyOp46
 70
     1
102
RTVSPropertyOp47
 70
     1
102
RTVSPropertyOp48
 70
     1
102
RTVSPropertyOp49
 70
     1
102
RTVSPropertyOp50
 70
     1
102
RTVSPropertyOp51
 70
     0
102
RTVSPropertyOp52
 70
     0
102
RTVSPropertyOp53
 70
     1
102
RTVSPropertyOp54
 70
     1
102
RTVSPropertyOp55
 70
     1
102
RTVSPropertyOp56
 70
     1
102
RTVSPropertyOp57
 70
     1
102
RTVSPost2010Prop28
280
     1
102
RTVSPost2010PropOp28
 70
     1
102
RTVSPost2010Prop29
280
     1
102
RTVSPost2010PropOp29
 70
     1
102
RTVSPost2010Prop30
280
     0
102
RTVSPost2010PropOp30
 70
     1
102
RTVSPost2010Prop31
280
     0
102
RTVSPost2010PropOp31
 70
     1
102
RTVSPost2010Prop32
280
     0
102
RTVSPost2010PropOp32
 70
     1
102
RTVSPost2010Prop33
280
     0
102
RTVSPost2010PropOp33
 70
     1
102
RTVSPost2010Prop34
280
     0
102
RTVSPost2010PropOp34
 70
     1
102
RTVSPost2010Prop35
280
     0
102
RTVSPost2010PropOp35
 70
     1
102
RTVSPost2010Prop36
280
     0
102
RTVSPost2010PropOp36
 70
     1
102
RTVSPost2010Prop37
 90
       50
102
RTVSPost2010PropOp37
 70
     1
102
RTVSPost2010Prop38
140
0.0
102
RTVSPost2010PropOp38
 70
     1
102
RTVSPost2010Prop39
140
1.0
102
RTVSPost2010PropOp39
 70
     1
102
RTVSPost2010Prop40
 90
        0
102
RTVSPost2010PropOp40
 70
     1
102
RTVSPost2010Prop41ColorIndex
 90
       18
102
RTVSPost2010Prop41ColorRGB
 90
        0
102
RTVSPost2010PropOp41
 70
     1
102
RTVSPost2010Prop42
 90
       50
102
RTVSPost2010PropOp42
 70
     1
102
RTVSPost2010Prop43
 90
        3
102
RTVSPost2010PropOp43
 70
     1
102
RTVSPost2010Prop44ColorIndex
 90
        5
102
RTVSPost2010Prop44ColorRGB
 90
      255
102
RTVSPost2010PropOp44
 70
     1
102
RTVSPost2010Prop45
280
     0
102
RTVSPost2010PropOp45
 70
     1
102
RTVSPost2010Prop46
 90
       50
102
RTVSPost2010PropOp46
 70
     1
102
RTVSPost2010Prop47
 90
       50
102
RTVSPost2010PropOp47
 70
     1
102
RTVSPost2010Prop48
 90
       50
102
RTVSPost2010PropOp48
 70
     1
102
RTVSPost2010Prop49
280
     0
102
RTVSPost2010PropOp49
 70
     1
102
RTVSPost2010Prop50
 90
       50
102
RTVSPost2010PropOp50
 70
     1
102
RTVSPost2010Prop51ColorIndex
 90
      256
102
RTVSPost2010Prop51ColorRGB
 90
-16777216
102
RTVSPost2010PropOp51
 70
     0
102
RTVSPost2010Prop52
140
1.0
102
RTVSPost2010PropOp52
 70
     0
102
RTVSPost2010Prop53
 90
        2
102
RTVSPost2010PropOp53
 70
     1
102
RTVSPost2010Prop54
  1
strokes_ogs.tif
102
RTVSPost2010PropOp54
 70
     1
102
RTVSPost2010Prop55
280
     0
102
RTVSPost2010PropOp55
 70
     1
102
RTVSPost2010Prop56
140
1.0
102
RTVSPost2010PropOp56
 70
     1
102
RTVSPost2010Prop57
140
1.0
102
RTVSPost2010PropOp57
 70
     1
  0
XRECORD
  5
109BE
102
{ACAD_REACTORS
330
109BD
102
}
330
109BD
100
AcDbXrecord
280
     1
102
RTVSPropertyOp0
 70
     1
102
RTVSPropertyOp1
 70
     1
102
RTVSPropertyOp2
 70
     1
102
RTVSPropertyOp3
 70
     1
102
RTVSPropertyOp4
 70
     1
102
RTVSPropertyOp5
 70
     1
102
RTVSPropertyOp6
 70
     1
102
RTVSPropertyOp7
 70
     1
102
RTVSPropertyOp8
 70
     1
102
RTVSPropertyOp9
 70
     1
102
RTVSPropertyOp10
 70
     1
102
RTVSPropertyOp11
 70
     1
102
RTVSPropertyOp12
 70
     1
102
RTVSPropertyOp13
 70
     1
102
RTVSPropertyOp14
 70
     1
102
RTVSPropertyOp15
 70
     1
102
RTVSPropertyOp16
 70
     1
102
RTVSPropertyOp17
 70
     1
102
RTVSPropertyOp18
 70
     1
102
RTVSPropertyOp19
 70
     1
102
RTVSPropertyOp20
 70
     1
102
RTVSPropertyOp21
 70
     1
102
RTVSPropertyOp22
 70
     1
102
RTVSPropertyOp23
 70
     1
102
RTVSPropertyOp24
 70
     1
102
RTVSPropertyOp25
 70
     1
102
RTVSPropertyOp26
 70
     1
102
RTVSPropertyOp27
 70
     1
102
RTVSPropertyOp28
 70
     1
102
RTVSPropertyOp29
 70
     1
102
RTVSPropertyOp30
 70
     1
102
RTVSPropertyOp31
 70
     1
102
RTVSPropertyOp32
 70
     1
102
RTVSPropertyOp33
 70
     1
102
RTVSPropertyOp34
 70
     1
102
RTVSPropertyOp35
 70
     1
102
RTVSPropertyOp36
 70
     1
102
RTVSPropertyOp37
 70
     1
102
RTVSPropertyOp38
 70
     1
102
RTVSPropertyOp39
 70
     1
102
RTVSPropertyOp40
 70
     1
102
RTVSPropertyOp41
 70
     1
102
RTVSPropertyOp42
 70
     1
102
RTVSPropertyOp43
 70
     1
102
RTVSPropertyOp44
 70
     1
102
RTVSPropertyOp45
 70
     1
102
RTVSPropertyOp46
 70
     1
102
RTVSPropertyOp47
 70
     1
102
RTVSPropertyOp48
 70
     1
102
RTVSPropertyOp49
 70
     1
102
RTVSPropertyOp50
 70
     1
102
RTVSPropertyOp51
 70
     0
102
RTVSPropertyOp52
 70
     0
102
RTVSPropertyOp53
 70
     1
102
RTVSPropertyOp54
 70
     1
102
RTVSPropertyOp55
 70
     1
102
RTVSPropertyOp56
 70
     1
102
RTVSPropertyOp57
 70
     1
102
RTVSPost2010Prop28
280
     0
102
RTVSPost2010PropOp28
 70
     1
102
RTVSPost2010Prop29
280
     1
102
RTVSPost2010PropOp29
 70
     1
102
RTVSPost2010Prop30
280
     1
102
RTVSPost2010PropOp30
 70
     1
102
RTVSPost2010Prop31
280
     0
102
RTVSPost2010PropOp31
 70
     1
102
RTVSPost2010Prop32
280
     0
102
RTVSPost2010PropOp32
 70
     1
102
RTVSPost2010Prop33
280
     0
102
RTVSPost2010PropOp33
 70
     1
102
RTVSPost2010Prop34
280
     0
102
RTVSPost2010PropOp34
 70
     1
102
RTVSPost2010Prop35
280
     0
102
RTVSPost2010PropOp35
 70
     1
102
RTVSPost2010Prop36
280
     0
102
RTVSPost2010PropOp36
 70
     1
102
RTVSPost2010Prop37
 90
       50
102
RTVSPost2010PropOp37
 70
     1
102
RTVSPost2010Prop38
140
0.0
102
RTVSPost2010PropOp38
 70
     1
102
RTVSPost2010Prop39
140
1.0
102
RTVSPost2010PropOp39
 70
     1
102
RTVSPost2010Prop40
 90
        0
102
RTVSPost2010PropOp40
 70
     1
102
RTVSPost2010Prop41ColorIndex
 90
       18
102
RTVSPost2010Prop41ColorRGB
 90
        0
102
RTVSPost2010PropOp41
 70
     1
102
RTVSPost2010Prop42
 90
       50
102
RTVSPost2010PropOp42
 70
     1
102
RTVSPost2010Prop43
 90
        3
102
RTVSPost2010PropOp43
 70
     1
102
RTVSPost2010Prop44ColorIndex
 90
        5
102
RTVSPost2010Prop44ColorRGB
 90
      255
102
RTVSPost2010PropOp44
 70
     1
102
RTVSPost2010Prop45
280
     0
102
RTVSPost2010PropOp45
 70
     1
102
RTVSPost2010Prop46
 90
       50
102
RTVSPost2010PropOp46
 70
     1
102
RTVSPost2010Prop47
 90
       50
102
RTVSPost2010PropOp47
 70
     1
102
RTVSPost2010Prop48
 90
       50
102
RTVSPost2010PropOp48
 70
     1
102
RTVSPost2010Prop49
280
     0
102
RTVSPost2010PropOp49
 70
     1
102
RTVSPost2010Prop50
 90
       50
102
RTVSPost2010PropOp50
 70
     1
102
RTVSPost2010Prop51ColorIndex
 90
      256
102
RTVSPost2010Prop51ColorRGB
 90
-16777216
102
RTVSPost2010PropOp51
 70
     0
102
RTVSPost2010Prop52
140
1.0
102
RTVSPost2010PropOp52
 70
     0
102
RTVSPost2010Prop53
 90
        2
102
RTVSPost2010PropOp53
 70
     1
102
RTVSPost2010Prop54
  1
strokes_ogs.tif
102
RTVSPost2010PropOp54
 70
     1
102
RTVSPost2010Prop55
280
     0
102
RTVSPost2010PropOp55
 70
     1
102
RTVSPost2010Prop56
140
1.0
102
RTVSPost2010PropOp56
 70
     1
102
RTVSPost2010Prop57
140
1.0
102
RTVSPost2010PropOp57
 70
     1
  0
XRECORD
  5
109C6
102
{ACAD_REACTORS
330
109C5
102
}
330
109C5
100
AcDbXrecord
280
     1
102
RTVSPropertyOp0
 70
     1
102
RTVSPropertyOp1
 70
     1
102
RTVSPropertyOp2
 70
     1
102
RTVSPropertyOp3
 70
     1
102
RTVSPropertyOp4
 70
     1
102
RTVSPropertyOp5
 70
     1
102
RTVSPropertyOp6
 70
     1
102
RTVSPropertyOp7
 70
     1
102
RTVSPropertyOp8
 70
     1
102
RTVSPropertyOp9
 70
     1
102
RTVSPropertyOp10
 70
     1
102
RTVSPropertyOp11
 70
     1
102
RTVSPropertyOp12
 70
     1
102
RTVSPropertyOp13
 70
     1
102
RTVSPropertyOp14
 70
     1
102
RTVSPropertyOp15
 70
     1
102
RTVSPropertyOp16
 70
     1
102
RTVSPropertyOp17
 70
     1
102
RTVSPropertyOp18
 70
     1
102
RTVSPropertyOp19
 70
     1
102
RTVSPropertyOp20
 70
     1
102
RTVSPropertyOp21
 70
     1
102
RTVSPropertyOp22
 70
     1
102
RTVSPropertyOp23
 70
     1
102
RTVSPropertyOp24
 70
     1
102
RTVSPropertyOp25
 70
     1
102
RTVSPropertyOp26
 70
     1
102
RTVSPropertyOp27
 70
     1
102
RTVSPropertyOp28
 70
     1
102
RTVSPropertyOp29
 70
     1
102
RTVSPropertyOp30
 70
     1
102
RTVSPropertyOp31
 70
     1
102
RTVSPropertyOp32
 70
     1
102
RTVSPropertyOp33
 70
     1
102
RTVSPropertyOp34
 70
     1
102
RTVSPropertyOp35
 70
     1
102
RTVSPropertyOp36
 70
     1
102
RTVSPropertyOp37
 70
     1
102
RTVSPropertyOp38
 70
     1
102
RTVSPropertyOp39
 70
     1
102
RTVSPropertyOp40
 70
     1
102
RTVSPropertyOp41
 70
     1
102
RTVSPropertyOp42
 70
     1
102
RTVSPropertyOp43
 70
     1
102
RTVSPropertyOp44
 70
     1
102
RTVSPropertyOp45
 70
     1
102
RTVSPropertyOp46
 70
     1
102
RTVSPropertyOp47
 70
     1
102
RTVSPropertyOp48
 70
     1
102
RTVSPropertyOp49
 70
     1
102
RTVSPropertyOp50
 70
     1
102
RTVSPropertyOp51
 70
     0
102
RTVSPropertyOp52
 70
     0
102
RTVSPropertyOp53
 70
     1
102
RTVSPropertyOp54
 70
     1
102
RTVSPropertyOp55
 70
     1
102
RTVSPropertyOp56
 70
     1
102
RTVSPropertyOp57
 70
     1
102
RTVSPost2010Prop28
280
     0
102
RTVSPost2010PropOp28
 70
     1
102
RTVSPost2010Prop29
280
     1
102
RTVSPost2010PropOp29
 70
     1
102
RTVSPost2010Prop30
280
     1
102
RTVSPost2010PropOp30
 70
     1
102
RTVSPost2010Prop31
280
     0
102
RTVSPost2010PropOp31
 70
     1
102
RTVSPost2010Prop32
280
     0
102
RTVSPost2010PropOp32
 70
     1
102
RTVSPost2010Prop33
280
     0
102
RTVSPost2010PropOp33
 70
     1
102
RTVSPost2010Prop34
280
     0
102
RTVSPost2010PropOp34
 70
     1
102
RTVSPost2010Prop35
280
     0
102
RTVSPost2010PropOp35
 70
     1
102
RTVSPost2010Prop36
280
     0
102
RTVSPost2010PropOp36
 70
     1
102
RTVSPost2010Prop37
 90
       50
102
RTVSPost2010PropOp37
 70
     1
102
RTVSPost2010Prop38
140
0.0
102
RTVSPost2010PropOp38
 70
     1
102
RTVSPost2010Prop39
140
1.0
102
RTVSPost2010PropOp39
 70
     1
102
RTVSPost2010Prop40
 90
        0
102
RTVSPost2010PropOp40
 70
     1
102
RTVSPost2010Prop41ColorIndex
 90
       18
102
RTVSPost2010Prop41ColorRGB
 90
        0
102
RTVSPost2010PropOp41
 70
     1
102
RTVSPost2010Prop42
 90
       50
102
RTVSPost2010PropOp42
 70
     1
102
RTVSPost2010Prop43
 90
        3
102
RTVSPost2010PropOp43
 70
     1
102
RTVSPost2010Prop44ColorIndex
 90
        5
102
RTVSPost2010Prop44ColorRGB
 90
      255
102
RTVSPost2010PropOp44
 70
     1
102
RTVSPost2010Prop45
280
     0
102
RTVSPost2010PropOp45
 70
     1
102
RTVSPost2010Prop46
 90
       50
102
RTVSPost2010PropOp46
 70
     1
102
RTVSPost2010Prop47
 90
       50
102
RTVSPost2010PropOp47
 70
     1
102
RTVSPost2010Prop48
 90
       50
102
RTVSPost2010PropOp48
 70
     1
102
RTVSPost2010Prop49
280
     0
102
RTVSPost2010PropOp49
 70
     1
102
RTVSPost2010Prop50
 90
       50
102
RTVSPost2010PropOp50
 70
     1
102
RTVSPost2010Prop51ColorIndex
 90
      256
102
RTVSPost2010Prop51ColorRGB
 90
-16777216
102
RTVSPost2010PropOp51
 70
     0
102
RTVSPost2010Prop52
140
1.0
102
RTVSPost2010PropOp52
 70
     0
102
RTVSPost2010Prop53
 90
        2
102
RTVSPost2010PropOp53
 70
     1
102
RTVSPost2010Prop54
  1
strokes_ogs.tif
102
RTVSPost2010PropOp54
 70
     1
102
RTVSPost2010Prop55
280
     0
102
RTVSPost2010PropOp55
 70
     1
102
RTVSPost2010Prop56
140
1.0
102
RTVSPost2010PropOp56
 70
     1
102
RTVSPost2010Prop57
140
1.0
102
RTVSPost2010PropOp57
 70
     1
  0
XRECORD
  5
109CE
102
{ACAD_REACTORS
330
109CD
102
}
330
109CD
100
AcDbXrecord
280
     1
102
RTVSPropertyOp0
 70
     1
102
RTVSPropertyOp1
 70
     1
102
RTVSPropertyOp2
 70
     1
102
RTVSPropertyOp3
 70
     1
102
RTVSPropertyOp4
 70
     1
102
RTVSPropertyOp5
 70
     1
102
RTVSPropertyOp6
 70
     1
102
RTVSPropertyOp7
 70
     1
102
RTVSPropertyOp8
 70
     1
102
RTVSPropertyOp9
 70
     1
102
RTVSPropertyOp10
 70
     1
102
RTVSPropertyOp11
 70
     1
102
RTVSPropertyOp12
 70
     1
102
RTVSPropertyOp13
 70
     1
102
RTVSPropertyOp14
 70
     1
102
RTVSPropertyOp15
 70
     1
102
RTVSPropertyOp16
 70
     1
102
RTVSPropertyOp17
 70
     1
102
RTVSPropertyOp18
 70
     1
102
RTVSPropertyOp19
 70
     1
102
RTVSPropertyOp20
 70
     1
102
RTVSPropertyOp21
 70
     1
102
RTVSPropertyOp22
 70
     1
102
RTVSPropertyOp23
 70
     1
102
RTVSPropertyOp24
 70
     1
102
RTVSPropertyOp25
 70
     1
102
RTVSPropertyOp26
 70
     1
102
RTVSPropertyOp27
 70
     1
102
RTVSPropertyOp28
 70
     1
102
RTVSPropertyOp29
 70
     1
102
RTVSPropertyOp30
 70
     1
102
RTVSPropertyOp31
 70
     1
102
RTVSPropertyOp32
 70
     1
102
RTVSPropertyOp33
 70
     1
102
RTVSPropertyOp34
 70
     1
102
RTVSPropertyOp35
 70
     1
102
RTVSPropertyOp36
 70
     1
102
RTVSPropertyOp37
 70
     1
102
RTVSPropertyOp38
 70
     1
102
RTVSPropertyOp39
 70
     1
102
RTVSPropertyOp40
 70
     1
102
RTVSPropertyOp41
 70
     1
102
RTVSPropertyOp42
 70
     1
102
RTVSPropertyOp43
 70
     1
102
RTVSPropertyOp44
 70
     1
102
RTVSPropertyOp45
 70
     1
102
RTVSPropertyOp46
 70
     1
102
RTVSPropertyOp47
 70
     1
102
RTVSPropertyOp48
 70
     1
102
RTVSPropertyOp49
 70
     1
102
RTVSPropertyOp50
 70
     1
102
RTVSPropertyOp51
 70
     0
102
RTVSPropertyOp52
 70
     0
102
RTVSPropertyOp53
 70
     1
102
RTVSPropertyOp54
 70
     1
102
RTVSPropertyOp55
 70
     1
102
RTVSPropertyOp56
 70
     1
102
RTVSPropertyOp57
 70
     1
102
RTVSPost2010Prop28
280
     0
102
RTVSPost2010PropOp28
 70
     1
102
RTVSPost2010Prop29
280
     1
102
RTVSPost2010PropOp29
 70
     1
102
RTVSPost2010Prop30
280
     1
102
RTVSPost2010PropOp30
 70
     1
102
RTVSPost2010Prop31
280
     0
102
RTVSPost2010PropOp31
 70
     1
102
RTVSPost2010Prop32
280
     0
102
RTVSPost2010PropOp32
 70
     1
102
RTVSPost2010Prop33
280
     0
102
RTVSPost2010PropOp33
 70
     1
102
RTVSPost2010Prop34
280
     0
102
RTVSPost2010PropOp34
 70
     1
102
RTVSPost2010Prop35
280
     0
102
RTVSPost2010PropOp35
 70
     1
102
RTVSPost2010Prop36
280
     0
102
RTVSPost2010PropOp36
 70
     1
102
RTVSPost2010Prop37
 90
       50
102
RTVSPost2010PropOp37
 70
     1
102
RTVSPost2010Prop38
140
0.0
102
RTVSPost2010PropOp38
 70
     1
102
RTVSPost2010Prop39
140
1.0
102
RTVSPost2010PropOp39
 70
     1
102
RTVSPost2010Prop40
 90
        0
102
RTVSPost2010PropOp40
 70
     1
102
RTVSPost2010Prop41ColorIndex
 90
       18
102
RTVSPost2010Prop41ColorRGB
 90
        0
102
RTVSPost2010PropOp41
 70
     1
102
RTVSPost2010Prop42
 90
       50
102
RTVSPost2010PropOp42
 70
     1
102
RTVSPost2010Prop43
 90
        3
102
RTVSPost2010PropOp43
 70
     1
102
RTVSPost2010Prop44ColorIndex
 90
        5
102
RTVSPost2010Prop44ColorRGB
 90
      255
102
RTVSPost2010PropOp44
 70
     1
102
RTVSPost2010Prop45
280
     0
102
RTVSPost2010PropOp45
 70
     1
102
RTVSPost2010Prop46
 90
       50
102
RTVSPost2010PropOp46
 70
     1
102
RTVSPost2010Prop47
 90
       50
102
RTVSPost2010PropOp47
 70
     1
102
RTVSPost2010Prop48
 90
       50
102
RTVSPost2010PropOp48
 70
     1
102
RTVSPost2010Prop49
280
     0
102
RTVSPost2010PropOp49
 70
     1
102
RTVSPost2010Prop50
 90
       50
102
RTVSPost2010PropOp50
 70
     1
102
RTVSPost2010Prop51ColorIndex
 90
      256
102
RTVSPost2010Prop51ColorRGB
 90
-16777216
102
RTVSPost2010PropOp51
 70
     0
102
RTVSPost2010Prop52
140
1.0
102
RTVSPost2010PropOp52
 70
     0
102
RTVSPost2010Prop53
 90
        2
102
RTVSPost2010PropOp53
 70
     1
102
RTVSPost2010Prop54
  1
strokes_ogs.tif
102
RTVSPost2010PropOp54
 70
     1
102
RTVSPost2010Prop55
280
     0
102
RTVSPost2010PropOp55
 70
     1
102
RTVSPost2010Prop56
140
1.0
102
RTVSPost2010PropOp56
 70
     1
102
RTVSPost2010Prop57
140
1.0
102
RTVSPost2010PropOp57
 70
     1
  0
XRECORD
  5
109C2
102
{ACAD_REACTORS
330
109C1
102
}
330
109C1
100
AcDbXrecord
280
     1
102
RTVSPropertyOp0
 70
     1
102
RTVSPropertyOp1
 70
     1
102
RTVSPropertyOp2
 70
     1
102
RTVSPropertyOp3
 70
     1
102
RTVSPropertyOp4
 70
     1
102
RTVSPropertyOp5
 70
     1
102
RTVSPropertyOp6
 70
     1
102
RTVSPropertyOp7
 70
     1
102
RTVSPropertyOp8
 70
     1
102
RTVSPropertyOp9
 70
     1
102
RTVSPropertyOp10
 70
     1
102
RTVSPropertyOp11
 70
     1
102
RTVSPropertyOp12
 70
     1
102
RTVSPropertyOp13
 70
     1
102
RTVSPropertyOp14
 70
     1
102
RTVSPropertyOp15
 70
     1
102
RTVSPropertyOp16
 70
     1
102
RTVSPropertyOp17
 70
     1
102
RTVSPropertyOp18
 70
     1
102
RTVSPropertyOp19
 70
     1
102
RTVSPropertyOp20
 70
     1
102
RTVSPropertyOp21
 70
     1
102
RTVSPropertyOp22
 70
     1
102
RTVSPropertyOp23
 70
     1
102
RTVSPropertyOp24
 70
     1
102
RTVSPropertyOp25
 70
     1
102
RTVSPropertyOp26
 70
     1
102
RTVSPropertyOp27
 70
     1
102
RTVSPropertyOp28
 70
     1
102
RTVSPropertyOp29
 70
     1
102
RTVSPropertyOp30
 70
     1
102
RTVSPropertyOp31
 70
     1
102
RTVSPropertyOp32
 70
     1
102
RTVSPropertyOp33
 70
     1
102
RTVSPropertyOp34
 70
     1
102
RTVSPropertyOp35
 70
     1
102
RTVSPropertyOp36
 70
     1
102
RTVSPropertyOp37
 70
     1
102
RTVSPropertyOp38
 70
     1
102
RTVSPropertyOp39
 70
     1
102
RTVSPropertyOp40
 70
     1
102
RTVSPropertyOp41
 70
     1
102
RTVSPropertyOp42
 70
     1
102
RTVSPropertyOp43
 70
     1
102
RTVSPropertyOp44
 70
     1
102
RTVSPropertyOp45
 70
     1
102
RTVSPropertyOp46
 70
     1
102
RTVSPropertyOp47
 70
     1
102
RTVSPropertyOp48
 70
     1
102
RTVSPropertyOp49
 70
     1
102
RTVSPropertyOp50
 70
     1
102
RTVSPropertyOp51
 70
     0
102
RTVSPropertyOp52
 70
     0
102
RTVSPropertyOp53
 70
     1
102
RTVSPropertyOp54
 70
     1
102
RTVSPropertyOp55
 70
     1
102
RTVSPropertyOp56
 70
     1
102
RTVSPropertyOp57
 70
     1
102
RTVSPost2010Prop28
280
     0
102
RTVSPost2010PropOp28
 70
     1
102
RTVSPost2010Prop29
280
     1
102
RTVSPost2010PropOp29
 70
     1
102
RTVSPost2010Prop30
280
     1
102
RTVSPost2010PropOp30
 70
     1
102
RTVSPost2010Prop31
280
     0
102
RTVSPost2010PropOp31
 70
     1
102
RTVSPost2010Prop32
280
     0
102
RTVSPost2010PropOp32
 70
     1
102
RTVSPost2010Prop33
280
     0
102
RTVSPost2010PropOp33
 70
     1
102
RTVSPost2010Prop34
280
     0
102
RTVSPost2010PropOp34
 70
     1
102
RTVSPost2010Prop35
280
     0
102
RTVSPost2010PropOp35
 70
     1
102
RTVSPost2010Prop36
280
     0
102
RTVSPost2010PropOp36
 70
     1
102
RTVSPost2010Prop37
 90
       50
102
RTVSPost2010PropOp37
 70
     1
102
RTVSPost2010Prop38
140
0.0
102
RTVSPost2010PropOp38
 70
     1
102
RTVSPost2010Prop39
140
1.0
102
RTVSPost2010PropOp39
 70
     1
102
RTVSPost2010Prop40
 90
        0
102
RTVSPost2010PropOp40
 70
     1
102
RTVSPost2010Prop41ColorIndex
 90
       18
102
RTVSPost2010Prop41ColorRGB
 90
        0
102
RTVSPost2010PropOp41
 70
     1
102
RTVSPost2010Prop42
 90
       50
102
RTVSPost2010PropOp42
 70
     1
102
RTVSPost2010Prop43
 90
        3
102
RTVSPost2010PropOp43
 70
     1
102
RTVSPost2010Prop44ColorIndex
 90
        5
102
RTVSPost2010Prop44ColorRGB
 90
      255
102
RTVSPost2010PropOp44
 70
     1
102
RTVSPost2010Prop45
280
     0
102
RTVSPost2010PropOp45
 70
     1
102
RTVSPost2010Prop46
 90
       50
102
RTVSPost2010PropOp46
 70
     1
102
RTVSPost2010Prop47
 90
       50
102
RTVSPost2010PropOp47
 70
     1
102
RTVSPost2010Prop48
 90
       50
102
RTVSPost2010PropOp48
 70
     1
102
RTVSPost2010Prop49
280
     0
102
RTVSPost2010PropOp49
 70
     1
102
RTVSPost2010Prop50
 90
       50
102
RTVSPost2010PropOp50
 70
     1
102
RTVSPost2010Prop51ColorIndex
 90
      256
102
RTVSPost2010Prop51ColorRGB
 90
-16777216
102
RTVSPost2010PropOp51
 70
     0
102
RTVSPost2010Prop52
140
1.0
102
RTVSPost2010PropOp52
 70
     0
102
RTVSPost2010Prop53
 90
        2
102
RTVSPost2010PropOp53
 70
     1
102
RTVSPost2010Prop54
  1
strokes_ogs.tif
102
RTVSPost2010PropOp54
 70
     1
102
RTVSPost2010Prop55
280
     0
102
RTVSPost2010PropOp55
 70
     1
102
RTVSPost2010Prop56
140
1.0
102
RTVSPost2010PropOp56
 70
     1
102
RTVSPost2010Prop57
140
1.0
102
RTVSPost2010PropOp57
 70
     1
  0
XRECORD
  5
109C4
102
{ACAD_REACTORS
330
109C3
102
}
330
109C3
100
AcDbXrecord
280
     1
102
RTVSPropertyOp0
 70
     1
102
RTVSPropertyOp1
 70
     1
102
RTVSPropertyOp2
 70
     1
102
RTVSPropertyOp3
 70
     1
102
RTVSPropertyOp4
 70
     1
102
RTVSPropertyOp5
 70
     1
102
RTVSPropertyOp6
 70
     1
102
RTVSPropertyOp7
 70
     1
102
RTVSPropertyOp8
 70
     1
102
RTVSPropertyOp9
 70
     1
102
RTVSPropertyOp10
 70
     1
102
RTVSPropertyOp11
 70
     1
102
RTVSPropertyOp12
 70
     1
102
RTVSPropertyOp13
 70
     1
102
RTVSPropertyOp14
 70
     1
102
RTVSPropertyOp15
 70
     1
102
RTVSPropertyOp16
 70
     1
102
RTVSPropertyOp17
 70
     1
102
RTVSPropertyOp18
 70
     1
102
RTVSPropertyOp19
 70
     1
102
RTVSPropertyOp20
 70
     1
102
RTVSPropertyOp21
 70
     1
102
RTVSPropertyOp22
 70
     1
102
RTVSPropertyOp23
 70
     1
102
RTVSPropertyOp24
 70
     1
102
RTVSPropertyOp25
 70
     1
102
RTVSPropertyOp26
 70
     1
102
RTVSPropertyOp27
 70
     1
102
RTVSPropertyOp28
 70
     1
102
RTVSPropertyOp29
 70
     1
102
RTVSPropertyOp30
 70
     1
102
RTVSPropertyOp31
 70
     1
102
RTVSPropertyOp32
 70
     1
102
RTVSPropertyOp33
 70
     1
102
RTVSPropertyOp34
 70
     1
102
RTVSPropertyOp35
 70
     1
102
RTVSPropertyOp36
 70
     1
102
RTVSPropertyOp37
 70
     1
102
RTVSPropertyOp38
 70
     1
102
RTVSPropertyOp39
 70
     1
102
RTVSPropertyOp40
 70
     1
102
RTVSPropertyOp41
 70
     1
102
RTVSPropertyOp42
 70
     1
102
RTVSPropertyOp43
 70
     1
102
RTVSPropertyOp44
 70
     1
102
RTVSPropertyOp45
 70
     1
102
RTVSPropertyOp46
 70
     1
102
RTVSPropertyOp47
 70
     1
102
RTVSPropertyOp48
 70
     1
102
RTVSPropertyOp49
 70
     1
102
RTVSPropertyOp50
 70
     1
102
RTVSPropertyOp51
 70
     0
102
RTVSPropertyOp52
 70
     0
102
RTVSPropertyOp53
 70
     1
102
RTVSPropertyOp54
 70
     1
102
RTVSPropertyOp55
 70
     1
102
RTVSPropertyOp56
 70
     1
102
RTVSPropertyOp57
 70
     1
102
RTVSPost2010Prop28
280
     0
102
RTVSPost2010PropOp28
 70
     1
102
RTVSPost2010Prop29
280
     1
102
RTVSPost2010PropOp29
 70
     1
102
RTVSPost2010Prop30
280
     1
102
RTVSPost2010PropOp30
 70
     1
102
RTVSPost2010Prop31
280
     0
102
RTVSPost2010PropOp31
 70
     1
102
RTVSPost2010Prop32
280
     0
102
RTVSPost2010PropOp32
 70
     1
102
RTVSPost2010Prop33
280
     0
102
RTVSPost2010PropOp33
 70
     1
102
RTVSPost2010Prop34
280
     0
102
RTVSPost2010PropOp34
 70
     1
102
RTVSPost2010Prop35
280
     0
102
RTVSPost2010PropOp35
 70
     1
102
RTVSPost2010Prop36
280
     0
102
RTVSPost2010PropOp36
 70
     1
102
RTVSPost2010Prop37
 90
       50
102
RTVSPost2010PropOp37
 70
     1
102
RTVSPost2010Prop38
140
0.0
102
RTVSPost2010PropOp38
 70
     1
102
RTVSPost2010Prop39
140
1.0
102
RTVSPost2010PropOp39
 70
     1
102
RTVSPost2010Prop40
 90
        0
102
RTVSPost2010PropOp40
 70
     1
102
RTVSPost2010Prop41ColorIndex
 90
       18
102
RTVSPost2010Prop41ColorRGB
 90
        0
102
RTVSPost2010PropOp41
 70
     1
102
RTVSPost2010Prop42
 90
       50
102
RTVSPost2010PropOp42
 70
     1
102
RTVSPost2010Prop43
 90
        3
102
RTVSPost2010PropOp43
 70
     1
102
RTVSPost2010Prop44ColorIndex
 90
        5
102
RTVSPost2010Prop44ColorRGB
 90
      255
102
RTVSPost2010PropOp44
 70
     1
102
RTVSPost2010Prop45
280
     0
102
RTVSPost2010PropOp45
 70
     1
102
RTVSPost2010Prop46
 90
       50
102
RTVSPost2010PropOp46
 70
     1
102
RTVSPost2010Prop47
 90
       50
102
RTVSPost2010PropOp47
 70
     1
102
RTVSPost2010Prop48
 90
       50
102
RTVSPost2010PropOp48
 70
     1
102
RTVSPost2010Prop49
280
     0
102
RTVSPost2010PropOp49
 70
     1
102
RTVSPost2010Prop50
 90
       50
102
RTVSPost2010PropOp50
 70
     1
102
RTVSPost2010Prop51ColorIndex
 90
      256
102
RTVSPost2010Prop51ColorRGB
 90
-16777216
102
RTVSPost2010PropOp51
 70
     0
102
RTVSPost2010Prop52
140
1.0
102
RTVSPost2010PropOp52
 70
     0
102
RTVSPost2010Prop53
 90
        2
102
RTVSPost2010PropOp53
 70
     1
102
RTVSPost2010Prop54
  1
strokes_ogs.tif
102
RTVSPost2010PropOp54
 70
     1
102
RTVSPost2010Prop55
280
     0
102
RTVSPost2010PropOp55
 70
     1
102
RTVSPost2010Prop56
140
1.0
102
RTVSPost2010PropOp56
 70
     1
102
RTVSPost2010Prop57
140
1.0
102
RTVSPost2010PropOp57
 70
     1
  0
XRECORD
  5
109D4
102
{ACAD_REACTORS
330
109D3
102
}
330
109D3
100
AcDbXrecord
280
     1
102
RTVSPropertyOp0
 70
     0
102
RTVSPropertyOp1
 70
     0
102
RTVSPropertyOp2
 70
     0
102
RTVSPropertyOp3
 70
     0
102
RTVSPropertyOp4
 70
     0
102
RTVSPropertyOp5
 70
     0
102
RTVSPropertyOp6
 70
     0
102
RTVSPropertyOp7
 70
     0
102
RTVSPropertyOp8
 70
     0
102
RTVSPropertyOp9
 70
     0
102
RTVSPropertyOp10
 70
     0
102
RTVSPropertyOp11
 70
     0
102
RTVSPropertyOp12
 70
     0
102
RTVSPropertyOp13
 70
     0
102
RTVSPropertyOp14
 70
     2
102
RTVSPropertyOp15
 70
     0
102
RTVSPropertyOp16
 70
     0
102
RTVSPropertyOp17
 70
     0
102
RTVSPropertyOp18
 70
     0
102
RTVSPropertyOp19
 70
     0
102
RTVSPropertyOp20
 70
     0
102
RTVSPropertyOp21
 70
     0
102
RTVSPropertyOp22
 70
     0
102
RTVSPropertyOp23
 70
     0
102
RTVSPropertyOp24
 70
     0
102
RTVSPropertyOp25
 70
     0
102
RTVSPropertyOp26
 70
     0
102
RTVSPropertyOp27
 70
     0
102
RTVSPropertyOp28
 70
     0
102
RTVSPropertyOp29
 70
     0
102
RTVSPropertyOp30
 70
     0
102
RTVSPropertyOp31
 70
     0
102
RTVSPropertyOp32
 70
     0
102
RTVSPropertyOp33
 70
     0
102
RTVSPropertyOp34
 70
     0
102
RTVSPropertyOp35
 70
     0
102
RTVSPropertyOp36
 70
     0
102
RTVSPropertyOp37
 70
     0
102
RTVSPropertyOp38
 70
     0
102
RTVSPropertyOp39
 70
     0
102
RTVSPropertyOp40
 70
     0
102
RTVSPropertyOp41
 70
     0
102
RTVSPropertyOp42
 70
     0
102
RTVSPropertyOp43
 70
     0
102
RTVSPropertyOp44
 70
     0
102
RTVSPropertyOp45
 70
     0
102
RTVSPropertyOp46
 70
     0
102
RTVSPropertyOp47
 70
     0
102
RTVSPropertyOp48
 70
     0
102
RTVSPropertyOp49
 70
     0
102
RTVSPropertyOp50
 70
     0
102
RTVSPropertyOp51
 70
     0
102
RTVSPropertyOp52
 70
     0
102
RTVSPropertyOp53
 70
     0
102
RTVSPropertyOp54
 70
     0
102
RTVSPropertyOp55
 70
     0
102
RTVSPropertyOp56
 70
     0
102
RTVSPropertyOp57
 70
     0
102
RTVSPost2010Prop28
280
     0
102
RTVSPost2010PropOp28
 70
     0
102
RTVSPost2010Prop29
280
     1
102
RTVSPost2010PropOp29
 70
     0
102
RTVSPost2010Prop30
280
     1
102
RTVSPost2010PropOp30
 70
     0
102
RTVSPost2010Prop31
280
     0
102
RTVSPost2010PropOp31
 70
     0
102
RTVSPost2010Prop32
280
     0
102
RTVSPost2010PropOp32
 70
     0
102
RTVSPost2010Prop33
280
     0
102
RTVSPost2010PropOp33
 70
     0
102
RTVSPost2010Prop34
280
     0
102
RTVSPost2010PropOp34
 70
     0
102
RTVSPost2010Prop35
280
     0
102
RTVSPost2010PropOp35
 70
     0
102
RTVSPost2010Prop36
280
     0
102
RTVSPost2010PropOp36
 70
     0
102
RTVSPost2010Prop37
 90
       50
102
RTVSPost2010PropOp37
 70
     0
102
RTVSPost2010Prop38
140
0.0
102
RTVSPost2010PropOp38
 70
     0
102
RTVSPost2010Prop39
140
1.0
102
RTVSPost2010PropOp39
 70
     0
102
RTVSPost2010Prop40
 90
        0
102
RTVSPost2010PropOp40
 70
     0
102
RTVSPost2010Prop41ColorIndex
 90
       18
102
RTVSPost2010Prop41ColorRGB
 90
        0
102
RTVSPost2010PropOp41
 70
     0
102
RTVSPost2010Prop42
 90
       50
102
RTVSPost2010PropOp42
 70
     0
102
RTVSPost2010Prop43
 90
        3
102
RTVSPost2010PropOp43
 70
     0
102
RTVSPost2010Prop44ColorIndex
 90
        5
102
RTVSPost2010Prop44ColorRGB
 90
      255
102
RTVSPost2010PropOp44
 70
     0
102
RTVSPost2010Prop45
280
     0
102
RTVSPost2010PropOp45
 70
     0
102
RTVSPost2010Prop46
 90
       50
102
RTVSPost2010PropOp46
 70
     0
102
RTVSPost2010Prop47
 90
       50
102
RTVSPost2010PropOp47
 70
     0
102
RTVSPost2010Prop48
 90
       50
102
RTVSPost2010PropOp48
 70
     0
102
RTVSPost2010Prop49
280
     0
102
RTVSPost2010PropOp49
 70
     0
102
RTVSPost2010Prop50
 90
       50
102
RTVSPost2010PropOp50
 70
     0
102
RTVSPost2010Prop51ColorIndex
 90
      256
102
RTVSPost2010Prop51ColorRGB
 90
-16777216
102
RTVSPost2010PropOp51
 70
     0
102
RTVSPost2010Prop52
140
1.0
102
RTVSPost2010PropOp52
 70
     0
102
RTVSPost2010Prop53
 90
        2
102
RTVSPost2010PropOp53
 70
     0
102
RTVSPost2010Prop54
  1
strokes_ogs.tif
102
RTVSPost2010PropOp54
 70
     0
102
RTVSPost2010Prop55
280
     0
102
RTVSPost2010PropOp55
 70
     0
102
RTVSPost2010Prop56
140
1.0
102
RTVSPost2010PropOp56
 70
     0
102
RTVSPost2010Prop57
140
1.0
102
RTVSPost2010PropOp57
 70
     0
  0
XRECORD
  5
109CC
102
{ACAD_REACTORS
330
109CB
102
}
330
109CB
100
AcDbXrecord
280
     1
102
RTVSPropertyOp0
 70
     1
102
RTVSPropertyOp1
 70
     1
102
RTVSPropertyOp2
 70
     1
102
RTVSPropertyOp3
 70
     1
102
RTVSPropertyOp4
 70
     1
102
RTVSPropertyOp5
 70
     1
102
RTVSPropertyOp6
 70
     1
102
RTVSPropertyOp7
 70
     1
102
RTVSPropertyOp8
 70
     1
102
RTVSPropertyOp9
 70
     1
102
RTVSPropertyOp10
 70
     1
102
RTVSPropertyOp11
 70
     1
102
RTVSPropertyOp12
 70
     1
102
RTVSPropertyOp13
 70
     1
102
RTVSPropertyOp14
 70
     1
102
RTVSPropertyOp15
 70
     1
102
RTVSPropertyOp16
 70
     1
102
RTVSPropertyOp17
 70
     1
102
RTVSPropertyOp18
 70
     1
102
RTVSPropertyOp19
 70
     1
102
RTVSPropertyOp20
 70
     1
102
RTVSPropertyOp21
 70
     1
102
RTVSPropertyOp22
 70
     1
102
RTVSPropertyOp23
 70
     1
102
RTVSPropertyOp24
 70
     1
102
RTVSPropertyOp25
 70
     1
102
RTVSPropertyOp26
 70
     1
102
RTVSPropertyOp27
 70
     1
102
RTVSPropertyOp28
 70
     1
102
RTVSPropertyOp29
 70
     1
102
RTVSPropertyOp30
 70
     1
102
RTVSPropertyOp31
 70
     1
102
RTVSPropertyOp32
 70
     1
102
RTVSPropertyOp33
 70
     1
102
RTVSPropertyOp34
 70
     1
102
RTVSPropertyOp35
 70
     1
102
RTVSPropertyOp36
 70
     1
102
RTVSPropertyOp37
 70
     1
102
RTVSPropertyOp38
 70
     1
102
RTVSPropertyOp39
 70
     1
102
RTVSPropertyOp40
 70
     1
102
RTVSPropertyOp41
 70
     1
102
RTVSPropertyOp42
 70
     1
102
RTVSPropertyOp43
 70
     1
102
RTVSPropertyOp44
 70
     1
102
RTVSPropertyOp45
 70
     1
102
RTVSPropertyOp46
 70
     1
102
RTVSPropertyOp47
 70
     1
102
RTVSPropertyOp48
 70
     1
102
RTVSPropertyOp49
 70
     1
102
RTVSPropertyOp50
 70
     1
102
RTVSPropertyOp51
 70
     0
102
RTVSPropertyOp52
 70
     0
102
RTVSPropertyOp53
 70
     1
102
RTVSPropertyOp54
 70
     1
102
RTVSPropertyOp55
 70
     1
102
RTVSPropertyOp56
 70
     1
102
RTVSPropertyOp57
 70
     1
102
RTVSPost2010Prop28
280
     0
102
RTVSPost2010PropOp28
 70
     1
102
RTVSPost2010Prop29
280
     1
102
RTVSPost2010PropOp29
 70
     1
102
RTVSPost2010Prop30
280
     1
102
RTVSPost2010PropOp30
 70
     1
102
RTVSPost2010Prop31
280
     0
102
RTVSPost2010PropOp31
 70
     1
102
RTVSPost2010Prop32
280
     0
102
RTVSPost2010PropOp32
 70
     1
102
RTVSPost2010Prop33
280
     0
102
RTVSPost2010PropOp33
 70
     1
102
RTVSPost2010Prop34
280
     0
102
RTVSPost2010PropOp34
 70
     1
102
RTVSPost2010Prop35
280
     0
102
RTVSPost2010PropOp35
 70
     1
102
RTVSPost2010Prop36
280
     0
102
RTVSPost2010PropOp36
 70
     1
102
RTVSPost2010Prop37
 90
       50
102
RTVSPost2010PropOp37
 70
     1
102
RTVSPost2010Prop38
140
0.0
102
RTVSPost2010PropOp38
 70
     1
102
RTVSPost2010Prop39
140
1.0
102
RTVSPost2010PropOp39
 70
     1
102
RTVSPost2010Prop40
 90
        0
102
RTVSPost2010PropOp40
 70
     1
102
RTVSPost2010Prop41ColorIndex
 90
       18
102
RTVSPost2010Prop41ColorRGB
 90
        0
102
RTVSPost2010PropOp41
 70
     1
102
RTVSPost2010Prop42
 90
       50
102
RTVSPost2010PropOp42
 70
     1
102
RTVSPost2010Prop43
 90
        3
102
RTVSPost2010PropOp43
 70
     1
102
RTVSPost2010Prop44ColorIndex
 90
        5
102
RTVSPost2010Prop44ColorRGB
 90
      255
102
RTVSPost2010PropOp44
 70
     1
102
RTVSPost2010Prop45
280
     0
102
RTVSPost2010PropOp45
 70
     1
102
RTVSPost2010Prop46
 90
       50
102
RTVSPost2010PropOp46
 70
     1
102
RTVSPost2010Prop47
 90
       50
102
RTVSPost2010PropOp47
 70
     1
102
RTVSPost2010Prop48
 90
       50
102
RTVSPost2010PropOp48
 70
     1
102
RTVSPost2010Prop49
280
     0
102
RTVSPost2010PropOp49
 70
     1
102
RTVSPost2010Prop50
 90
       50
102
RTVSPost2010PropOp50
 70
     1
102
RTVSPost2010Prop51ColorIndex
 90
      256
102
RTVSPost2010Prop51ColorRGB
 90
-16777216
102
RTVSPost2010PropOp51
 70
     0
102
RTVSPost2010Prop52
140
1.0
102
RTVSPost2010PropOp52
 70
     0
102
RTVSPost2010Prop53
 90
        2
102
RTVSPost2010PropOp53
 70
     1
102
RTVSPost2010Prop54
  1
strokes_ogs.tif
102
RTVSPost2010PropOp54
 70
     1
102
RTVSPost2010Prop55
280
     0
102
RTVSPost2010PropOp55
 70
     1
102
RTVSPost2010Prop56
140
1.0
102
RTVSPost2010PropOp56
 70
     1
102
RTVSPost2010Prop57
140
1.0
102
RTVSPost2010PropOp57
 70
     1
  0
XRECORD
  5
109B0
102
{ACAD_REACTORS
330
109AF
102
}
330
109AF
100
AcDbXrecord
280
     1
102
RTVSPropertyOp0
 70
     1
102
RTVSPropertyOp1
 70
     1
102
RTVSPropertyOp2
 70
     1
102
RTVSPropertyOp3
 70
     1
102
RTVSPropertyOp4
 70
     1
102
RTVSPropertyOp5
 70
     1
102
RTVSPropertyOp6
 70
     1
102
RTVSPropertyOp7
 70
     1
102
RTVSPropertyOp8
 70
     1
102
RTVSPropertyOp9
 70
     1
102
RTVSPropertyOp10
 70
     1
102
RTVSPropertyOp11
 70
     1
102
RTVSPropertyOp12
 70
     1
102
RTVSPropertyOp13
 70
     1
102
RTVSPropertyOp14
 70
     1
102
RTVSPropertyOp15
 70
     1
102
RTVSPropertyOp16
 70
     1
102
RTVSPropertyOp17
 70
     1
102
RTVSPropertyOp18
 70
     1
102
RTVSPropertyOp19
 70
     1
102
RTVSPropertyOp20
 70
     1
102
RTVSPropertyOp21
 70
     1
102
RTVSPropertyOp22
 70
     1
102
RTVSPropertyOp23
 70
     1
102
RTVSPropertyOp24
 70
     1
102
RTVSPropertyOp25
 70
     1
102
RTVSPropertyOp26
 70
     1
102
RTVSPropertyOp27
 70
     1
102
RTVSPropertyOp28
 70
     1
102
RTVSPropertyOp29
 70
     1
102
RTVSPropertyOp30
 70
     1
102
RTVSPropertyOp31
 70
     1
102
RTVSPropertyOp32
 70
     1
102
RTVSPropertyOp33
 70
     1
102
RTVSPropertyOp34
 70
     1
102
RTVSPropertyOp35
 70
     1
102
RTVSPropertyOp36
 70
     1
102
RTVSPropertyOp37
 70
     1
102
RTVSPropertyOp38
 70
     1
102
RTVSPropertyOp39
 70
     1
102
RTVSPropertyOp40
 70
     1
102
RTVSPropertyOp41
 70
     1
102
RTVSPropertyOp42
 70
     1
102
RTVSPropertyOp43
 70
     1
102
RTVSPropertyOp44
 70
     1
102
RTVSPropertyOp45
 70
     1
102
RTVSPropertyOp46
 70
     1
102
RTVSPropertyOp47
 70
     1
102
RTVSPropertyOp48
 70
     1
102
RTVSPropertyOp49
 70
     1
102
RTVSPropertyOp50
 70
     1
102
RTVSPropertyOp51
 70
     0
102
RTVSPropertyOp52
 70
     0
102
RTVSPropertyOp53
 70
     1
102
RTVSPropertyOp54
 70
     1
102
RTVSPropertyOp55
 70
     1
102
RTVSPropertyOp56
 70
     1
102
RTVSPropertyOp57
 70
     1
102
RTVSPost2010Prop28
280
     0
102
RTVSPost2010PropOp28
 70
     1
102
RTVSPost2010Prop29
280
     1
102
RTVSPost2010PropOp29
 70
     1
102
RTVSPost2010Prop30
280
     1
102
RTVSPost2010PropOp30
 70
     1
102
RTVSPost2010Prop31
280
     0
102
RTVSPost2010PropOp31
 70
     1
102
RTVSPost2010Prop32
280
     0
102
RTVSPost2010PropOp32
 70
     1
102
RTVSPost2010Prop33
280
     0
102
RTVSPost2010PropOp33
 70
     1
102
RTVSPost2010Prop34
280
     0
102
RTVSPost2010PropOp34
 70
     1
102
RTVSPost2010Prop35
280
     0
102
RTVSPost2010PropOp35
 70
     1
102
RTVSPost2010Prop36
280
     0
102
RTVSPost2010PropOp36
 70
     1
102
RTVSPost2010Prop37
 90
       50
102
RTVSPost2010PropOp37
 70
     1
102
RTVSPost2010Prop38
140
0.0
102
RTVSPost2010PropOp38
 70
     1
102
RTVSPost2010Prop39
140
1.0
102
RTVSPost2010PropOp39
 70
     1
102
RTVSPost2010Prop40
 90
        0
102
RTVSPost2010PropOp40
 70
     1
102
RTVSPost2010Prop41ColorIndex
 90
       18
102
RTVSPost2010Prop41ColorRGB
 90
        0
102
RTVSPost2010PropOp41
 70
     1
102
RTVSPost2010Prop42
 90
       50
102
RTVSPost2010PropOp42
 70
     1
102
RTVSPost2010Prop43
 90
        3
102
RTVSPost2010PropOp43
 70
     1
102
RTVSPost2010Prop44ColorIndex
 90
        5
102
RTVSPost2010Prop44ColorRGB
 90
      255
102
RTVSPost2010PropOp44
 70
     1
102
RTVSPost2010Prop45
280
     0
102
RTVSPost2010PropOp45
 70
     1
102
RTVSPost2010Prop46
 90
       50
102
RTVSPost2010PropOp46
 70
     1
102
RTVSPost2010Prop47
 90
       50
102
RTVSPost2010PropOp47
 70
     1
102
RTVSPost2010Prop48
 90
       50
102
RTVSPost2010PropOp48
 70
     1
102
RTVSPost2010Prop49
280
     0
102
RTVSPost2010PropOp49
 70
     1
102
RTVSPost2010Prop50
 90
       50
102
RTVSPost2010PropOp50
 70
     1
102
RTVSPost2010Prop51ColorIndex
 90
      256
102
RTVSPost2010Prop51ColorRGB
 90
-16777216
102
RTVSPost2010PropOp51
 70
     0
102
RTVSPost2010Prop52
140
1.0
102
RTVSPost2010PropOp52
 70
     0
102
RTVSPost2010Prop53
 90
        2
102
RTVSPost2010PropOp53
 70
     1
102
RTVSPost2010Prop54
  1
strokes_ogs.tif
102
RTVSPost2010PropOp54
 70
     1
102
RTVSPost2010Prop55
280
     0
102
RTVSPost2010PropOp55
 70
     1
102
RTVSPost2010Prop56
140
1.0
102
RTVSPost2010PropOp56
 70
     1
102
RTVSPost2010Prop57
140
1.0
102
RTVSPost2010PropOp57
 70
     1
  0
XRECORD
  5
109B2
102
{ACAD_REACTORS
330
109B1
102
}
330
109B1
100
AcDbXrecord
280
     1
102
RTVSPropertyOp0
 70
     1
102
RTVSPropertyOp1
 70
     1
102
RTVSPropertyOp2
 70
     1
102
RTVSPropertyOp3
 70
     1
102
RTVSPropertyOp4
 70
     1
102
RTVSPropertyOp5
 70
     1
102
RTVSPropertyOp6
 70
     1
102
RTVSPropertyOp7
 70
     1
102
RTVSPropertyOp8
 70
     1
102
RTVSPropertyOp9
 70
     1
102
RTVSPropertyOp10
 70
     1
102
RTVSPropertyOp11
 70
     1
102
RTVSPropertyOp12
 70
     1
102
RTVSPropertyOp13
 70
     1
102
RTVSPropertyOp14
 70
     1
102
RTVSPropertyOp15
 70
     1
102
RTVSPropertyOp16
 70
     1
102
RTVSPropertyOp17
 70
     1
102
RTVSPropertyOp18
 70
     1
102
RTVSPropertyOp19
 70
     1
102
RTVSPropertyOp20
 70
     1
102
RTVSPropertyOp21
 70
     1
102
RTVSPropertyOp22
 70
     1
102
RTVSPropertyOp23
 70
     1
102
RTVSPropertyOp24
 70
     1
102
RTVSPropertyOp25
 70
     1
102
RTVSPropertyOp26
 70
     1
102
RTVSPropertyOp27
 70
     1
102
RTVSPropertyOp28
 70
     1
102
RTVSPropertyOp29
 70
     1
102
RTVSPropertyOp30
 70
     1
102
RTVSPropertyOp31
 70
     1
102
RTVSPropertyOp32
 70
     1
102
RTVSPropertyOp33
 70
     1
102
RTVSPropertyOp34
 70
     1
102
RTVSPropertyOp35
 70
     1
102
RTVSPropertyOp36
 70
     1
102
RTVSPropertyOp37
 70
     1
102
RTVSPropertyOp38
 70
     1
102
RTVSPropertyOp39
 70
     1
102
RTVSPropertyOp40
 70
     1
102
RTVSPropertyOp41
 70
     1
102
RTVSPropertyOp42
 70
     1
102
RTVSPropertyOp43
 70
     1
102
RTVSPropertyOp44
 70
     1
102
RTVSPropertyOp45
 70
     1
102
RTVSPropertyOp46
 70
     1
102
RTVSPropertyOp47
 70
     1
102
RTVSPropertyOp48
 70
     1
102
RTVSPropertyOp49
 70
     1
102
RTVSPropertyOp50
 70
     1
102
RTVSPropertyOp51
 70
     0
102
RTVSPropertyOp52
 70
     0
102
RTVSPropertyOp53
 70
     1
102
RTVSPropertyOp54
 70
     1
102
RTVSPropertyOp55
 70
     1
102
RTVSPropertyOp56
 70
     1
102
RTVSPropertyOp57
 70
     1
102
RTVSPost2010Prop28
280
     0
102
RTVSPost2010PropOp28
 70
     1
102
RTVSPost2010Prop29
280
     1
102
RTVSPost2010PropOp29
 70
     1
102
RTVSPost2010Prop30
280
     1
102
RTVSPost2010PropOp30
 70
     1
102
RTVSPost2010Prop31
280
     0
102
RTVSPost2010PropOp31
 70
     1
102
RTVSPost2010Prop32
280
     0
102
RTVSPost2010PropOp32
 70
     1
102
RTVSPost2010Prop33
280
     0
102
RTVSPost2010PropOp33
 70
     1
102
RTVSPost2010Prop34
280
     0
102
RTVSPost2010PropOp34
 70
     1
102
RTVSPost2010Prop35
280
     0
102
RTVSPost2010PropOp35
 70
     1
102
RTVSPost2010Prop36
280
     0
102
RTVSPost2010PropOp36
 70
     1
102
RTVSPost2010Prop37
 90
       50
102
RTVSPost2010PropOp37
 70
     1
102
RTVSPost2010Prop38
140
0.0
102
RTVSPost2010PropOp38
 70
     1
102
RTVSPost2010Prop39
140
1.0
102
RTVSPost2010PropOp39
 70
     1
102
RTVSPost2010Prop40
 90
        0
102
RTVSPost2010PropOp40
 70
     1
102
RTVSPost2010Prop41ColorIndex
 90
       18
102
RTVSPost2010Prop41ColorRGB
 90
        0
102
RTVSPost2010PropOp41
 70
     1
102
RTVSPost2010Prop42
 90
       50
102
RTVSPost2010PropOp42
 70
     1
102
RTVSPost2010Prop43
 90
        3
102
RTVSPost2010PropOp43
 70
     1
102
RTVSPost2010Prop44ColorIndex
 90
        5
102
RTVSPost2010Prop44ColorRGB
 90
      255
102
RTVSPost2010PropOp44
 70
     1
102
RTVSPost2010Prop45
280
     0
102
RTVSPost2010PropOp45
 70
     1
102
RTVSPost2010Prop46
 90
       50
102
RTVSPost2010PropOp46
 70
     1
102
RTVSPost2010Prop47
 90
       50
102
RTVSPost2010PropOp47
 70
     1
102
RTVSPost2010Prop48
 90
       50
102
RTVSPost2010PropOp48
 70
     1
102
RTVSPost2010Prop49
280
     0
102
RTVSPost2010PropOp49
 70
     1
102
RTVSPost2010Prop50
 90
       50
102
RTVSPost2010PropOp50
 70
     1
102
RTVSPost2010Prop51ColorIndex
 90
      256
102
RTVSPost2010Prop51ColorRGB
 90
-16777216
102
RTVSPost2010PropOp51
 70
     0
102
RTVSPost2010Prop52
140
1.0
102
RTVSPost2010PropOp52
 70
     0
102
RTVSPost2010Prop53
 90
        2
102
RTVSPost2010PropOp53
 70
     1
102
RTVSPost2010Prop54
  1
strokes_ogs.tif
102
RTVSPost2010PropOp54
 70
     1
102
RTVSPost2010Prop55
280
     0
102
RTVSPost2010PropOp55
 70
     1
102
RTVSPost2010Prop56
140
1.0
102
RTVSPost2010PropOp56
 70
     1
102
RTVSPost2010Prop57
140
1.0
102
RTVSPost2010PropOp57
 70
     1
  0
XRECORD
  5
109B4
102
{ACAD_REACTORS
330
109B3
102
}
330
109B3
100
AcDbXrecord
280
     1
102
RTVSPropertyOp0
 70
     1
102
RTVSPropertyOp1
 70
     1
102
RTVSPropertyOp2
 70
     1
102
RTVSPropertyOp3
 70
     1
102
RTVSPropertyOp4
 70
     1
102
RTVSPropertyOp5
 70
     1
102
RTVSPropertyOp6
 70
     1
102
RTVSPropertyOp7
 70
     1
102
RTVSPropertyOp8
 70
     1
102
RTVSPropertyOp9
 70
     1
102
RTVSPropertyOp10
 70
     1
102
RTVSPropertyOp11
 70
     1
102
RTVSPropertyOp12
 70
     1
102
RTVSPropertyOp13
 70
     1
102
RTVSPropertyOp14
 70
     1
102
RTVSPropertyOp15
 70
     1
102
RTVSPropertyOp16
 70
     1
102
RTVSPropertyOp17
 70
     1
102
RTVSPropertyOp18
 70
     1
102
RTVSPropertyOp19
 70
     1
102
RTVSPropertyOp20
 70
     1
102
RTVSPropertyOp21
 70
     1
102
RTVSPropertyOp22
 70
     1
102
RTVSPropertyOp23
 70
     1
102
RTVSPropertyOp24
 70
     1
102
RTVSPropertyOp25
 70
     1
102
RTVSPropertyOp26
 70
     1
102
RTVSPropertyOp27
 70
     1
102
RTVSPropertyOp28
 70
     1
102
RTVSPropertyOp29
 70
     1
102
RTVSPropertyOp30
 70
     1
102
RTVSPropertyOp31
 70
     1
102
RTVSPropertyOp32
 70
     1
102
RTVSPropertyOp33
 70
     1
102
RTVSPropertyOp34
 70
     1
102
RTVSPropertyOp35
 70
     1
102
RTVSPropertyOp36
 70
     1
102
RTVSPropertyOp37
 70
     1
102
RTVSPropertyOp38
 70
     1
102
RTVSPropertyOp39
 70
     1
102
RTVSPropertyOp40
 70
     1
102
RTVSPropertyOp41
 70
     1
102
RTVSPropertyOp42
 70
     1
102
RTVSPropertyOp43
 70
     1
102
RTVSPropertyOp44
 70
     1
102
RTVSPropertyOp45
 70
     1
102
RTVSPropertyOp46
 70
     1
102
RTVSPropertyOp47
 70
     1
102
RTVSPropertyOp48
 70
     1
102
RTVSPropertyOp49
 70
     1
102
RTVSPropertyOp50
 70
     1
102
RTVSPropertyOp51
 70
     0
102
RTVSPropertyOp52
 70
     0
102
RTVSPropertyOp53
 70
     1
102
RTVSPropertyOp54
 70
     1
102
RTVSPropertyOp55
 70
     1
102
RTVSPropertyOp56
 70
     1
102
RTVSPropertyOp57
 70
     1
102
RTVSPost2010Prop28
280
     0
102
RTVSPost2010PropOp28
 70
     1
102
RTVSPost2010Prop29
280
     1
102
RTVSPost2010PropOp29
 70
     1
102
RTVSPost2010Prop30
280
     1
102
RTVSPost2010PropOp30
 70
     1
102
RTVSPost2010Prop31
280
     0
102
RTVSPost2010PropOp31
 70
     1
102
RTVSPost2010Prop32
280
     0
102
RTVSPost2010PropOp32
 70
     1
102
RTVSPost2010Prop33
280
     0
102
RTVSPost2010PropOp33
 70
     1
102
RTVSPost2010Prop34
280
     0
102
RTVSPost2010PropOp34
 70
     1
102
RTVSPost2010Prop35
280
     0
102
RTVSPost2010PropOp35
 70
     1
102
RTVSPost2010Prop36
280
     0
102
RTVSPost2010PropOp36
 70
     1
102
RTVSPost2010Prop37
 90
       50
102
RTVSPost2010PropOp37
 70
     1
102
RTVSPost2010Prop38
140
0.0
102
RTVSPost2010PropOp38
 70
     1
102
RTVSPost2010Prop39
140
1.0
102
RTVSPost2010PropOp39
 70
     1
102
RTVSPost2010Prop40
 90
        0
102
RTVSPost2010PropOp40
 70
     1
102
RTVSPost2010Prop41ColorIndex
 90
       18
102
RTVSPost2010Prop41ColorRGB
 90
        0
102
RTVSPost2010PropOp41
 70
     1
102
RTVSPost2010Prop42
 90
       50
102
RTVSPost2010PropOp42
 70
     1
102
RTVSPost2010Prop43
 90
        3
102
RTVSPost2010PropOp43
 70
     1
102
RTVSPost2010Prop44ColorIndex
 90
        5
102
RTVSPost2010Prop44ColorRGB
 90
      255
102
RTVSPost2010PropOp44
 70
     1
102
RTVSPost2010Prop45
280
     0
102
RTVSPost2010PropOp45
 70
     1
102
RTVSPost2010Prop46
 90
       50
102
RTVSPost2010PropOp46
 70
     1
102
RTVSPost2010Prop47
 90
       50
102
RTVSPost2010PropOp47
 70
     1
102
RTVSPost2010Prop48
 90
       50
102
RTVSPost2010PropOp48
 70
     1
102
RTVSPost2010Prop49
280
     0
102
RTVSPost2010PropOp49
 70
     1
102
RTVSPost2010Prop50
 90
       50
102
RTVSPost2010PropOp50
 70
     1
102
RTVSPost2010Prop51ColorIndex
 90
      256
102
RTVSPost2010Prop51ColorRGB
 90
-16777216
102
RTVSPost2010PropOp51
 70
     0
102
RTVSPost2010Prop52
140
1.0
102
RTVSPost2010PropOp52
 70
     0
102
RTVSPost2010Prop53
 90
        2
102
RTVSPost2010PropOp53
 70
     1
102
RTVSPost2010Prop54
  1
strokes_ogs.tif
102
RTVSPost2010PropOp54
 70
     1
102
RTVSPost2010Prop55
280
     0
102
RTVSPost2010PropOp55
 70
     1
102
RTVSPost2010Prop56
140
1.0
102
RTVSPost2010PropOp56
 70
     1
102
RTVSPost2010Prop57
140
1.0
102
RTVSPost2010PropOp57
 70
     1
  0
XRECORD
  5
109B6
102
{ACAD_REACTORS
330
109B5
102
}
330
109B5
100
AcDbXrecord
280
     1
102
RTVSPropertyOp0
 70
     1
102
RTVSPropertyOp1
 70
     1
102
RTVSPropertyOp2
 70
     1
102
RTVSPropertyOp3
 70
     1
102
RTVSPropertyOp4
 70
     1
102
RTVSPropertyOp5
 70
     1
102
RTVSPropertyOp6
 70
     1
102
RTVSPropertyOp7
 70
     1
102
RTVSPropertyOp8
 70
     1
102
RTVSPropertyOp9
 70
     1
102
RTVSPropertyOp10
 70
     1
102
RTVSPropertyOp11
 70
     1
102
RTVSPropertyOp12
 70
     1
102
RTVSPropertyOp13
 70
     1
102
RTVSPropertyOp14
 70
     1
102
RTVSPropertyOp15
 70
     1
102
RTVSPropertyOp16
 70
     1
102
RTVSPropertyOp17
 70
     1
102
RTVSPropertyOp18
 70
     1
102
RTVSPropertyOp19
 70
     1
102
RTVSPropertyOp20
 70
     1
102
RTVSPropertyOp21
 70
     1
102
RTVSPropertyOp22
 70
     1
102
RTVSPropertyOp23
 70
     1
102
RTVSPropertyOp24
 70
     1
102
RTVSPropertyOp25
 70
     1
102
RTVSPropertyOp26
 70
     1
102
RTVSPropertyOp27
 70
     1
102
RTVSPropertyOp28
 70
     1
102
RTVSPropertyOp29
 70
     1
102
RTVSPropertyOp30
 70
     1
102
RTVSPropertyOp31
 70
     1
102
RTVSPropertyOp32
 70
     1
102
RTVSPropertyOp33
 70
     1
102
RTVSPropertyOp34
 70
     1
102
RTVSPropertyOp35
 70
     1
102
RTVSPropertyOp36
 70
     1
102
RTVSPropertyOp37
 70
     1
102
RTVSPropertyOp38
 70
     1
102
RTVSPropertyOp39
 70
     1
102
RTVSPropertyOp40
 70
     1
102
RTVSPropertyOp41
 70
     1
102
RTVSPropertyOp42
 70
     1
102
RTVSPropertyOp43
 70
     1
102
RTVSPropertyOp44
 70
     1
102
RTVSPropertyOp45
 70
     1
102
RTVSPropertyOp46
 70
     1
102
RTVSPropertyOp47
 70
     1
102
RTVSPropertyOp48
 70
     1
102
RTVSPropertyOp49
 70
     1
102
RTVSPropertyOp50
 70
     1
102
RTVSPropertyOp51
 70
     0
102
RTVSPropertyOp52
 70
     0
102
RTVSPropertyOp53
 70
     1
102
RTVSPropertyOp54
 70
     1
102
RTVSPropertyOp55
 70
     1
102
RTVSPropertyOp56
 70
     1
102
RTVSPropertyOp57
 70
     1
102
RTVSPost2010Prop28
280
     0
102
RTVSPost2010PropOp28
 70
     1
102
RTVSPost2010Prop29
280
     1
102
RTVSPost2010PropOp29
 70
     1
102
RTVSPost2010Prop30
280
     1
102
RTVSPost2010PropOp30
 70
     1
102
RTVSPost2010Prop31
280
     0
102
RTVSPost2010PropOp31
 70
     1
102
RTVSPost2010Prop32
280
     0
102
RTVSPost2010PropOp32
 70
     1
102
RTVSPost2010Prop33
280
     0
102
RTVSPost2010PropOp33
 70
     1
102
RTVSPost2010Prop34
280
     0
102
RTVSPost2010PropOp34
 70
     1
102
RTVSPost2010Prop35
280
     0
102
RTVSPost2010PropOp35
 70
     1
102
RTVSPost2010Prop36
280
     0
102
RTVSPost2010PropOp36
 70
     1
102
RTVSPost2010Prop37
 90
       50
102
RTVSPost2010PropOp37
 70
     1
102
RTVSPost2010Prop38
140
0.0
102
RTVSPost2010PropOp38
 70
     1
102
RTVSPost2010Prop39
140
1.0
102
RTVSPost2010PropOp39
 70
     1
102
RTVSPost2010Prop40
 90
        0
102
RTVSPost2010PropOp40
 70
     1
102
RTVSPost2010Prop41ColorIndex
 90
       18
102
RTVSPost2010Prop41ColorRGB
 90
        0
102
RTVSPost2010PropOp41
 70
     1
102
RTVSPost2010Prop42
 90
       50
102
RTVSPost2010PropOp42
 70
     1
102
RTVSPost2010Prop43
 90
        3
102
RTVSPost2010PropOp43
 70
     1
102
RTVSPost2010Prop44ColorIndex
 90
        5
102
RTVSPost2010Prop44ColorRGB
 90
      255
102
RTVSPost2010PropOp44
 70
     1
102
RTVSPost2010Prop45
280
     0
102
RTVSPost2010PropOp45
 70
     1
102
RTVSPost2010Prop46
 90
       50
102
RTVSPost2010PropOp46
 70
     1
102
RTVSPost2010Prop47
 90
       50
102
RTVSPost2010PropOp47
 70
     1
102
RTVSPost2010Prop48
 90
       50
102
RTVSPost2010PropOp48
 70
     1
102
RTVSPost2010Prop49
280
     0
102
RTVSPost2010PropOp49
 70
     1
102
RTVSPost2010Prop50
 90
       50
102
RTVSPost2010PropOp50
 70
     1
102
RTVSPost2010Prop51ColorIndex
 90
      256
102
RTVSPost2010Prop51ColorRGB
 90
-16777216
102
RTVSPost2010PropOp51
 70
     0
102
RTVSPost2010Prop52
140
1.0
102
RTVSPost2010PropOp52
 70
     0
102
RTVSPost2010Prop53
 90
        2
102
RTVSPost2010PropOp53
 70
     1
102
RTVSPost2010Prop54
  1
strokes_ogs.tif
102
RTVSPost2010PropOp54
 70
     1
102
RTVSPost2010Prop55
280
     0
102
RTVSPost2010PropOp55
 70
     1
102
RTVSPost2010Prop56
140
1.0
102
RTVSPost2010PropOp56
 70
     1
102
RTVSPost2010Prop57
140
1.0
102
RTVSPost2010PropOp57
 70
     1
  0
XRECORD
  5
109BC
102
{ACAD_REACTORS
330
109BB
102
}
330
109BB
100
AcDbXrecord
280
     1
102
RTVSPropertyOp0
 70
     1
102
RTVSPropertyOp1
 70
     1
102
RTVSPropertyOp2
 70
     1
102
RTVSPropertyOp3
 70
     1
102
RTVSPropertyOp4
 70
     1
102
RTVSPropertyOp5
 70
     1
102
RTVSPropertyOp6
 70
     1
102
RTVSPropertyOp7
 70
     1
102
RTVSPropertyOp8
 70
     1
102
RTVSPropertyOp9
 70
     1
102
RTVSPropertyOp10
 70
     1
102
RTVSPropertyOp11
 70
     1
102
RTVSPropertyOp12
 70
     1
102
RTVSPropertyOp13
 70
     1
102
RTVSPropertyOp14
 70
     1
102
RTVSPropertyOp15
 70
     1
102
RTVSPropertyOp16
 70
     1
102
RTVSPropertyOp17
 70
     1
102
RTVSPropertyOp18
 70
     1
102
RTVSPropertyOp19
 70
     1
102
RTVSPropertyOp20
 70
     1
102
RTVSPropertyOp21
 70
     1
102
RTVSPropertyOp22
 70
     1
102
RTVSPropertyOp23
 70
     1
102
RTVSPropertyOp24
 70
     1
102
RTVSPropertyOp25
 70
     1
102
RTVSPropertyOp26
 70
     1
102
RTVSPropertyOp27
 70
     1
102
RTVSPropertyOp28
 70
     1
102
RTVSPropertyOp29
 70
     1
102
RTVSPropertyOp30
 70
     1
102
RTVSPropertyOp31
 70
     1
102
RTVSPropertyOp32
 70
     1
102
RTVSPropertyOp33
 70
     1
102
RTVSPropertyOp34
 70
     1
102
RTVSPropertyOp35
 70
     1
102
RTVSPropertyOp36
 70
     1
102
RTVSPropertyOp37
 70
     1
102
RTVSPropertyOp38
 70
     1
102
RTVSPropertyOp39
 70
     1
102
RTVSPropertyOp40
 70
     1
102
RTVSPropertyOp41
 70
     1
102
RTVSPropertyOp42
 70
     1
102
RTVSPropertyOp43
 70
     1
102
RTVSPropertyOp44
 70
     1
102
RTVSPropertyOp45
 70
     1
102
RTVSPropertyOp46
 70
     1
102
RTVSPropertyOp47
 70
     1
102
RTVSPropertyOp48
 70
     1
102
RTVSPropertyOp49
 70
     1
102
RTVSPropertyOp50
 70
     1
102
RTVSPropertyOp51
 70
     0
102
RTVSPropertyOp52
 70
     0
102
RTVSPropertyOp53
 70
     1
102
RTVSPropertyOp54
 70
     1
102
RTVSPropertyOp55
 70
     1
102
RTVSPropertyOp56
 70
     1
102
RTVSPropertyOp57
 70
     1
102
RTVSPost2010Prop28
280
     0
102
RTVSPost2010PropOp28
 70
     1
102
RTVSPost2010Prop29
280
     1
102
RTVSPost2010PropOp29
 70
     1
102
RTVSPost2010Prop30
280
     1
102
RTVSPost2010PropOp30
 70
     1
102
RTVSPost2010Prop31
280
     0
102
RTVSPost2010PropOp31
 70
     1
102
RTVSPost2010Prop32
280
     0
102
RTVSPost2010PropOp32
 70
     1
102
RTVSPost2010Prop33
280
     0
102
RTVSPost2010PropOp33
 70
     1
102
RTVSPost2010Prop34
280
     0
102
RTVSPost2010PropOp34
 70
     1
102
RTVSPost2010Prop35
280
     0
102
RTVSPost2010PropOp35
 70
     1
102
RTVSPost2010Prop36
280
     0
102
RTVSPost2010PropOp36
 70
     1
102
RTVSPost2010Prop37
 90
       50
102
RTVSPost2010PropOp37
 70
     1
102
RTVSPost2010Prop38
140
0.0
102
RTVSPost2010PropOp38
 70
     1
102
RTVSPost2010Prop39
140
1.0
102
RTVSPost2010PropOp39
 70
     1
102
RTVSPost2010Prop40
 90
        0
102
RTVSPost2010PropOp40
 70
     1
102
RTVSPost2010Prop41ColorIndex
 90
       18
102
RTVSPost2010Prop41ColorRGB
 90
        0
102
RTVSPost2010PropOp41
 70
     1
102
RTVSPost2010Prop42
 90
       50
102
RTVSPost2010PropOp42
 70
     1
102
RTVSPost2010Prop43
 90
        3
102
RTVSPost2010PropOp43
 70
     1
102
RTVSPost2010Prop44ColorIndex
 90
        5
102
RTVSPost2010Prop44ColorRGB
 90
      255
102
RTVSPost2010PropOp44
 70
     1
102
RTVSPost2010Prop45
280
     0
102
RTVSPost2010PropOp45
 70
     1
102
RTVSPost2010Prop46
 90
       50
102
RTVSPost2010PropOp46
 70
     1
102
RTVSPost2010Prop47
 90
       50
102
RTVSPost2010PropOp47
 70
     1
102
RTVSPost2010Prop48
 90
       50
102
RTVSPost2010PropOp48
 70
     1
102
RTVSPost2010Prop49
280
     0
102
RTVSPost2010PropOp49
 70
     1
102
RTVSPost2010Prop50
 90
       50
102
RTVSPost2010PropOp50
 70
     1
102
RTVSPost2010Prop51ColorIndex
 90
      256
102
RTVSPost2010Prop51ColorRGB
 90
-16777216
102
RTVSPost2010PropOp51
 70
     0
102
RTVSPost2010Prop52
140
1.0
102
RTVSPost2010PropOp52
 70
     0
102
RTVSPost2010Prop53
 90
        2
102
RTVSPost2010PropOp53
 70
     1
102
RTVSPost2010Prop54
  1
strokes_ogs.tif
102
RTVSPost2010PropOp54
 70
     1
102
RTVSPost2010Prop55
280
     0
102
RTVSPost2010PropOp55
 70
     1
102
RTVSPost2010Prop56
140
1.0
102
RTVSPost2010PropOp56
 70
     1
102
RTVSPost2010Prop57
140
1.0
102
RTVSPost2010PropOp57
 70
     1
  0
XRECORD
  5
109D0
102
{ACAD_REACTORS
330
109CF
102
}
330
109CF
100
AcDbXrecord
280
     1
102
RTVSPropertyOp0
 70
     0
102
RTVSPropertyOp1
 70
     0
102
RTVSPropertyOp2
 70
     0
102
RTVSPropertyOp3
 70
     0
102
RTVSPropertyOp4
 70
     0
102
RTVSPropertyOp5
 70
     0
102
RTVSPropertyOp6
 70
     0
102
RTVSPropertyOp7
 70
     0
102
RTVSPropertyOp8
 70
     0
102
RTVSPropertyOp9
 70
     0
102
RTVSPropertyOp10
 70
     0
102
RTVSPropertyOp11
 70
     0
102
RTVSPropertyOp12
 70
     0
102
RTVSPropertyOp13
 70
     0
102
RTVSPropertyOp14
 70
     2
102
RTVSPropertyOp15
 70
     0
102
RTVSPropertyOp16
 70
     0
102
RTVSPropertyOp17
 70
     0
102
RTVSPropertyOp18
 70
     0
102
RTVSPropertyOp19
 70
     0
102
RTVSPropertyOp20
 70
     0
102
RTVSPropertyOp21
 70
     0
102
RTVSPropertyOp22
 70
     0
102
RTVSPropertyOp23
 70
     0
102
RTVSPropertyOp24
 70
     0
102
RTVSPropertyOp25
 70
     0
102
RTVSPropertyOp26
 70
     0
102
RTVSPropertyOp27
 70
     0
102
RTVSPropertyOp28
 70
     0
102
RTVSPropertyOp29
 70
     0
102
RTVSPropertyOp30
 70
     0
102
RTVSPropertyOp31
 70
     0
102
RTVSPropertyOp32
 70
     0
102
RTVSPropertyOp33
 70
     0
102
RTVSPropertyOp34
 70
     0
102
RTVSPropertyOp35
 70
     0
102
RTVSPropertyOp36
 70
     0
102
RTVSPropertyOp37
 70
     0
102
RTVSPropertyOp38
 70
     0
102
RTVSPropertyOp39
 70
     0
102
RTVSPropertyOp40
 70
     0
102
RTVSPropertyOp41
 70
     0
102
RTVSPropertyOp42
 70
     0
102
RTVSPropertyOp43
 70
     0
102
RTVSPropertyOp44
 70
     0
102
RTVSPropertyOp45
 70
     0
102
RTVSPropertyOp46
 70
     0
102
RTVSPropertyOp47
 70
     0
102
RTVSPropertyOp48
 70
     0
102
RTVSPropertyOp49
 70
     0
102
RTVSPropertyOp50
 70
     0
102
RTVSPropertyOp51
 70
     0
102
RTVSPropertyOp52
 70
     0
102
RTVSPropertyOp53
 70
     0
102
RTVSPropertyOp54
 70
     0
102
RTVSPropertyOp55
 70
     0
102
RTVSPropertyOp56
 70
     0
102
RTVSPropertyOp57
 70
     0
102
RTVSPost2010Prop28
280
     0
102
RTVSPost2010PropOp28
 70
     0
102
RTVSPost2010Prop29
280
     1
102
RTVSPost2010PropOp29
 70
     0
102
RTVSPost2010Prop30
280
     1
102
RTVSPost2010PropOp30
 70
     0
102
RTVSPost2010Prop31
280
     0
102
RTVSPost2010PropOp31
 70
     0
102
RTVSPost2010Prop32
280
     0
102
RTVSPost2010PropOp32
 70
     0
102
RTVSPost2010Prop33
280
     0
102
RTVSPost2010PropOp33
 70
     0
102
RTVSPost2010Prop34
280
     0
102
RTVSPost2010PropOp34
 70
     0
102
RTVSPost2010Prop35
280
     0
102
RTVSPost2010PropOp35
 70
     0
102
RTVSPost2010Prop36
280
     0
102
RTVSPost2010PropOp36
 70
     0
102
RTVSPost2010Prop37
 90
       50
102
RTVSPost2010PropOp37
 70
     0
102
RTVSPost2010Prop38
140
0.0
102
RTVSPost2010PropOp38
 70
     0
102
RTVSPost2010Prop39
140
1.0
102
RTVSPost2010PropOp39
 70
     0
102
RTVSPost2010Prop40
 90
        0
102
RTVSPost2010PropOp40
 70
     0
102
RTVSPost2010Prop41ColorIndex
 90
       18
102
RTVSPost2010Prop41ColorRGB
 90
        0
102
RTVSPost2010PropOp41
 70
     0
102
RTVSPost2010Prop42
 90
       50
102
RTVSPost2010PropOp42
 70
     0
102
RTVSPost2010Prop43
 90
        3
102
RTVSPost2010PropOp43
 70
     0
102
RTVSPost2010Prop44ColorIndex
 90
        5
102
RTVSPost2010Prop44ColorRGB
 90
      255
102
RTVSPost2010PropOp44
 70
     0
102
RTVSPost2010Prop45
280
     0
102
RTVSPost2010PropOp45
 70
     0
102
RTVSPost2010Prop46
 90
       50
102
RTVSPost2010PropOp46
 70
     0
102
RTVSPost2010Prop47
 90
       50
102
RTVSPost2010PropOp47
 70
     0
102
RTVSPost2010Prop48
 90
       50
102
RTVSPost2010PropOp48
 70
     0
102
RTVSPost2010Prop49
280
     0
102
RTVSPost2010PropOp49
 70
     0
102
RTVSPost2010Prop50
 90
       50
102
RTVSPost2010PropOp50
 70
     0
102
RTVSPost2010Prop51ColorIndex
 90
      256
102
RTVSPost2010Prop51ColorRGB
 90
-16777216
102
RTVSPost2010PropOp51
 70
     0
102
RTVSPost2010Prop52
140
1.0
102
RTVSPost2010PropOp52
 70
     0
102
RTVSPost2010Prop53
 90
        2
102
RTVSPost2010PropOp53
 70
     0
102
RTVSPost2010Prop54
  1
strokes_ogs.tif
102
RTVSPost2010PropOp54
 70
     0
102
RTVSPost2010Prop55
280
     0
102
RTVSPost2010PropOp55
 70
     0
102
RTVSPost2010Prop56
140
1.0
102
RTVSPost2010PropOp56
 70
     0
102
RTVSPost2010Prop57
140
1.0
102
RTVSPost2010PropOp57
 70
     0
  0
XRECORD
  5
109CA
102
{ACAD_REACTORS
330
109C9
102
}
330
109C9
100
AcDbXrecord
280
     1
102
RTVSPropertyOp0
 70
     1
102
RTVSPropertyOp1
 70
     1
102
RTVSPropertyOp2
 70
     1
102
RTVSPropertyOp3
 70
     1
102
RTVSPropertyOp4
 70
     1
102
RTVSPropertyOp5
 70
     1
102
RTVSPropertyOp6
 70
     1
102
RTVSPropertyOp7
 70
     1
102
RTVSPropertyOp8
 70
     1
102
RTVSPropertyOp9
 70
     1
102
RTVSPropertyOp10
 70
     1
102
RTVSPropertyOp11
 70
     1
102
RTVSPropertyOp12
 70
     1
102
RTVSPropertyOp13
 70
     1
102
RTVSPropertyOp14
 70
     1
102
RTVSPropertyOp15
 70
     1
102
RTVSPropertyOp16
 70
     1
102
RTVSPropertyOp17
 70
     1
102
RTVSPropertyOp18
 70
     1
102
RTVSPropertyOp19
 70
     1
102
RTVSPropertyOp20
 70
     1
102
RTVSPropertyOp21
 70
     1
102
RTVSPropertyOp22
 70
     1
102
RTVSPropertyOp23
 70
     1
102
RTVSPropertyOp24
 70
     1
102
RTVSPropertyOp25
 70
     1
102
RTVSPropertyOp26
 70
     1
102
RTVSPropertyOp27
 70
     1
102
RTVSPropertyOp28
 70
     1
102
RTVSPropertyOp29
 70
     1
102
RTVSPropertyOp30
 70
     1
102
RTVSPropertyOp31
 70
     1
102
RTVSPropertyOp32
 70
     1
102
RTVSPropertyOp33
 70
     1
102
RTVSPropertyOp34
 70
     1
102
RTVSPropertyOp35
 70
     1
102
RTVSPropertyOp36
 70
     1
102
RTVSPropertyOp37
 70
     1
102
RTVSPropertyOp38
 70
     1
102
RTVSPropertyOp39
 70
     1
102
RTVSPropertyOp40
 70
     1
102
RTVSPropertyOp41
 70
     1
102
RTVSPropertyOp42
 70
     1
102
RTVSPropertyOp43
 70
     1
102
RTVSPropertyOp44
 70
     1
102
RTVSPropertyOp45
 70
     1
102
RTVSPropertyOp46
 70
     1
102
RTVSPropertyOp47
 70
     1
102
RTVSPropertyOp48
 70
     1
102
RTVSPropertyOp49
 70
     1
102
RTVSPropertyOp50
 70
     1
102
RTVSPropertyOp51
 70
     0
102
RTVSPropertyOp52
 70
     0
102
RTVSPropertyOp53
 70
     1
102
RTVSPropertyOp54
 70
     1
102
RTVSPropertyOp55
 70
     1
102
RTVSPropertyOp56
 70
     1
102
RTVSPropertyOp57
 70
     1
102
RTVSPost2010Prop28
280
     0
102
RTVSPost2010PropOp28
 70
     1
102
RTVSPost2010Prop29
280
     1
102
RTVSPost2010PropOp29
 70
     1
102
RTVSPost2010Prop30
280
     1
102
RTVSPost2010PropOp30
 70
     1
102
RTVSPost2010Prop31
280
     0
102
RTVSPost2010PropOp31
 70
     1
102
RTVSPost2010Prop32
280
     0
102
RTVSPost2010PropOp32
 70
     1
102
RTVSPost2010Prop33
280
     0
102
RTVSPost2010PropOp33
 70
     1
102
RTVSPost2010Prop34
280
     0
102
RTVSPost2010PropOp34
 70
     1
102
RTVSPost2010Prop35
280
     0
102
RTVSPost2010PropOp35
 70
     1
102
RTVSPost2010Prop36
280
     0
102
RTVSPost2010PropOp36
 70
     1
102
RTVSPost2010Prop37
 90
       50
102
RTVSPost2010PropOp37
 70
     1
102
RTVSPost2010Prop38
140
0.0
102
RTVSPost2010PropOp38
 70
     1
102
RTVSPost2010Prop39
140
1.0
102
RTVSPost2010PropOp39
 70
     1
102
RTVSPost2010Prop40
 90
        0
102
RTVSPost2010PropOp40
 70
     1
102
RTVSPost2010Prop41ColorIndex
 90
       18
102
RTVSPost2010Prop41ColorRGB
 90
        0
102
RTVSPost2010PropOp41
 70
     1
102
RTVSPost2010Prop42
 90
       50
102
RTVSPost2010PropOp42
 70
     1
102
RTVSPost2010Prop43
 90
        3
102
RTVSPost2010PropOp43
 70
     1
102
RTVSPost2010Prop44ColorIndex
 90
        5
102
RTVSPost2010Prop44ColorRGB
 90
      255
102
RTVSPost2010PropOp44
 70
     1
102
RTVSPost2010Prop45
280
     0
102
RTVSPost2010PropOp45
 70
     1
102
RTVSPost2010Prop46
 90
       50
102
RTVSPost2010PropOp46
 70
     1
102
RTVSPost2010Prop47
 90
       50
102
RTVSPost2010PropOp47
 70
     1
102
RTVSPost2010Prop48
 90
       50
102
RTVSPost2010PropOp48
 70
     1
102
RTVSPost2010Prop49
280
     0
102
RTVSPost2010PropOp49
 70
     1
102
RTVSPost2010Prop50
 90
       50
102
RTVSPost2010PropOp50
 70
     1
102
RTVSPost2010Prop51ColorIndex
 90
      256
102
RTVSPost2010Prop51ColorRGB
 90
-16777216
102
RTVSPost2010PropOp51
 70
     0
102
RTVSPost2010Prop52
140
1.0
102
RTVSPost2010PropOp52
 70
     0
102
RTVSPost2010Prop53
 90
        2
102
RTVSPost2010PropOp53
 70
     1
102
RTVSPost2010Prop54
  1
strokes_ogs.tif
102
RTVSPost2010PropOp54
 70
     1
102
RTVSPost2010Prop55
280
     0
102
RTVSPost2010PropOp55
 70
     1
102
RTVSPost2010Prop56
140
1.0
102
RTVSPost2010PropOp56
 70
     1
102
RTVSPost2010Prop57
140
1.0
102
RTVSPost2010PropOp57
 70
     1
  0
XRECORD
  5
109D2
102
{ACAD_REACTORS
330
109D1
102
}
330
109D1
100
AcDbXrecord
280
     1
102
RTVSPropertyOp0
 70
     0
102
RTVSPropertyOp1
 70
     0
102
RTVSPropertyOp2
 70
     0
102
RTVSPropertyOp3
 70
     0
102
RTVSPropertyOp4
 70
     0
102
RTVSPropertyOp5
 70
     0
102
RTVSPropertyOp6
 70
     0
102
RTVSPropertyOp7
 70
     0
102
RTVSPropertyOp8
 70
     0
102
RTVSPropertyOp9
 70
     0
102
RTVSPropertyOp10
 70
     0
102
RTVSPropertyOp11
 70
     0
102
RTVSPropertyOp12
 70
     0
102
RTVSPropertyOp13
 70
     0
102
RTVSPropertyOp14
 70
     2
102
RTVSPropertyOp15
 70
     0
102
RTVSPropertyOp16
 70
     0
102
RTVSPropertyOp17
 70
     0
102
RTVSPropertyOp18
 70
     0
102
RTVSPropertyOp19
 70
     0
102
RTVSPropertyOp20
 70
     0
102
RTVSPropertyOp21
 70
     0
102
RTVSPropertyOp22
 70
     0
102
RTVSPropertyOp23
 70
     0
102
RTVSPropertyOp24
 70
     0
102
RTVSPropertyOp25
 70
     0
102
RTVSPropertyOp26
 70
     0
102
RTVSPropertyOp27
 70
     0
102
RTVSPropertyOp28
 70
     0
102
RTVSPropertyOp29
 70
     0
102
RTVSPropertyOp30
 70
     0
102
RTVSPropertyOp31
 70
     0
102
RTVSPropertyOp32
 70
     0
102
RTVSPropertyOp33
 70
     0
102
RTVSPropertyOp34
 70
     0
102
RTVSPropertyOp35
 70
     0
102
RTVSPropertyOp36
 70
     0
102
RTVSPropertyOp37
 70
     0
102
RTVSPropertyOp38
 70
     0
102
RTVSPropertyOp39
 70
     0
102
RTVSPropertyOp40
 70
     0
102
RTVSPropertyOp41
 70
     0
102
RTVSPropertyOp42
 70
     0
102
RTVSPropertyOp43
 70
     0
102
RTVSPropertyOp44
 70
     0
102
RTVSPropertyOp45
 70
     0
102
RTVSPropertyOp46
 70
     0
102
RTVSPropertyOp47
 70
     0
102
RTVSPropertyOp48
 70
     0
102
RTVSPropertyOp49
 70
     0
102
RTVSPropertyOp50
 70
     0
102
RTVSPropertyOp51
 70
     0
102
RTVSPropertyOp52
 70
     0
102
RTVSPropertyOp53
 70
     0
102
RTVSPropertyOp54
 70
     0
102
RTVSPropertyOp55
 70
     0
102
RTVSPropertyOp56
 70
     0
102
RTVSPropertyOp57
 70
     0
102
RTVSPost2010Prop28
280
     0
102
RTVSPost2010PropOp28
 70
     0
102
RTVSPost2010Prop29
280
     1
102
RTVSPost2010PropOp29
 70
     0
102
RTVSPost2010Prop30
280
     1
102
RTVSPost2010PropOp30
 70
     0
102
RTVSPost2010Prop31
280
     0
102
RTVSPost2010PropOp31
 70
     0
102
RTVSPost2010Prop32
280
     0
102
RTVSPost2010PropOp32
 70
     0
102
RTVSPost2010Prop33
280
     0
102
RTVSPost2010PropOp33
 70
     0
102
RTVSPost2010Prop34
280
     0
102
RTVSPost2010PropOp34
 70
     0
102
RTVSPost2010Prop35
280
     0
102
RTVSPost2010PropOp35
 70
     0
102
RTVSPost2010Prop36
280
     0
102
RTVSPost2010PropOp36
 70
     0
102
RTVSPost2010Prop37
 90
       50
102
RTVSPost2010PropOp37
 70
     0
102
RTVSPost2010Prop38
140
0.0
102
RTVSPost2010PropOp38
 70
     0
102
RTVSPost2010Prop39
140
1.0
102
RTVSPost2010PropOp39
 70
     0
102
RTVSPost2010Prop40
 90
        0
102
RTVSPost2010PropOp40
 70
     0
102
RTVSPost2010Prop41ColorIndex
 90
       18
102
RTVSPost2010Prop41ColorRGB
 90
        0
102
RTVSPost2010PropOp41
 70
     0
102
RTVSPost2010Prop42
 90
       50
102
RTVSPost2010PropOp42
 70
     0
102
RTVSPost2010Prop43
 90
        3
102
RTVSPost2010PropOp43
 70
     0
102
RTVSPost2010Prop44ColorIndex
 90
        5
102
RTVSPost2010Prop44ColorRGB
 90
      255
102
RTVSPost2010PropOp44
 70
     0
102
RTVSPost2010Prop45
280
     0
102
RTVSPost2010PropOp45
 70
     0
102
RTVSPost2010Prop46
 90
       50
102
RTVSPost2010PropOp46
 70
     0
102
RTVSPost2010Prop47
 90
       50
102
RTVSPost2010PropOp47
 70
     0
102
RTVSPost2010Prop48
 90
       50
102
RTVSPost2010PropOp48
 70
     0
102
RTVSPost2010Prop49
280
     0
102
RTVSPost2010PropOp49
 70
     0
102
RTVSPost2010Prop50
 90
       50
102
RTVSPost2010PropOp50
 70
     0
102
RTVSPost2010Prop51ColorIndex
 90
      256
102
RTVSPost2010Prop51ColorRGB
 90
-16777216
102
RTVSPost2010PropOp51
 70
     0
102
RTVSPost2010Prop52
140
1.0
102
RTVSPost2010PropOp52
 70
     0
102
RTVSPost2010Prop53
 90
        2
102
RTVSPost2010PropOp53
 70
     0
102
RTVSPost2010Prop54
  1
strokes_ogs.tif
102
RTVSPost2010PropOp54
 70
     0
102
RTVSPost2010Prop55
280
     0
102
RTVSPost2010PropOp55
 70
     0
102
RTVSPost2010Prop56
140
1.0
102
RTVSPost2010PropOp56
 70
     0
102
RTVSPost2010Prop57
140
1.0
102
RTVSPost2010PropOp57
 70
     0
  0
XRECORD
  5
109C0
102
{ACAD_REACTORS
330
109BF
102
}
330
109BF
100
AcDbXrecord
280
     1
102
RTVSPropertyOp0
 70
     1
102
RTVSPropertyOp1
 70
     1
102
RTVSPropertyOp2
 70
     1
102
RTVSPropertyOp3
 70
     1
102
RTVSPropertyOp4
 70
     1
102
RTVSPropertyOp5
 70
     1
102
RTVSPropertyOp6
 70
     1
102
RTVSPropertyOp7
 70
     1
102
RTVSPropertyOp8
 70
     1
102
RTVSPropertyOp9
 70
     1
102
RTVSPropertyOp10
 70
     1
102
RTVSPropertyOp11
 70
     1
102
RTVSPropertyOp12
 70
     1
102
RTVSPropertyOp13
 70
     1
102
RTVSPropertyOp14
 70
     1
102
RTVSPropertyOp15
 70
     1
102
RTVSPropertyOp16
 70
     1
102
RTVSPropertyOp17
 70
     1
102
RTVSPropertyOp18
 70
     1
102
RTVSPropertyOp19
 70
     1
102
RTVSPropertyOp20
 70
     1
102
RTVSPropertyOp21
 70
     1
102
RTVSPropertyOp22
 70
     1
102
RTVSPropertyOp23
 70
     1
102
RTVSPropertyOp24
 70
     1
102
RTVSPropertyOp25
 70
     1
102
RTVSPropertyOp26
 70
     1
102
RTVSPropertyOp27
 70
     1
102
RTVSPropertyOp28
 70
     1
102
RTVSPropertyOp29
 70
     1
102
RTVSPropertyOp30
 70
     1
102
RTVSPropertyOp31
 70
     1
102
RTVSPropertyOp32
 70
     1
102
RTVSPropertyOp33
 70
     1
102
RTVSPropertyOp34
 70
     1
102
RTVSPropertyOp35
 70
     1
102
RTVSPropertyOp36
 70
     1
102
RTVSPropertyOp37
 70
     1
102
RTVSPropertyOp38
 70
     1
102
RTVSPropertyOp39
 70
     1
102
RTVSPropertyOp40
 70
     1
102
RTVSPropertyOp41
 70
     1
102
RTVSPropertyOp42
 70
     1
102
RTVSPropertyOp43
 70
     1
102
RTVSPropertyOp44
 70
     1
102
RTVSPropertyOp45
 70
     1
102
RTVSPropertyOp46
 70
     1
102
RTVSPropertyOp47
 70
     1
102
RTVSPropertyOp48
 70
     1
102
RTVSPropertyOp49
 70
     1
102
RTVSPropertyOp50
 70
     1
102
RTVSPropertyOp51
 70
     0
102
RTVSPropertyOp52
 70
     0
102
RTVSPropertyOp53
 70
     1
102
RTVSPropertyOp54
 70
     1
102
RTVSPropertyOp55
 70
     1
102
RTVSPropertyOp56
 70
     1
102
RTVSPropertyOp57
 70
     1
102
RTVSPost2010Prop28
280
     0
102
RTVSPost2010PropOp28
 70
     1
102
RTVSPost2010Prop29
280
     1
102
RTVSPost2010PropOp29
 70
     1
102
RTVSPost2010Prop30
280
     1
102
RTVSPost2010PropOp30
 70
     1
102
RTVSPost2010Prop31
280
     0
102
RTVSPost2010PropOp31
 70
     1
102
RTVSPost2010Prop32
280
     0
102
RTVSPost2010PropOp32
 70
     1
102
RTVSPost2010Prop33
280
     0
102
RTVSPost2010PropOp33
 70
     1
102
RTVSPost2010Prop34
280
     0
102
RTVSPost2010PropOp34
 70
     1
102
RTVSPost2010Prop35
280
     0
102
RTVSPost2010PropOp35
 70
     1
102
RTVSPost2010Prop36
280
     0
102
RTVSPost2010PropOp36
 70
     1
102
RTVSPost2010Prop37
 90
       50
102
RTVSPost2010PropOp37
 70
     1
102
RTVSPost2010Prop38
140
0.0
102
RTVSPost2010PropOp38
 70
     1
102
RTVSPost2010Prop39
140
1.0
102
RTVSPost2010PropOp39
 70
     1
102
RTVSPost2010Prop40
 90
        0
102
RTVSPost2010PropOp40
 70
     1
102
RTVSPost2010Prop41ColorIndex
 90
       18
102
RTVSPost2010Prop41ColorRGB
 90
        0
102
RTVSPost2010PropOp41
 70
     1
102
RTVSPost2010Prop42
 90
       50
102
RTVSPost2010PropOp42
 70
     1
102
RTVSPost2010Prop43
 90
        3
102
RTVSPost2010PropOp43
 70
     1
102
RTVSPost2010Prop44ColorIndex
 90
        5
102
RTVSPost2010Prop44ColorRGB
 90
      255
102
RTVSPost2010PropOp44
 70
     1
102
RTVSPost2010Prop45
280
     0
102
RTVSPost2010PropOp45
 70
     1
102
RTVSPost2010Prop46
 90
       50
102
RTVSPost2010PropOp46
 70
     1
102
RTVSPost2010Prop47
 90
       50
102
RTVSPost2010PropOp47
 70
     1
102
RTVSPost2010Prop48
 90
       50
102
RTVSPost2010PropOp48
 70
     1
102
RTVSPost2010Prop49
280
     0
102
RTVSPost2010PropOp49
 70
     1
102
RTVSPost2010Prop50
 90
       50
102
RTVSPost2010PropOp50
 70
     1
102
RTVSPost2010Prop51ColorIndex
 90
      256
102
RTVSPost2010Prop51ColorRGB
 90
-16777216
102
RTVSPost2010PropOp51
 70
     0
102
RTVSPost2010Prop52
140
1.0
102
RTVSPost2010PropOp52
 70
     0
102
RTVSPost2010Prop53
 90
        2
102
RTVSPost2010PropOp53
 70
     1
102
RTVSPost2010Prop54
  1
strokes_ogs.tif
102
RTVSPost2010PropOp54
 70
     1
102
RTVSPost2010Prop55
280
     0
102
RTVSPost2010PropOp55
 70
     1
102
RTVSPost2010Prop56
140
1.0
102
RTVSPost2010PropOp56
 70
     1
102
RTVSPost2010Prop57
140
1.0
102
RTVSPost2010PropOp57
 70
     1
  0
XRECORD
  5
109DE
102
{ACAD_REACTORS
330
109DD
102
}
330
109DD
100
AcDbXrecord
280
     1
102
RTVSPropertyOp0
 70
     1
102
RTVSPropertyOp1
 70
     1
102
RTVSPropertyOp2
 70
     1
102
RTVSPropertyOp3
 70
     1
102
RTVSPropertyOp4
 70
     1
102
RTVSPropertyOp5
 70
     1
102
RTVSPropertyOp6
 70
     1
102
RTVSPropertyOp7
 70
     1
102
RTVSPropertyOp8
 70
     1
102
RTVSPropertyOp9
 70
     1
102
RTVSPropertyOp10
 70
     1
102
RTVSPropertyOp11
 70
     1
102
RTVSPropertyOp12
 70
     1
102
RTVSPropertyOp13
 70
     1
102
RTVSPropertyOp14
 70
     1
102
RTVSPropertyOp15
 70
     1
102
RTVSPropertyOp16
 70
     1
102
RTVSPropertyOp17
 70
     1
102
RTVSPropertyOp18
 70
     1
102
RTVSPropertyOp19
 70
     1
102
RTVSPropertyOp20
 70
     1
102
RTVSPropertyOp21
 70
     1
102
RTVSPropertyOp22
 70
     1
102
RTVSPropertyOp23
 70
     1
102
RTVSPropertyOp24
 70
     1
102
RTVSPropertyOp25
 70
     1
102
RTVSPropertyOp26
 70
     1
102
RTVSPropertyOp27
 70
     1
102
RTVSPropertyOp28
 70
     1
102
RTVSPropertyOp29
 70
     1
102
RTVSPropertyOp30
 70
     1
102
RTVSPropertyOp31
 70
     1
102
RTVSPropertyOp32
 70
     1
102
RTVSPropertyOp33
 70
     1
102
RTVSPropertyOp34
 70
     1
102
RTVSPropertyOp35
 70
     1
102
RTVSPropertyOp36
 70
     1
102
RTVSPropertyOp37
 70
     1
102
RTVSPropertyOp38
 70
     1
102
RTVSPropertyOp39
 70
     1
102
RTVSPropertyOp40
 70
     1
102
RTVSPropertyOp41
 70
     1
102
RTVSPropertyOp42
 70
     1
102
RTVSPropertyOp43
 70
     1
102
RTVSPropertyOp44
 70
     1
102
RTVSPropertyOp45
 70
     1
102
RTVSPropertyOp46
 70
     1
102
RTVSPropertyOp47
 70
     1
102
RTVSPropertyOp48
 70
     1
102
RTVSPropertyOp49
 70
     1
102
RTVSPropertyOp50
 70
     1
102
RTVSPropertyOp51
 70
     0
102
RTVSPropertyOp52
 70
     0
102
RTVSPropertyOp53
 70
     1
102
RTVSPropertyOp54
 70
     1
102
RTVSPropertyOp55
 70
     1
102
RTVSPropertyOp56
 70
     1
102
RTVSPropertyOp57
 70
     1
102
RTVSPost2010Prop28
280
     0
102
RTVSPost2010PropOp28
 70
     1
102
RTVSPost2010Prop29
280
     1
102
RTVSPost2010PropOp29
 70
     1
102
RTVSPost2010Prop30
280
     1
102
RTVSPost2010PropOp30
 70
     1
102
RTVSPost2010Prop31
280
     0
102
RTVSPost2010PropOp31
 70
     1
102
RTVSPost2010Prop32
280
     0
102
RTVSPost2010PropOp32
 70
     1
102
RTVSPost2010Prop33
280
     0
102
RTVSPost2010PropOp33
 70
     1
102
RTVSPost2010Prop34
280
     0
102
RTVSPost2010PropOp34
 70
     1
102
RTVSPost2010Prop35
280
     0
102
RTVSPost2010PropOp35
 70
     1
102
RTVSPost2010Prop36
280
     0
102
RTVSPost2010PropOp36
 70
     1
102
RTVSPost2010Prop37
 90
       50
102
RTVSPost2010PropOp37
 70
     1
102
RTVSPost2010Prop38
140
0.0
102
RTVSPost2010PropOp38
 70
     1
102
RTVSPost2010Prop39
140
1.0
102
RTVSPost2010PropOp39
 70
     1
102
RTVSPost2010Prop40
 90
        0
102
RTVSPost2010PropOp40
 70
     1
102
RTVSPost2010Prop41ColorIndex
 90
       18
102
RTVSPost2010Prop41ColorRGB
 90
        0
102
RTVSPost2010PropOp41
 70
     1
102
RTVSPost2010Prop42
 90
       50
102
RTVSPost2010PropOp42
 70
     1
102
RTVSPost2010Prop43
 90
        3
102
RTVSPost2010PropOp43
 70
     1
102
RTVSPost2010Prop44ColorIndex
 90
        5
102
RTVSPost2010Prop44ColorRGB
 90
      255
102
RTVSPost2010PropOp44
 70
     1
102
RTVSPost2010Prop45
280
     0
102
RTVSPost2010PropOp45
 70
     1
102
RTVSPost2010Prop46
 90
       50
102
RTVSPost2010PropOp46
 70
     1
102
RTVSPost2010Prop47
 90
       50
102
RTVSPost2010PropOp47
 70
     1
102
RTVSPost2010Prop48
 90
       50
102
RTVSPost2010PropOp48
 70
     1
102
RTVSPost2010Prop49
280
     0
102
RTVSPost2010PropOp49
 70
     1
102
RTVSPost2010Prop50
 90
       50
102
RTVSPost2010PropOp50
 70
     1
102
RTVSPost2010Prop51ColorIndex
 90
      256
102
RTVSPost2010Prop51ColorRGB
 90
-16777216
102
RTVSPost2010PropOp51
 70
     0
102
RTVSPost2010Prop52
140
1.0
102
RTVSPost2010PropOp52
 70
     0
102
RTVSPost2010Prop53
 90
        2
102
RTVSPost2010PropOp53
 70
     1
102
RTVSPost2010Prop54
  1
strokes_ogs.tif
102
RTVSPost2010PropOp54
 70
     1
102
RTVSPost2010Prop55
280
     0
102
RTVSPost2010PropOp55
 70
     1
102
RTVSPost2010Prop56
140
1.0
102
RTVSPost2010PropOp56
 70
     1
102
RTVSPost2010Prop57
140
1.0
102
RTVSPost2010PropOp57
 70
     1
  0
XRECORD
  5
109DC
102
{ACAD_REACTORS
330
109DB
102
}
330
109DB
100
AcDbXrecord
280
     1
102
RTVSPropertyOp0
 70
     1
102
RTVSPropertyOp1
 70
     1
102
RTVSPropertyOp2
 70
     1
102
RTVSPropertyOp3
 70
     1
102
RTVSPropertyOp4
 70
     1
102
RTVSPropertyOp5
 70
     1
102
RTVSPropertyOp6
 70
     1
102
RTVSPropertyOp7
 70
     1
102
RTVSPropertyOp8
 70
     1
102
RTVSPropertyOp9
 70
     1
102
RTVSPropertyOp10
 70
     1
102
RTVSPropertyOp11
 70
     1
102
RTVSPropertyOp12
 70
     1
102
RTVSPropertyOp13
 70
     1
102
RTVSPropertyOp14
 70
     1
102
RTVSPropertyOp15
 70
     1
102
RTVSPropertyOp16
 70
     1
102
RTVSPropertyOp17
 70
     1
102
RTVSPropertyOp18
 70
     1
102
RTVSPropertyOp19
 70
     1
102
RTVSPropertyOp20
 70
     1
102
RTVSPropertyOp21
 70
     1
102
RTVSPropertyOp22
 70
     1
102
RTVSPropertyOp23
 70
     1
102
RTVSPropertyOp24
 70
     1
102
RTVSPropertyOp25
 70
     1
102
RTVSPropertyOp26
 70
     1
102
RTVSPropertyOp27
 70
     1
102
RTVSPropertyOp28
 70
     1
102
RTVSPropertyOp29
 70
     1
102
RTVSPropertyOp30
 70
     1
102
RTVSPropertyOp31
 70
     1
102
RTVSPropertyOp32
 70
     1
102
RTVSPropertyOp33
 70
     1
102
RTVSPropertyOp34
 70
     1
102
RTVSPropertyOp35
 70
     1
102
RTVSPropertyOp36
 70
     1
102
RTVSPropertyOp37
 70
     1
102
RTVSPropertyOp38
 70
     1
102
RTVSPropertyOp39
 70
     1
102
RTVSPropertyOp40
 70
     1
102
RTVSPropertyOp41
 70
     1
102
RTVSPropertyOp42
 70
     1
102
RTVSPropertyOp43
 70
     1
102
RTVSPropertyOp44
 70
     1
102
RTVSPropertyOp45
 70
     1
102
RTVSPropertyOp46
 70
     1
102
RTVSPropertyOp47
 70
     1
102
RTVSPropertyOp48
 70
     1
102
RTVSPropertyOp49
 70
     1
102
RTVSPropertyOp50
 70
     1
102
RTVSPropertyOp51
 70
     0
102
RTVSPropertyOp52
 70
     0
102
RTVSPropertyOp53
 70
     1
102
RTVSPropertyOp54
 70
     1
102
RTVSPropertyOp55
 70
     1
102
RTVSPropertyOp56
 70
     1
102
RTVSPropertyOp57
 70
     1
102
RTVSPost2010Prop28
280
     0
102
RTVSPost2010PropOp28
 70
     1
102
RTVSPost2010Prop29
280
     1
102
RTVSPost2010PropOp29
 70
     1
102
RTVSPost2010Prop30
280
     1
102
RTVSPost2010PropOp30
 70
     1
102
RTVSPost2010Prop31
280
     0
102
RTVSPost2010PropOp31
 70
     1
102
RTVSPost2010Prop32
280
     0
102
RTVSPost2010PropOp32
 70
     1
102
RTVSPost2010Prop33
280
     0
102
RTVSPost2010PropOp33
 70
     1
102
RTVSPost2010Prop34
280
     0
102
RTVSPost2010PropOp34
 70
     1
102
RTVSPost2010Prop35
280
     0
102
RTVSPost2010PropOp35
 70
     1
102
RTVSPost2010Prop36
280
     0
102
RTVSPost2010PropOp36
 70
     1
102
RTVSPost2010Prop37
 90
       50
102
RTVSPost2010PropOp37
 70
     1
102
RTVSPost2010Prop38
140
0.0
102
RTVSPost2010PropOp38
 70
     1
102
RTVSPost2010Prop39
140
1.0
102
RTVSPost2010PropOp39
 70
     1
102
RTVSPost2010Prop40
 90
        0
102
RTVSPost2010PropOp40
 70
     1
102
RTVSPost2010Prop41ColorIndex
 90
       18
102
RTVSPost2010Prop41ColorRGB
 90
        0
102
RTVSPost2010PropOp41
 70
     1
102
RTVSPost2010Prop42
 90
       50
102
RTVSPost2010PropOp42
 70
     1
102
RTVSPost2010Prop43
 90
        3
102
RTVSPost2010PropOp43
 70
     1
102
RTVSPost2010Prop44ColorIndex
 90
        5
102
RTVSPost2010Prop44ColorRGB
 90
      255
102
RTVSPost2010PropOp44
 70
     1
102
RTVSPost2010Prop45
280
     0
102
RTVSPost2010PropOp45
 70
     1
102
RTVSPost2010Prop46
 90
       50
102
RTVSPost2010PropOp46
 70
     1
102
RTVSPost2010Prop47
 90
       50
102
RTVSPost2010PropOp47
 70
     1
102
RTVSPost2010Prop48
 90
       50
102
RTVSPost2010PropOp48
 70
     1
102
RTVSPost2010Prop49
280
     0
102
RTVSPost2010PropOp49
 70
     1
102
RTVSPost2010Prop50
 90
       50
102
RTVSPost2010PropOp50
 70
     1
102
RTVSPost2010Prop51ColorIndex
 90
      256
102
RTVSPost2010Prop51ColorRGB
 90
-16777216
102
RTVSPost2010PropOp51
 70
     0
102
RTVSPost2010Prop52
140
1.0
102
RTVSPost2010PropOp52
 70
     0
102
RTVSPost2010Prop53
 90
        2
102
RTVSPost2010PropOp53
 70
     1
102
RTVSPost2010Prop54
  1
strokes_ogs.tif
102
RTVSPost2010PropOp54
 70
     1
102
RTVSPost2010Prop55
280
     0
102
RTVSPost2010PropOp55
 70
     1
102
RTVSPost2010Prop56
140
1.0
102
RTVSPost2010PropOp56
 70
     1
102
RTVSPost2010Prop57
140
1.0
102
RTVSPost2010PropOp57
 70
     1
  0
XRECORD
  5
109D6
102
{ACAD_REACTORS
330
109D5
102
}
330
109D5
100
AcDbXrecord
280
     1
102
RTVSPropertyOp0
 70
     1
102
RTVSPropertyOp1
 70
     1
102
RTVSPropertyOp2
 70
     1
102
RTVSPropertyOp3
 70
     1
102
RTVSPropertyOp4
 70
     1
102
RTVSPropertyOp5
 70
     1
102
RTVSPropertyOp6
 70
     1
102
RTVSPropertyOp7
 70
     1
102
RTVSPropertyOp8
 70
     1
102
RTVSPropertyOp9
 70
     1
102
RTVSPropertyOp10
 70
     1
102
RTVSPropertyOp11
 70
     1
102
RTVSPropertyOp12
 70
     1
102
RTVSPropertyOp13
 70
     1
102
RTVSPropertyOp14
 70
     1
102
RTVSPropertyOp15
 70
     1
102
RTVSPropertyOp16
 70
     1
102
RTVSPropertyOp17
 70
     1
102
RTVSPropertyOp18
 70
     1
102
RTVSPropertyOp19
 70
     1
102
RTVSPropertyOp20
 70
     1
102
RTVSPropertyOp21
 70
     1
102
RTVSPropertyOp22
 70
     1
102
RTVSPropertyOp23
 70
     1
102
RTVSPropertyOp24
 70
     1
102
RTVSPropertyOp25
 70
     1
102
RTVSPropertyOp26
 70
     1
102
RTVSPropertyOp27
 70
     1
102
RTVSPropertyOp28
 70
     1
102
RTVSPropertyOp29
 70
     1
102
RTVSPropertyOp30
 70
     1
102
RTVSPropertyOp31
 70
     1
102
RTVSPropertyOp32
 70
     1
102
RTVSPropertyOp33
 70
     1
102
RTVSPropertyOp34
 70
     1
102
RTVSPropertyOp35
 70
     1
102
RTVSPropertyOp36
 70
     1
102
RTVSPropertyOp37
 70
     1
102
RTVSPropertyOp38
 70
     1
102
RTVSPropertyOp39
 70
     1
102
RTVSPropertyOp40
 70
     1
102
RTVSPropertyOp41
 70
     1
102
RTVSPropertyOp42
 70
     1
102
RTVSPropertyOp43
 70
     1
102
RTVSPropertyOp44
 70
     1
102
RTVSPropertyOp45
 70
     1
102
RTVSPropertyOp46
 70
     1
102
RTVSPropertyOp47
 70
     1
102
RTVSPropertyOp48
 70
     1
102
RTVSPropertyOp49
 70
     1
102
RTVSPropertyOp50
 70
     1
102
RTVSPropertyOp51
 70
     0
102
RTVSPropertyOp52
 70
     0
102
RTVSPropertyOp53
 70
     1
102
RTVSPropertyOp54
 70
     1
102
RTVSPropertyOp55
 70
     1
102
RTVSPropertyOp56
 70
     1
102
RTVSPropertyOp57
 70
     1
102
RTVSPost2010Prop28
280
     0
102
RTVSPost2010PropOp28
 70
     1
102
RTVSPost2010Prop29
280
     1
102
RTVSPost2010PropOp29
 70
     1
102
RTVSPost2010Prop30
280
     1
102
RTVSPost2010PropOp30
 70
     1
102
RTVSPost2010Prop31
280
     0
102
RTVSPost2010PropOp31
 70
     1
102
RTVSPost2010Prop32
280
     0
102
RTVSPost2010PropOp32
 70
     1
102
RTVSPost2010Prop33
280
     0
102
RTVSPost2010PropOp33
 70
     1
102
RTVSPost2010Prop34
280
     0
102
RTVSPost2010PropOp34
 70
     1
102
RTVSPost2010Prop35
280
     0
102
RTVSPost2010PropOp35
 70
     1
102
RTVSPost2010Prop36
280
     0
102
RTVSPost2010PropOp36
 70
     1
102
RTVSPost2010Prop37
 90
       50
102
RTVSPost2010PropOp37
 70
     1
102
RTVSPost2010Prop38
140
0.0
102
RTVSPost2010PropOp38
 70
     1
102
RTVSPost2010Prop39
140
1.0
102
RTVSPost2010PropOp39
 70
     1
102
RTVSPost2010Prop40
 90
        0
102
RTVSPost2010PropOp40
 70
     1
102
RTVSPost2010Prop41ColorIndex
 90
       18
102
RTVSPost2010Prop41ColorRGB
 90
        0
102
RTVSPost2010PropOp41
 70
     1
102
RTVSPost2010Prop42
 90
       50
102
RTVSPost2010PropOp42
 70
     1
102
RTVSPost2010Prop43
 90
        3
102
RTVSPost2010PropOp43
 70
     1
102
RTVSPost2010Prop44ColorIndex
 90
        5
102
RTVSPost2010Prop44ColorRGB
 90
      255
102
RTVSPost2010PropOp44
 70
     1
102
RTVSPost2010Prop45
280
     0
102
RTVSPost2010PropOp45
 70
     1
102
RTVSPost2010Prop46
 90
       50
102
RTVSPost2010PropOp46
 70
     1
102
RTVSPost2010Prop47
 90
       50
102
RTVSPost2010PropOp47
 70
     1
102
RTVSPost2010Prop48
 90
       50
102
RTVSPost2010PropOp48
 70
     1
102
RTVSPost2010Prop49
280
     0
102
RTVSPost2010PropOp49
 70
     1
102
RTVSPost2010Prop50
 90
       50
102
RTVSPost2010PropOp50
 70
     1
102
RTVSPost2010Prop51ColorIndex
 90
      256
102
RTVSPost2010Prop51ColorRGB
 90
-16777216
102
RTVSPost2010PropOp51
 70
     0
102
RTVSPost2010Prop52
140
1.0
102
RTVSPost2010PropOp52
 70
     0
102
RTVSPost2010Prop53
 90
        2
102
RTVSPost2010PropOp53
 70
     1
102
RTVSPost2010Prop54
  1
strokes_ogs.tif
102
RTVSPost2010PropOp54
 70
     1
102
RTVSPost2010Prop55
280
     0
102
RTVSPost2010PropOp55
 70
     1
102
RTVSPost2010Prop56
140
1.0
102
RTVSPost2010PropOp56
 70
     1
102
RTVSPost2010Prop57
140
1.0
102
RTVSPost2010PropOp57
 70
     1
  0
XRECORD
  5
109D8
102
{ACAD_REACTORS
330
109D7
102
}
330
109D7
100
AcDbXrecord
280
     1
102
RTVSPropertyOp0
 70
     1
102
RTVSPropertyOp1
 70
     1
102
RTVSPropertyOp2
 70
     1
102
RTVSPropertyOp3
 70
     1
102
RTVSPropertyOp4
 70
     1
102
RTVSPropertyOp5
 70
     1
102
RTVSPropertyOp6
 70
     1
102
RTVSPropertyOp7
 70
     1
102
RTVSPropertyOp8
 70
     1
102
RTVSPropertyOp9
 70
     1
102
RTVSPropertyOp10
 70
     1
102
RTVSPropertyOp11
 70
     1
102
RTVSPropertyOp12
 70
     1
102
RTVSPropertyOp13
 70
     1
102
RTVSPropertyOp14
 70
     1
102
RTVSPropertyOp15
 70
     1
102
RTVSPropertyOp16
 70
     1
102
RTVSPropertyOp17
 70
     1
102
RTVSPropertyOp18
 70
     1
102
RTVSPropertyOp19
 70
     1
102
RTVSPropertyOp20
 70
     1
102
RTVSPropertyOp21
 70
     1
102
RTVSPropertyOp22
 70
     1
102
RTVSPropertyOp23
 70
     1
102
RTVSPropertyOp24
 70
     1
102
RTVSPropertyOp25
 70
     1
102
RTVSPropertyOp26
 70
     1
102
RTVSPropertyOp27
 70
     1
102
RTVSPropertyOp28
 70
     1
102
RTVSPropertyOp29
 70
     1
102
RTVSPropertyOp30
 70
     1
102
RTVSPropertyOp31
 70
     1
102
RTVSPropertyOp32
 70
     1
102
RTVSPropertyOp33
 70
     1
102
RTVSPropertyOp34
 70
     1
102
RTVSPropertyOp35
 70
     1
102
RTVSPropertyOp36
 70
     1
102
RTVSPropertyOp37
 70
     1
102
RTVSPropertyOp38
 70
     1
102
RTVSPropertyOp39
 70
     1
102
RTVSPropertyOp40
 70
     1
102
RTVSPropertyOp41
 70
     1
102
RTVSPropertyOp42
 70
     1
102
RTVSPropertyOp43
 70
     1
102
RTVSPropertyOp44
 70
     1
102
RTVSPropertyOp45
 70
     1
102
RTVSPropertyOp46
 70
     1
102
RTVSPropertyOp47
 70
     1
102
RTVSPropertyOp48
 70
     1
102
RTVSPropertyOp49
 70
     1
102
RTVSPropertyOp50
 70
     1
102
RTVSPropertyOp51
 70
     0
102
RTVSPropertyOp52
 70
     0
102
RTVSPropertyOp53
 70
     1
102
RTVSPropertyOp54
 70
     1
102
RTVSPropertyOp55
 70
     1
102
RTVSPropertyOp56
 70
     1
102
RTVSPropertyOp57
 70
     1
102
RTVSPost2010Prop28
280
     0
102
RTVSPost2010PropOp28
 70
     1
102
RTVSPost2010Prop29
280
     1
102
RTVSPost2010PropOp29
 70
     1
102
RTVSPost2010Prop30
280
     1
102
RTVSPost2010PropOp30
 70
     1
102
RTVSPost2010Prop31
280
     0
102
RTVSPost2010PropOp31
 70
     1
102
RTVSPost2010Prop32
280
     0
102
RTVSPost2010PropOp32
 70
     1
102
RTVSPost2010Prop33
280
     0
102
RTVSPost2010PropOp33
 70
     1
102
RTVSPost2010Prop34
280
     0
102
RTVSPost2010PropOp34
 70
     1
102
RTVSPost2010Prop35
280
     0
102
RTVSPost2010PropOp35
 70
     1
102
RTVSPost2010Prop36
280
     0
102
RTVSPost2010PropOp36
 70
     1
102
RTVSPost2010Prop37
 90
       50
102
RTVSPost2010PropOp37
 70
     1
102
RTVSPost2010Prop38
140
0.0
102
RTVSPost2010PropOp38
 70
     1
102
RTVSPost2010Prop39
140
1.0
102
RTVSPost2010PropOp39
 70
     1
102
RTVSPost2010Prop40
 90
        0
102
RTVSPost2010PropOp40
 70
     1
102
RTVSPost2010Prop41ColorIndex
 90
       18
102
RTVSPost2010Prop41ColorRGB
 90
        0
102
RTVSPost2010PropOp41
 70
     1
102
RTVSPost2010Prop42
 90
       50
102
RTVSPost2010PropOp42
 70
     1
102
RTVSPost2010Prop43
 90
        3
102
RTVSPost2010PropOp43
 70
     1
102
RTVSPost2010Prop44ColorIndex
 90
        5
102
RTVSPost2010Prop44ColorRGB
 90
      255
102
RTVSPost2010PropOp44
 70
     1
102
RTVSPost2010Prop45
280
     0
102
RTVSPost2010PropOp45
 70
     1
102
RTVSPost2010Prop46
 90
       50
102
RTVSPost2010PropOp46
 70
     1
102
RTVSPost2010Prop47
 90
       50
102
RTVSPost2010PropOp47
 70
     1
102
RTVSPost2010Prop48
 90
       50
102
RTVSPost2010PropOp48
 70
     1
102
RTVSPost2010Prop49
280
     0
102
RTVSPost2010PropOp49
 70
     1
102
RTVSPost2010Prop50
 90
       50
102
RTVSPost2010PropOp50
 70
     1
102
RTVSPost2010Prop51ColorIndex
 90
      256
102
RTVSPost2010Prop51ColorRGB
 90
-16777216
102
RTVSPost2010PropOp51
 70
     0
102
RTVSPost2010Prop52
140
1.0
102
RTVSPost2010PropOp52
 70
     0
102
RTVSPost2010Prop53
 90
        2
102
RTVSPost2010PropOp53
 70
     1
102
RTVSPost2010Prop54
  1
strokes_ogs.tif
102
RTVSPost2010PropOp54
 70
     1
102
RTVSPost2010Prop55
280
     0
102
RTVSPost2010PropOp55
 70
     1
102
RTVSPost2010Prop56
140
1.0
102
RTVSPost2010PropOp56
 70
     1
102
RTVSPost2010Prop57
140
1.0
102
RTVSPost2010PropOp57
 70
     1
  0
XRECORD
  5
109C8
102
{ACAD_REACTORS
330
109C7
102
}
330
109C7
100
AcDbXrecord
280
     1
102
RTVSPropertyOp0
 70
     1
102
RTVSPropertyOp1
 70
     1
102
RTVSPropertyOp2
 70
     1
102
RTVSPropertyOp3
 70
     1
102
RTVSPropertyOp4
 70
     1
102
RTVSPropertyOp5
 70
     1
102
RTVSPropertyOp6
 70
     1
102
RTVSPropertyOp7
 70
     1
102
RTVSPropertyOp8
 70
     1
102
RTVSPropertyOp9
 70
     1
102
RTVSPropertyOp10
 70
     1
102
RTVSPropertyOp11
 70
     1
102
RTVSPropertyOp12
 70
     1
102
RTVSPropertyOp13
 70
     1
102
RTVSPropertyOp14
 70
     1
102
RTVSPropertyOp15
 70
     1
102
RTVSPropertyOp16
 70
     1
102
RTVSPropertyOp17
 70
     1
102
RTVSPropertyOp18
 70
     1
102
RTVSPropertyOp19
 70
     1
102
RTVSPropertyOp20
 70
     1
102
RTVSPropertyOp21
 70
     1
102
RTVSPropertyOp22
 70
     1
102
RTVSPropertyOp23
 70
     1
102
RTVSPropertyOp24
 70
     1
102
RTVSPropertyOp25
 70
     1
102
RTVSPropertyOp26
 70
     1
102
RTVSPropertyOp27
 70
     1
102
RTVSPropertyOp28
 70
     1
102
RTVSPropertyOp29
 70
     1
102
RTVSPropertyOp30
 70
     1
102
RTVSPropertyOp31
 70
     1
102
RTVSPropertyOp32
 70
     1
102
RTVSPropertyOp33
 70
     1
102
RTVSPropertyOp34
 70
     1
102
RTVSPropertyOp35
 70
     1
102
RTVSPropertyOp36
 70
     1
102
RTVSPropertyOp37
 70
     1
102
RTVSPropertyOp38
 70
     1
102
RTVSPropertyOp39
 70
     1
102
RTVSPropertyOp40
 70
     1
102
RTVSPropertyOp41
 70
     1
102
RTVSPropertyOp42
 70
     1
102
RTVSPropertyOp43
 70
     1
102
RTVSPropertyOp44
 70
     1
102
RTVSPropertyOp45
 70
     1
102
RTVSPropertyOp46
 70
     1
102
RTVSPropertyOp47
 70
     1
102
RTVSPropertyOp48
 70
     1
102
RTVSPropertyOp49
 70
     1
102
RTVSPropertyOp50
 70
     1
102
RTVSPropertyOp51
 70
     0
102
RTVSPropertyOp52
 70
     0
102
RTVSPropertyOp53
 70
     1
102
RTVSPropertyOp54
 70
     1
102
RTVSPropertyOp55
 70
     1
102
RTVSPropertyOp56
 70
     1
102
RTVSPropertyOp57
 70
     1
102
RTVSPost2010Prop28
280
     0
102
RTVSPost2010PropOp28
 70
     1
102
RTVSPost2010Prop29
280
     1
102
RTVSPost2010PropOp29
 70
     1
102
RTVSPost2010Prop30
280
     1
102
RTVSPost2010PropOp30
 70
     1
102
RTVSPost2010Prop31
280
     0
102
RTVSPost2010PropOp31
 70
     1
102
RTVSPost2010Prop32
280
     0
102
RTVSPost2010PropOp32
 70
     1
102
RTVSPost2010Prop33
280
     0
102
RTVSPost2010PropOp33
 70
     1
102
RTVSPost2010Prop34
280
     0
102
RTVSPost2010PropOp34
 70
     1
102
RTVSPost2010Prop35
280
     0
102
RTVSPost2010PropOp35
 70
     1
102
RTVSPost2010Prop36
280
     0
102
RTVSPost2010PropOp36
 70
     1
102
RTVSPost2010Prop37
 90
       50
102
RTVSPost2010PropOp37
 70
     1
102
RTVSPost2010Prop38
140
0.0
102
RTVSPost2010PropOp38
 70
     1
102
RTVSPost2010Prop39
140
1.0
102
RTVSPost2010PropOp39
 70
     1
102
RTVSPost2010Prop40
 90
        0
102
RTVSPost2010PropOp40
 70
     1
102
RTVSPost2010Prop41ColorIndex
 90
       18
102
RTVSPost2010Prop41ColorRGB
 90
        0
102
RTVSPost2010PropOp41
 70
     1
102
RTVSPost2010Prop42
 90
       50
102
RTVSPost2010PropOp42
 70
     1
102
RTVSPost2010Prop43
 90
        3
102
RTVSPost2010PropOp43
 70
     1
102
RTVSPost2010Prop44ColorIndex
 90
        5
102
RTVSPost2010Prop44ColorRGB
 90
      255
102
RTVSPost2010PropOp44
 70
     1
102
RTVSPost2010Prop45
280
     0
102
RTVSPost2010PropOp45
 70
     1
102
RTVSPost2010Prop46
 90
       50
102
RTVSPost2010PropOp46
 70
     1
102
RTVSPost2010Prop47
 90
       50
102
RTVSPost2010PropOp47
 70
     1
102
RTVSPost2010Prop48
 90
       50
102
RTVSPost2010PropOp48
 70
     1
102
RTVSPost2010Prop49
280
     0
102
RTVSPost2010PropOp49
 70
     1
102
RTVSPost2010Prop50
 90
       50
102
RTVSPost2010PropOp50
 70
     1
102
RTVSPost2010Prop51ColorIndex
 90
      256
102
RTVSPost2010Prop51ColorRGB
 90
-16777216
102
RTVSPost2010PropOp51
 70
     0
102
RTVSPost2010Prop52
140
1.0
102
RTVSPost2010PropOp52
 70
     0
102
RTVSPost2010Prop53
 90
        2
102
RTVSPost2010PropOp53
 70
     1
102
RTVSPost2010Prop54
  1
strokes_ogs.tif
102
RTVSPost2010PropOp54
 70
     1
102
RTVSPost2010Prop55
280
     0
102
RTVSPost2010PropOp55
 70
     1
102
RTVSPost2010Prop56
140
1.0
102
RTVSPost2010PropOp56
 70
     1
102
RTVSPost2010Prop57
140
1.0
102
RTVSPost2010PropOp57
 70
     1
  0
XRECORD
  5
109BA
102
{ACAD_REACTORS
330
109B9
102
}
330
109B9
100
AcDbXrecord
280
     1
102
RTVSPropertyOp0
 70
     1
102
RTVSPropertyOp1
 70
     1
102
RTVSPropertyOp2
 70
     1
102
RTVSPropertyOp3
 70
     1
102
RTVSPropertyOp4
 70
     1
102
RTVSPropertyOp5
 70
     1
102
RTVSPropertyOp6
 70
     1
102
RTVSPropertyOp7
 70
     1
102
RTVSPropertyOp8
 70
     1
102
RTVSPropertyOp9
 70
     1
102
RTVSPropertyOp10
 70
     1
102
RTVSPropertyOp11
 70
     1
102
RTVSPropertyOp12
 70
     1
102
RTVSPropertyOp13
 70
     1
102
RTVSPropertyOp14
 70
     1
102
RTVSPropertyOp15
 70
     1
102
RTVSPropertyOp16
 70
     1
102
RTVSPropertyOp17
 70
     1
102
RTVSPropertyOp18
 70
     1
102
RTVSPropertyOp19
 70
     1
102
RTVSPropertyOp20
 70
     1
102
RTVSPropertyOp21
 70
     1
102
RTVSPropertyOp22
 70
     1
102
RTVSPropertyOp23
 70
     1
102
RTVSPropertyOp24
 70
     1
102
RTVSPropertyOp25
 70
     1
102
RTVSPropertyOp26
 70
     1
102
RTVSPropertyOp27
 70
     1
102
RTVSPropertyOp28
 70
     1
102
RTVSPropertyOp29
 70
     1
102
RTVSPropertyOp30
 70
     1
102
RTVSPropertyOp31
 70
     1
102
RTVSPropertyOp32
 70
     1
102
RTVSPropertyOp33
 70
     1
102
RTVSPropertyOp34
 70
     1
102
RTVSPropertyOp35
 70
     1
102
RTVSPropertyOp36
 70
     1
102
RTVSPropertyOp37
 70
     1
102
RTVSPropertyOp38
 70
     1
102
RTVSPropertyOp39
 70
     1
102
RTVSPropertyOp40
 70
     1
102
RTVSPropertyOp41
 70
     1
102
RTVSPropertyOp42
 70
     1
102
RTVSPropertyOp43
 70
     1
102
RTVSPropertyOp44
 70
     1
102
RTVSPropertyOp45
 70
     1
102
RTVSPropertyOp46
 70
     1
102
RTVSPropertyOp47
 70
     1
102
RTVSPropertyOp48
 70
     1
102
RTVSPropertyOp49
 70
     1
102
RTVSPropertyOp50
 70
     1
102
RTVSPropertyOp51
 70
     0
102
RTVSPropertyOp52
 70
     0
102
RTVSPropertyOp53
 70
     1
102
RTVSPropertyOp54
 70
     1
102
RTVSPropertyOp55
 70
     1
102
RTVSPropertyOp56
 70
     1
102
RTVSPropertyOp57
 70
     1
102
RTVSPost2010Prop28
280
     0
102
RTVSPost2010PropOp28
 70
     1
102
RTVSPost2010Prop29
280
     1
102
RTVSPost2010PropOp29
 70
     1
102
RTVSPost2010Prop30
280
     1
102
RTVSPost2010PropOp30
 70
     1
102
RTVSPost2010Prop31
280
     0
102
RTVSPost2010PropOp31
 70
     1
102
RTVSPost2010Prop32
280
     0
102
RTVSPost2010PropOp32
 70
     1
102
RTVSPost2010Prop33
280
     0
102
RTVSPost2010PropOp33
 70
     1
102
RTVSPost2010Prop34
280
     0
102
RTVSPost2010PropOp34
 70
     1
102
RTVSPost2010Prop35
280
     0
102
RTVSPost2010PropOp35
 70
     1
102
RTVSPost2010Prop36
280
     0
102
RTVSPost2010PropOp36
 70
     1
102
RTVSPost2010Prop37
 90
       50
102
RTVSPost2010PropOp37
 70
     1
102
RTVSPost2010Prop38
140
0.0
102
RTVSPost2010PropOp38
 70
     1
102
RTVSPost2010Prop39
140
1.0
102
RTVSPost2010PropOp39
 70
     1
102
RTVSPost2010Prop40
 90
        0
102
RTVSPost2010PropOp40
 70
     1
102
RTVSPost2010Prop41ColorIndex
 90
       18
102
RTVSPost2010Prop41ColorRGB
 90
        0
102
RTVSPost2010PropOp41
 70
     1
102
RTVSPost2010Prop42
 90
       50
102
RTVSPost2010PropOp42
 70
     1
102
RTVSPost2010Prop43
 90
        3
102
RTVSPost2010PropOp43
 70
     1
102
RTVSPost2010Prop44ColorIndex
 90
        5
102
RTVSPost2010Prop44ColorRGB
 90
      255
102
RTVSPost2010PropOp44
 70
     1
102
RTVSPost2010Prop45
280
     0
102
RTVSPost2010PropOp45
 70
     1
102
RTVSPost2010Prop46
 90
       50
102
RTVSPost2010PropOp46
 70
     1
102
RTVSPost2010Prop47
 90
       50
102
RTVSPost2010PropOp47
 70
     1
102
RTVSPost2010Prop48
 90
       50
102
RTVSPost2010PropOp48
 70
     1
102
RTVSPost2010Prop49
280
     0
102
RTVSPost2010PropOp49
 70
     1
102
RTVSPost2010Prop50
 90
       50
102
RTVSPost2010PropOp50
 70
     1
102
RTVSPost2010Prop51ColorIndex
 90
      256
102
RTVSPost2010Prop51ColorRGB
 90
-16777216
102
RTVSPost2010PropOp51
 70
     0
102
RTVSPost2010Prop52
140
1.0
102
RTVSPost2010PropOp52
 70
     0
102
RTVSPost2010Prop53
 90
        2
102
RTVSPost2010PropOp53
 70
     1
102
RTVSPost2010Prop54
  1
strokes_ogs.tif
102
RTVSPost2010PropOp54
 70
     1
102
RTVSPost2010Prop55
280
     0
102
RTVSPost2010PropOp55
 70
     1
102
RTVSPost2010Prop56
140
1.0
102
RTVSPost2010PropOp56
 70
     1
102
RTVSPost2010Prop57
140
1.0
102
RTVSPost2010PropOp57
 70
     1
  0
XRECORD
  5
109DA
102
{ACAD_REACTORS
330
109D9
102
}
330
109D9
100
AcDbXrecord
280
     1
102
RTVSPropertyOp0
 70
     1
102
RTVSPropertyOp1
 70
     1
102
RTVSPropertyOp2
 70
     1
102
RTVSPropertyOp3
 70
     1
102
RTVSPropertyOp4
 70
     1
102
RTVSPropertyOp5
 70
     1
102
RTVSPropertyOp6
 70
     1
102
RTVSPropertyOp7
 70
     1
102
RTVSPropertyOp8
 70
     1
102
RTVSPropertyOp9
 70
     1
102
RTVSPropertyOp10
 70
     1
102
RTVSPropertyOp11
 70
     1
102
RTVSPropertyOp12
 70
     1
102
RTVSPropertyOp13
 70
     1
102
RTVSPropertyOp14
 70
     1
102
RTVSPropertyOp15
 70
     1
102
RTVSPropertyOp16
 70
     1
102
RTVSPropertyOp17
 70
     1
102
RTVSPropertyOp18
 70
     1
102
RTVSPropertyOp19
 70
     1
102
RTVSPropertyOp20
 70
     1
102
RTVSPropertyOp21
 70
     1
102
RTVSPropertyOp22
 70
     1
102
RTVSPropertyOp23
 70
     1
102
RTVSPropertyOp24
 70
     1
102
RTVSPropertyOp25
 70
     1
102
RTVSPropertyOp26
 70
     1
102
RTVSPropertyOp27
 70
     1
102
RTVSPropertyOp28
 70
     1
102
RTVSPropertyOp29
 70
     1
102
RTVSPropertyOp30
 70
     1
102
RTVSPropertyOp31
 70
     1
102
RTVSPropertyOp32
 70
     1
102
RTVSPropertyOp33
 70
     1
102
RTVSPropertyOp34
 70
     1
102
RTVSPropertyOp35
 70
     1
102
RTVSPropertyOp36
 70
     1
102
RTVSPropertyOp37
 70
     1
102
RTVSPropertyOp38
 70
     1
102
RTVSPropertyOp39
 70
     1
102
RTVSPropertyOp40
 70
     1
102
RTVSPropertyOp41
 70
     1
102
RTVSPropertyOp42
 70
     1
102
RTVSPropertyOp43
 70
     1
102
RTVSPropertyOp44
 70
     1
102
RTVSPropertyOp45
 70
     1
102
RTVSPropertyOp46
 70
     1
102
RTVSPropertyOp47
 70
     1
102
RTVSPropertyOp48
 70
     1
102
RTVSPropertyOp49
 70
     1
102
RTVSPropertyOp50
 70
     1
102
RTVSPropertyOp51
 70
     0
102
RTVSPropertyOp52
 70
     0
102
RTVSPropertyOp53
 70
     1
102
RTVSPropertyOp54
 70
     1
102
RTVSPropertyOp55
 70
     1
102
RTVSPropertyOp56
 70
     1
102
RTVSPropertyOp57
 70
     1
102
RTVSPost2010Prop28
280
     0
102
RTVSPost2010PropOp28
 70
     1
102
RTVSPost2010Prop29
280
     1
102
RTVSPost2010PropOp29
 70
     1
102
RTVSPost2010Prop30
280
     1
102
RTVSPost2010PropOp30
 70
     1
102
RTVSPost2010Prop31
280
     0
102
RTVSPost2010PropOp31
 70
     1
102
RTVSPost2010Prop32
280
     0
102
RTVSPost2010PropOp32
 70
     1
102
RTVSPost2010Prop33
280
     0
102
RTVSPost2010PropOp33
 70
     1
102
RTVSPost2010Prop34
280
     0
102
RTVSPost2010PropOp34
 70
     1
102
RTVSPost2010Prop35
280
     0
102
RTVSPost2010PropOp35
 70
     1
102
RTVSPost2010Prop36
280
     0
102
RTVSPost2010PropOp36
 70
     1
102
RTVSPost2010Prop37
 90
       50
102
RTVSPost2010PropOp37
 70
     1
102
RTVSPost2010Prop38
140
0.0
102
RTVSPost2010PropOp38
 70
     1
102
RTVSPost2010Prop39
140
1.0
102
RTVSPost2010PropOp39
 70
     1
102
RTVSPost2010Prop40
 90
        0
102
RTVSPost2010PropOp40
 70
     1
102
RTVSPost2010Prop41ColorIndex
 90
       18
102
RTVSPost2010Prop41ColorRGB
 90
        0
102
RTVSPost2010PropOp41
 70
     1
102
RTVSPost2010Prop42
 90
       50
102
RTVSPost2010PropOp42
 70
     1
102
RTVSPost2010Prop43
 90
        3
102
RTVSPost2010PropOp43
 70
     1
102
RTVSPost2010Prop44ColorIndex
 90
        5
102
RTVSPost2010Prop44ColorRGB
 90
      255
102
RTVSPost2010PropOp44
 70
     1
102
RTVSPost2010Prop45
280
     0
102
RTVSPost2010PropOp45
 70
     1
102
RTVSPost2010Prop46
 90
       50
102
RTVSPost2010PropOp46
 70
     1
102
RTVSPost2010Prop47
 90
       50
102
RTVSPost2010PropOp47
 70
     1
102
RTVSPost2010Prop48
 90
       50
102
RTVSPost2010PropOp48
 70
     1
102
RTVSPost2010Prop49
280
     0
102
RTVSPost2010PropOp49
 70
     1
102
RTVSPost2010Prop50
 90
       50
102
RTVSPost2010PropOp50
 70
     1
102
RTVSPost2010Prop51ColorIndex
 90
      256
102
RTVSPost2010Prop51ColorRGB
 90
-16777216
102
RTVSPost2010PropOp51
 70
     0
102
RTVSPost2010Prop52
140
1.0
102
RTVSPost2010PropOp52
 70
     0
102
RTVSPost2010Prop53
 90
        2
102
RTVSPost2010PropOp53
 70
     1
102
RTVSPost2010Prop54
  1
strokes_ogs.tif
102
RTVSPost2010PropOp54
 70
     1
102
RTVSPost2010Prop55
280
     0
102
RTVSPost2010PropOp55
 70
     1
102
RTVSPost2010Prop56
140
1.0
102
RTVSPost2010PropOp56
 70
     1
102
RTVSPost2010Prop57
140
1.0
102
RTVSPost2010PropOp57
 70
     1
  0
ENDSEC
  0
EOF
