  0
SECTION
  2
HEADER
  9
$ACADVER
  1
AC1015
  9
$ACADMAINTVER
 70
     6
  9
$DWGCODEPAGE
  3
ANSI_1252
  9
$INSBASE
 10
0.0
 20
0.0
 30
0.0
  9
$EXTMIN
 10
53278.66732959653
 20
-17333.20127063943
 30
-0.0063458448353231
  9
$EXTMAX
 10
67212.74396879907
 20
-7586.732235503674
 30
0.0485849576632518
  9
$LIMMIN
 10
0.0
 20
0.0
  9
$LIMMAX
 10
420.0
 20
297.0
  9
$ORTHOMODE
 70
     0
  9
$REGENMODE
 70
     1
  9
$FILLMODE
 70
     1
  9
$QTEXTMODE
 70
     0
  9
$MIRRTEXT
 70
     0
  9
$LTSCALE
 40
1.0
  9
$ATTMODE
 70
     1
  9
$TEXTSIZE
 40
2.5
  9
$TRACEWID
 40
1.0
  9
$TEXTSTYLE
  7
Standard
  9
$CLAYER
  8
0
  9
$CELTYPE
  6
ByLayer
  9
$CECOLOR
 62
   256
  9
$CELTSCALE
 40
1.0
  9
$DISPSILH
 70
     0
  9
$DIMSCALE
 40
1.0
  9
$DIMASZ
 40
2.5
  9
$DIMEXO
 40
0.625
  9
$DIMDLI
 40
3.75
  9
$DIMRND
 40
0.0
  9
$DIMDLE
 40
0.0
  9
$DIMEXE
 40
1.25
  9
$DIMTP
 40
0.0
  9
$DIMTM
 40
0.0
  9
$DIMTXT
 40
2.5
  9
$DIMCEN
 40
2.5
  9
$DIMTSZ
 40
0.0
  9
$DIMTOL
 70
     0
  9
$DIMLIM
 70
     0
  9
$DIMTIH
 70
     0
  9
$DIMTOH
 70
     0
  9
$DIMSE1
 70
     0
  9
$DIMSE2
 70
     0
  9
$DIMTAD
 70
     1
  9
$DIMZIN
 70
     8
  9
$DIMBLK
  1

  9
$DIMASO
 70
     1
  9
$DIMSHO
 70
     1
  9
$DIMPOST
  1

  9
$DIMAPOST
  1

  9
$DIMALT
 70
     0
  9
$DIMALTD
 70
     3
  9
$DIMALTF
 40
0.03937007874016
  9
$DIMLFAC
 40
1.0
  9
$DIMTOFL
 70
     1
  9
$DIMTVP
 40
0.0
  9
$DIMTIX
 70
     0
  9
$DIMSOXD
 70
     0
  9
$DIMSAH
 70
     0
  9
$DIMBLK1
  1

  9
$DIMBLK2
  1

  9
$DIMSTYLE
  2
ISO-25
  9
$DIMCLRD
 70
     0
  9
$DIMCLRE
 70
     0
  9
$DIMCLRT
 70
     0
  9
$DIMTFAC
 40
1.0
  9
$DIMGAP
 40
0.625
  9
$DIMJUST
 70
     0
  9
$DIMSD1
 70
     0
  9
$DIMSD2
 70
     0
  9
$DIMTOLJ
 70
     0
  9
$DIMTZIN
 70
     8
  9
$DIMALTZ
 70
     0
  9
$DIMALTTZ
 70
     0
  9
$DIMUPT
 70
     0
  9
$DIMDEC
 70
     2
  9
$DIMTDEC
 70
     2
  9
$DIMALTU
 70
     2
  9
$DIMALTTD
 70
     3
  9
$DIMTXSTY
  7
Standard
  9
$DIMAUNIT
 70
     0
  9
$DIMADEC
 70
     0
  9
$DIMALTRND
 40
0.0
  9
$DIMAZIN
 70
     0
  9
$DIMDSEP
 70
    44
  9
$DIMATFIT
 70
     3
  9
$DIMFRAC
 70
     0
  9
$DIMLDRBLK
  1

  9
$DIMLUNIT
 70
     2
  9
$DIMLWD
 70
    -2
  9
$DIMLWE
 70
    -2
  9
$DIMTMOVE
 70
     0
  9
$LUNITS
 70
     2
  9
$LUPREC
 70
     4
  9
$SKETCHINC
 40
1.0
  9
$FILLETRAD
 40
0.0
  9
$AUNITS
 70
     0
  9
$AUPREC
 70
     0
  9
$MENU
  1
.
  9
$ELEVATION
 40
0.0
  9
$PELEVATION
 40
0.0
  9
$THICKNESS
 40
0.0
  9
$LIMCHECK
 70
     0
  9
$CHAMFERA
 40
0.0
  9
$CHAMFERB
 40
0.0
  9
$CHAMFERC
 40
0.0
  9
$CHAMFERD
 40
0.0
  9
$SKPOLY
 70
     0
  9
$TDCREATE
 40
2455812.417308796
  9
$TDUCREATE
 40
2455812.37564213
  9
$TDUPDATE
 40
2460301.587261042
  9
$TDUUPDATE
 40
2460301.545594375
  9
$TDINDWG
 40
0.0150535417
  9
$TDUSRTIMER
 40
0.0150535185
  9
$USRTIMER
 70
     1
  9
$ANGBASE
 50
0.0
  9
$ANGDIR
 70
     0
  9
$PDMODE
 70
     0
  9
$PDSIZE
 40
0.0
  9
$PLINEWID
 40
0.0
  9
$SPLFRAME
 70
     0
  9
$SPLINETYPE
 70
     6
  9
$SPLINESEGS
 70
     8
  9
$HANDSEED
  5
188B1
  9
$SURFTAB1
 70
     6
  9
$SURFTAB2
 70
     6
  9
$SURFTYPE
 70
     6
  9
$SURFU
 70
     6
  9
$SURFV
 70
     6
  9
$UCSBASE
  2

  9
$UCSNAME
  2

  9
$UCSORG
 10
0.0
 20
0.0
 30
0.0
  9
$UCSXDIR
 10
1.0
 20
0.0
 30
0.0
  9
$UCSYDIR
 10
0.0
 20
1.0
 30
0.0
  9
$UCSORTHOREF
  2

  9
$UCSORTHOVIEW
 70
     0
  9
$UCSORGTOP
 10
0.0
 20
0.0
 30
0.0
  9
$UCSORGBOTTOM
 10
0.0
 20
0.0
 30
0.0
  9
$UCSORGLEFT
 10
0.0
 20
0.0
 30
0.0
  9
$UCSORGRIGHT
 10
0.0
 20
0.0
 30
0.0
  9
$UCSORGFRONT
 10
0.0
 20
0.0
 30
0.0
  9
$UCSORGBACK
 10
0.0
 20
0.0
 30
0.0
  9
$PUCSBASE
  2

  9
$PUCSNAME
  2

  9
$PUCSORG
 10
0.0
 20
0.0
 30
0.0
  9
$PUCSXDIR
 10
1.0
 20
0.0
 30
0.0
  9
$PUCSYDIR
 10
0.0
 20
1.0
 30
0.0
  9
$PUCSORTHOREF
  2

  9
$PUCSORTHOVIEW
 70
     0
  9
$PUCSORGTOP
 10
0.0
 20
0.0
 30
0.0
  9
$PUCSORGBOTTOM
 10
0.0
 20
0.0
 30
0.0
  9
$PUCSORGLEFT
 10
0.0
 20
0.0
 30
0.0
  9
$PUCSORGRIGHT
 10
0.0
 20
0.0
 30
0.0
  9
$PUCSORGFRONT
 10
0.0
 20
0.0
 30
0.0
  9
$PUCSORGBACK
 10
0.0
 20
0.0
 30
0.0
  9
$USERI1
 70
     0
  9
$USERI2
 70
     0
  9
$USERI3
 70
     0
  9
$USERI4
 70
     0
  9
$USERI5
 70
     0
  9
$USERR1
 40
0.0
  9
$USERR2
 40
0.0
  9
$USERR3
 40
0.0
  9
$USERR4
 40
0.0
  9
$USERR5
 40
0.0
  9
$WORLDVIEW
 70
     1
  9
$SHADEDGE
 70
     3
  9
$SHADEDIF
 70
    70
  9
$TILEMODE
 70
     1
  9
$MAXACTVP
 70
    64
  9
$PINSBASE
 10
0.0
 20
0.0
 30
0.0
  9
$PLIMCHECK
 70
     0
  9
$PEXTMIN
 10
0.0
 20
0.0
 30
0.0
  9
$PEXTMAX
 10
0.0
 20
0.0
 30
0.0
  9
$PLIMMIN
 10
0.0
 20
0.0
  9
$PLIMMAX
 10
12.0
 20
9.0
  9
$UNITMODE
 70
     0
  9
$VISRETAIN
 70
     1
  9
$PLINEGEN
 70
     0
  9
$PSLTSCALE
 70
     1
  9
$TREEDEPTH
 70
  3020
  9
$CMLSTYLE
  2
Standard
  9
$CMLJUST
 70
     0
  9
$CMLSCALE
 40
20.0
  9
$PROXYGRAPHICS
 70
     1
  9
$MEASUREMENT
 70
     1
  9
$CELWEIGHT
370
    -1
  9
$ENDCAPS
280
     0
  9
$JOINSTYLE
280
     0
  9
$LWDISPLAY
290
     0
  9
$INSUNITS
 70
     4
  9
$HYPERLINKBASE
  1

  9
$STYLESHEET
  1

  9
$XEDIT
290
     1
  9
$CEPSNTYPE
380
     0
  9
$PSTYLEMODE
290
     1
  9
$FINGERPRINTGUID
  2
{8E1AFF58-C7D7-4C05-8724-365683C47649}
  9
$VERSIONGUID
  2
{6BDC5EDA-1AAC-4F41-B177-5715D5FD36FB}
  9
$EXTNAMES
290
     1
  9
$PSVPSCALE
 40
0.0
  9
$OLESTARTUP
290
     0
  0
ENDSEC
  0
SECTION
  2
CLASSES
  0
CLASS
  1
ACDBDICTIONARYWDFLT
  2
AcDbDictionaryWithDefault
  3
ObjectDBX Classes
 90
        0
280
     0
281
     0
  0
CLASS
  1
ACDBPLACEHOLDER
  2
AcDbPlaceHolder
  3
ObjectDBX Classes
 90
        0
280
     0
281
     0
  0
CLASS
  1
LAYOUT
  2
AcDbLayout
  3
ObjectDBX Classes
 90
        0
280
     0
281
     0
  0
CLASS
  1
DICTIONARYVAR
  2
AcDbDictionaryVar
  3
ObjectDBX Classes
 90
        0
280
     0
281
     0
  0
CLASS
  1
TABLESTYLE
  2
AcDbTableStyle
  3
ObjectDBX Classes
 90
     4095
280
     0
281
     0
  0
CLASS
  1
MATERIAL
  2
AcDbMaterial
  3
ObjectDBX Classes
 90
     1153
280
     0
281
     0
  0
CLASS
  1
VISUALSTYLE
  2
AcDbVisualStyle
  3
ObjectDBX Classes
 90
     4095
280
     0
281
     0
  0
CLASS
  1
SCALE
  2
AcDbScale
  3
ObjectDBX Classes
 90
     1153
280
     0
281
     0
  0
CLASS
  1
MLEADERSTYLE
  2
AcDbMLeaderStyle
  3
ACDB_MLEADERSTYLE_CLASS
 90
     4095
280
     0
281
     0
  0
CLASS
  1
CELLSTYLEMAP
  2
AcDbCellStyleMap
  3
ObjectDBX Classes
 90
     1152
280
     0
281
     0
  0
CLASS
  1
EXACXREFPANELOBJECT
  2
ExAcXREFPanelObject
  3
EXAC_ESW
 90
     1025
280
     1
281
     0
  0
CLASS
  1
NPOCOLLECTION
  2
AcDbImpNonPersistentObjectsCollection
  3
ObjectDBX Classes
 90
     1153
280
     1
281
     0
  0
CLASS
  1
LAYER_INDEX
  2
AcDbLayerIndex
  3
ObjectDBX Classes
 90
        0
280
     0
281
     0
  0
CLASS
  1
SPATIAL_INDEX
  2
AcDbSpatialIndex
  3
AutoCAD 2000
 90
        0
280
     0
281
     0
  0
CLASS
  1
IDBUFFER
  2
AcDbIdBuffer
  3
ObjectDBX Classes
 90
        0
280
     0
281
     0
  0
CLASS
  1
SORTENTSTABLE
  2
AcDbSortentsTable
  3
ObjectDBX Classes
 90
        0
280
     0
281
     0
  0
CLASS
  1
ACAD_EVALUATION_GRAPH
  2
AcDbEvalGraph
  3
ObjectDBX Classes
 90
     1153
280
     1
281
     0
  0
CLASS
  1
BLOCKBASEPOINTPARAMETER
  2
AcDbBlockBasepointParameter
  3
ObjectDBX Classes
 90
     1153
280
     1
281
     0
  0
CLASS
  1
ACDB_DYNAMICBLOCKPURGEPREVENTER_VERSION
  2
AcDbDynamicBlockPurgePreventer
  3
ObjectDBX Classes
 90
     1153
280
     1
281
     0
  0
CLASS
  1
DIMASSOC
  2
AcDbDimAssoc
  3
"AcDbDimAssoc|Product Desc:     AcDim ARX App For Dimension|Company:          Autodesk, Inc.|WEB Address:      www.autodesk.com"
 90
        0
280
     0
281
     0
  0
CLASS
  1
ACAECUSTOBJ
  2
AcAeEditorObj
  3
AcAeEditorObj
 90
     1024
280
     1
281
     0
  0
CLASS
  1
BASEPOINTPARAMETERENTITY
  2
AcDbBlockBasepointParameterEntity
  3
ObjectDBX Classes
 90
     1025
280
     1
281
     1
  0
CLASS
  1
ACAEEEMGROBJ
  2
AcAeEEMgrObj
  3
AcAeEEMgrObj
 90
     1024
280
     1
281
     0
  0
CLASS
  1
ACDB_BLOCKREPRESENTATION_DATA
  2
AcDbBlockRepresentationData
  3
ObjectDBX Classes
 90
     1153
280
     1
281
     0
  0
CLASS
  1
AEC_REFEDIT_STATUS_TRACKER
  2
AecDbRefEditStatusTracker
  3
AecArchBase70|Product Desc: Autodesk Architectural Desktop 2007 |Company: Autodesk,Inc. |WEB Address: www.autodesk.com
 90
      129
280
     1
281
     0
  0
CLASS
  1
ACDBSECTIONVIEWSTYLE
  2
AcDbSectionViewStyle
  3
ObjectDBX Classes
 90
     1025
280
     0
281
     0
  0
CLASS
  1
ACDBDETAILVIEWSTYLE
  2
AcDbDetailViewStyle
  3
ObjectDBX Classes
 90
     1025
280
     0
281
     0
  0
ENDSEC
  0
SECTION
  2
TABLES
  0
TABLE
  2
VPORT
  5
8
102
{ACAD_XDICTIONARY
360
18864
102
}
330
0
100
AcDbSymbolTable
 70
     1
  0
VPORT
  5
EA
330
8
100
AcDbSymbolTableRecord
100
AcDbViewportTableRecord
  2
*Active
 70
     0
 10
0.0
 20
0.0
 11
1.0
 21
1.0
 12
60245.7056491978
 22
-12459.96675307155
 13
0.0
 23
0.0
 14
10.0
 24
10.0
 15
10.0
 25
10.0
 16
0.0
 26
0.0
 36
1.0
 17
0.0
 27
0.0
 37
0.0
 40
10299.81115066329
 41
1.35981308411215
 42
50.0
 43
0.0
 44
0.0
 50
0.0
 51
0.0
 71
     0
 72
  1000
 73
     1
 74
     2
 75
     0
 76
     0
 77
     0
 78
     0
281
     0
 65
     1
110
0.0
120
0.0
130
0.0
111
1.0
121
0.0
131
0.0
112
0.0
122
1.0
132
0.0
 79
     0
146
0.0
1001
ACAD_NAV_VCDISPLAY
1070
     3
  0
ENDTAB
  0
TABLE
  2
LTYPE
  5
5
330
0
100
AcDbSymbolTable
 70
     1
  0
LTYPE
  5
14
330
5
100
AcDbSymbolTableRecord
100
AcDbLinetypeTableRecord
  2
ByBlock
 70
     0
  3

 72
    65
 73
     0
 40
0.0
  0
LTYPE
  5
15
330
5
100
AcDbSymbolTableRecord
100
AcDbLinetypeTableRecord
  2
ByLayer
 70
     0
  3

 72
    65
 73
     0
 40
0.0
  0
LTYPE
  5
16
330
5
100
AcDbSymbolTableRecord
100
AcDbLinetypeTableRecord
  2
Continuous
 70
     0
  3
Solid line
 72
    65
 73
     0
 40
0.0
  0
ENDTAB
  0
TABLE
  2
LAYER
  5
2
102
{ACAD_XDICTIONARY
360
22C8
102
}
330
0
100
AcDbSymbolTable
 70
     6
  0
LAYER
  5
10
330
2
100
AcDbSymbolTableRecord
100
AcDbLayerTableRecord
  2
0
 70
     0
 62
     7
  6
Continuous
370
    -3
390
F
  0
LAYER
  5
22AF
330
2
100
AcDbSymbolTableRecord
100
AcDbLayerTableRecord
  2
Cornice_Testi
 70
     0
 62
     7
  6
Continuous
370
    -3
390
F
  0
LAYER
  5
22B1
330
2
100
AcDbSymbolTableRecord
100
AcDbLayerTableRecord
  2
Cornice_Quote
 70
     0
 62
   150
  6
Continuous
370
     9
390
F
  0
LAYER
  5
22B3
330
2
100
AcDbSymbolTableRecord
100
AcDbLayerTableRecord
  2
Cornice_linee
 70
     0
 62
     7
  6
Continuous
370
     5
390
F
  0
LAYER
  5
22B7
330
2
100
AcDbSymbolTableRecord
100
AcDbLayerTableRecord
  2
DEFPOINTS
 70
     0
 62
     7
  6
Continuous
290
     0
370
    -3
390
F
  0
LAYER
  5
8B2F
330
2
100
AcDbSymbolTableRecord
100
AcDbLayerTableRecord
  2
Cornice_Tratteggi
 70
     0
 62
     7
  6
Continuous
370
     5
390
F
  0
ENDTAB
  0
TABLE
  2
STYLE
  5
3
330
0
100
AcDbSymbolTable
 70
     4
  0
STYLE
  5
11
330
3
100
AcDbSymbolTableRecord
100
AcDbTextStyleTableRecord
  2
Standard
 70
     0
 40
0.0
 41
1.0
 50
0.0
 71
     0
 42
2.5
  3
arial.ttf
  4

1001
ACAD
1000
Arial
1071
       34
  0
STYLE
  5
22C0
330
3
100
AcDbSymbolTableRecord
100
AcDbTextStyleTableRecord
  2
CKSTANDARD
 70
     0
 40
0.0
 41
0.75
 50
0.0
 71
     0
 42
2.5
  3
isocp2.shx
  4

  0
STYLE
  5
29DE
330
3
100
AcDbSymbolTableRecord
100
AcDbTextStyleTableRecord
  2
style1
 70
     0
 40
0.0
 41
1.0
 50
0.0
 71
     0
 42
266.0222813740838
  3
verdana.ttf
  4

1001
ACAD
1000
Verdana
1071
       34
  0
STYLE
  5
1885F
330
3
100
AcDbSymbolTableRecord
100
AcDbTextStyleTableRecord
  2
MtXpl_Swis721 BlkOul BT
 70
     0
 40
0.2
 41
1.0
 50
0.0
 71
     0
 42
2.5
  3

  4

1001
ACAD
1000
Swis721 BlkOul BT
1071
       82
  0
ENDTAB
  0
TABLE
  2
VIEW
  5
6
330
0
100
AcDbSymbolTable
 70
     0
  0
ENDTAB
  0
TABLE
  2
UCS
  5
7
330
0
100
AcDbSymbolTable
 70
     0
  0
ENDTAB
  0
TABLE
  2
APPID
  5
9
330
0
100
AcDbSymbolTable
 70
    19
  0
APPID
  5
12
330
9
100
AcDbSymbolTableRecord
100
AcDbRegAppTableRecord
  2
ACAD
 70
     0
  0
APPID
  5
9E
330
9
100
AcDbSymbolTableRecord
100
AcDbRegAppTableRecord
  2
ACAD_PSEXT
 70
     0
  0
APPID
  5
133
330
9
100
AcDbSymbolTableRecord
100
AcDbRegAppTableRecord
  2
AcadAnnoPO
 70
     0
  0
APPID
  5
134
330
9
100
AcDbSymbolTableRecord
100
AcDbRegAppTableRecord
  2
AcadAnnotative
 70
     0
  0
APPID
  5
135
330
9
100
AcDbSymbolTableRecord
100
AcDbRegAppTableRecord
  2
ACAD_DSTYLE_DIMJAG
 70
     0
  0
APPID
  5
136
330
9
100
AcDbSymbolTableRecord
100
AcDbRegAppTableRecord
  2
ACAD_DSTYLE_DIMTALN
 70
     0
  0
APPID
  5
165
330
9
100
AcDbSymbolTableRecord
100
AcDbRegAppTableRecord
  2
ACAD_MLEADERVER
 70
     0
  0
APPID
  5
22C4
330
9
100
AcDbSymbolTableRecord
100
AcDbRegAppTableRecord
  2
AcAecLayerStandard
 70
     0
  0
APPID
  5
22C5
330
9
100
AcDbSymbolTableRecord
100
AcDbRegAppTableRecord
  2
AcDbBlockRepETag
 70
     0
  0
APPID
  5
22C6
330
9
100
AcDbSymbolTableRecord
100
AcDbRegAppTableRecord
  2
AcDbDynamicBlockTrueName
 70
     0
  0
APPID
  5
22C7
330
9
100
AcDbSymbolTableRecord
100
AcDbRegAppTableRecord
  2
AcDbDynamicBlockGUID
 70
     0
  0
APPID
  5
2A06
330
9
100
AcDbSymbolTableRecord
100
AcDbRegAppTableRecord
  2
ACAUTHENVIRON
 70
     0
  0
APPID
  5
2A34
330
9
100
AcDbSymbolTableRecord
100
AcDbRegAppTableRecord
  2
ACAD_EXEMPT_FROM_CAD_STANDARDS
 70
     0
  0
APPID
  5
2A49
330
9
100
AcDbSymbolTableRecord
100
AcDbRegAppTableRecord
  2
AcDbBlockRepBTag
 70
     0
  0
APPID
  5
8B33
330
9
100
AcDbSymbolTableRecord
100
AcDbRegAppTableRecord
  2
RAK
 70
     0
  0
APPID
  5
15F25
330
9
100
AcDbSymbolTableRecord
100
AcDbRegAppTableRecord
  2
GradientColor1ACI
 70
     0
  0
APPID
  5
15F26
330
9
100
AcDbSymbolTableRecord
100
AcDbRegAppTableRecord
  2
GradientColor2ACI
 70
     0
  0
APPID
  5
185A4
330
9
100
AcDbSymbolTableRecord
100
AcDbRegAppTableRecord
  2
AcCmTransparency
 70
     0
  0
APPID
  5
185A5
330
9
100
AcDbSymbolTableRecord
100
AcDbRegAppTableRecord
  2
ACAD_NAV_VCDISPLAY
 70
     0
  0
ENDTAB
  0
TABLE
  2
DIMSTYLE
  5
A
330
0
100
AcDbSymbolTable
 70
     2
100
AcDbDimStyleTable
  0
DIMSTYLE
105
27
330
A
100
AcDbSymbolTableRecord
100
AcDbDimStyleTableRecord
  2
ISO-25
 70
     0
 41
2.5
 42
0.625
 43
3.75
 44
1.25
 73
     0
 74
     0
 77
     1
 78
     8
140
2.5
141
2.5
143
0.03937007874016
147
0.625
171
     3
172
     1
178
     0
271
     2
272
     2
274
     3
278
    44
283
     0
284
     8
340
11
  0
DIMSTYLE
105
185A3
330
A
100
AcDbSymbolTableRecord
100
AcDbDimStyleTableRecord
  2
STANDARD
 70
     0
178
     0
340
11
  0
ENDTAB
  0
TABLE
  2
BLOCK_RECORD
  5
1
330
0
100
AcDbSymbolTable
 70
     1
  0
BLOCK_RECORD
  5
1F
102
{ACAD_XDICTIONARY
360
1CE
102
}
330
1
100
AcDbSymbolTableRecord
100
AcDbBlockTableRecord
  2
*Model_Space
340
22
  0
BLOCK_RECORD
  5
D2
330
1
100
AcDbSymbolTableRecord
100
AcDbBlockTableRecord
  2
*Paper_Space
340
D3
  0
BLOCK_RECORD
  5
D6
330
1
100
AcDbSymbolTableRecord
100
AcDbBlockTableRecord
  2
*Paper_Space0
340
D7
  0
ENDTAB
  0
ENDSEC
  0
SECTION
  2
BLOCKS
  0
BLOCK
  5
20
330
1F
100
AcDbEntity
  8
0
100
AcDbBlockBegin
  2
*Model_Space
 70
     0
 10
0.0
 20
0.0
 30
0.0
  3
*Model_Space
  1

  0
ENDBLK
  5
21
330
1F
100
AcDbEntity
  8
0
100
AcDbBlockEnd
  0
BLOCK
  5
D4
330
D2
100
AcDbEntity
 67
     1
  8
0
100
AcDbBlockBegin
  2
*Paper_Space
 70
     0
 10
0.0
 20
0.0
 30
0.0
  3
*Paper_Space
  1

  0
ENDBLK
  5
D5
330
D2
100
AcDbEntity
 67
     1
  8
0
100
AcDbBlockEnd
  0
BLOCK
  5
D8
330
D6
100
AcDbEntity
  8
0
100
AcDbBlockBegin
  2
*Paper_Space0
 70
     0
 10
0.0
 20
0.0
 30
0.0
  3
*Paper_Space0
  1

  0
ENDBLK
  5
D9
330
D6
100
AcDbEntity
  8
0
100
AcDbBlockEnd
  0
ENDSEC
  0
SECTION
  2
ENTITIES
  0
LWPOLYLINE
  5
18624
330
1F
100
AcDbEntity
  8
0
 62
     1
100
AcDbPolyline
 90
        4
 70
     1
 43
0.0
 10
53287.1504667518
 20
-7587.467453767236
 10
67203.82442386218
 20
-7587.467453767236
 10
67203.82442386218
 20
-17331.81987794044
 10
53287.1504667518
 20
-17331.81987794044
  0
HATCH
  5
18626
330
1F
100
AcDbEntity
  8
Cornice_Tratteggi
100
AcDbHatch
 10
0.0
 20
0.0
 30
0.0
210
0.0
220
0.0
230
1.0
  2
GRAVEL
 70
     0
 71
     0
 91
        3
 92
        7
 72
     1
 73
     1
 93
        4
 10
60035.19965312397
 20
-14648.0945793112
 42
0.0
 10
60294.80394419562
 20
-15382.62824994751
 42
0.1150166779679908
 10
61319.50570897211
 20
-14686.71977551654
 42
0.0
 10
61299.72545896226
 20
-14648.0945793112
 42
0.0
 97
        0
 92
        7
 72
     1
 73
     1
 93
       17
 10
60294.80394419562
 20
-15382.62824994751
 42
0.0
 10
60035.19965312397
 20
-14648.0945793112
 42
0.0
 10
60021.04910470499
 20
-14648.0945793112
 42
0.0
 10
59996.47992691293
 20
-14658.65380459832
 42
0.0
 10
59995.90354998689
 20
-14648.0945793112
 42
0.0
 10
59029.64628445392
 20
-14648.0945793112
 42
0.0
 10
59017.99171697698
 20
-14674.38912071241
 42
0.0
 10
58996.48653847387
 20
-14648.0945793112
 42
0.0
 10
58992.14293314063
 20
-14648.0945793112
 42
0.0
 10
58390.76435083698
 20
-15403.66572537419
 42
0.0429124533857719
 10
58842.49031435512
 20
-15523.68330701342
 42
0.0
 10
59028.55094226415
 20
-15279.37061657204
 42
0.0
 10
59002.25640086294
 20
-15258.25216599792
 42
0.0
 10
59091.6992503535
 20
-15216.22230848268
 42
0.0
 10
59054.84548366524
 20
-15300.48906714621
 42
0.0
 10
59028.55094226415
 20
-15279.37061657204
 42
0.0
 10
58842.49031435512
 20
-15523.68330701342
 42
0.1362007926809742
 97
        0
 92
        7
 72
     1
 73
     1
 93
        3
 10
57274.6137304838
 20
-14648.0945793112
 42
0.1254642884717374
 10
58390.76435083698
 20
-15403.66572537419
 42
0.0
 10
58992.14293314063
 20
-14648.0945793112
 42
0.0
 97
        0
 75
     0
 76
     1
 52
0.0
 41
484.0000000000001
 77
     0
 78
    41
 53
228.0128
 43
77668.39326196024
 44
-19222.42424418411
 45
-3871.999144364551
 46
-4356.000649337908
 79
     2
 49
65.115424
 49
-6446.438592000001
 53
184.9697
 43
77624.8332619603
 44
-19270.82424418407
 45
5808.000508934537
 46
483.9957925914132
 79
     2
 49
111.740112
 49
-11062.2677
 53
132.5104
 43
77513.51326196035
 44
-19280.50424418412
 45
4839.995507679858
 46
-5324.004198153661
 79
     2
 49
78.789392
 49
-7800.159488000001
 53
267.2737
 43
77324.75326196023
 44
-19401.50424418412
 45
483.9980725799602
 46
9680.00014276716
 79
     2
 49
101.755192
 49
-10073.762072
 53
292.8337
 43
77319.91326196038
 44
-19503.14424418414
 45
-2420.004794231576
 46
5807.998263300445
 79
     2
 49
99.77902000000002
 49
-9878.136532000004
 53
357.2737
 43
77358.63326196035
 44
-19595.10424418416
 45
-9680.00014276716
 46
483.9980725799608
 79
     2
 49
101.755192
 49
-10073.762072
 53
37.6942
 43
77460.27326196036
 44
-19599.94424418412
 45
-6292.003555279101
 46
-4839.995356097697
 79
     2
 49
134.566036
 49
-13322.026916
 53
72.2553
 43
77566.75326196023
 44
-19517.6642441841
 45
3388.005209149419
 46
10647.99817591977
 79
     2
 49
127.044192
 49
-12577.379364
 53
121.4296
 43
77605.47326196032
 44
-19396.6642441841
 45
-3872.003985341361
 46
6291.997597662404
 79
     2
 49
102.0998
 49
-10107.891332
 53
175.2364
 43
77552.23326196033
 44
-19309.5442441841
 45
5324.000458018681
 46
-483.9959018080502
 79
     2
 49
116.5626879999998
 49
-5711.569291999986
 53
222.3974
 43
77436.0732619603
 44
-19299.86424418411
 45
-5808.003557919445
 46
-5323.996167694835
 79
     2
 49
150.740832
 49
-14923.3535
 53
138.8141
 43
77803.91326196038
 44
-19406.34424418409
 45
-3388.001426253967
 46
2903.998699657894
 79
     2
 49
51.449684
 49
-5093.540496000001
 53
171.4692
 43
77765.19326196029
 44
-19372.46424418414
 45
6291.999169850523
 46
-968.0038284592587
 79
     2
 49
97.8827079999998
 49
-9690.411323999984
 53
225.0
 43
77668.39326196024
 44
-19357.94424418412
 45
-0.0000000000000537
 46
-484.0001497732929
 79
     2
 49
68.447764
 49
-616.031328
 53
203.1986
 43
77634.51326196035
 44
-19299.86424418411
 45
2419.999869642865
 46
968.0006414281894
 79
     2
 49
36.86047200000001
 49
-3649.17366
 53
291.8014
 43
77600.63326196035
 44
-19314.38424418413
 45
-483.9999566823141
 46
1452.000132137213
 79
     2
 49
52.128252
 49
-2554.291608
 53
30.9638
 43
77619.99326196022
 44
-19362.78424418415
 45
1451.999042787391
 46
968.0012020337147
 79
     2
 49
84.66563599999978
 49
-2737.515131999993
 53
161.5651
 43
77692.59326196031
 44
-19319.22424418409
 45
968.0002103429937
 46
-483.9992271597906
 79
     2
 49
61.22164400000003
 49
-1469.320908
 53
16.38950000000001
 43
77319.91326196038
 44
-19314.38424418413
 45
4840.001064031389
 46
1451.996471551898
 79
     2
 49
85.76480000000001
 49
-8490.736980000001
 53
70.3462
 43
77402.19326196029
 44
-19290.18424418411
 45
-1935.997699727925
 46
-5324.001033633413
 79
     2
 49
71.95192400000002
 49
-7123.225472
 53
293.1986
 43
77692.59326196031
 44
-19222.42424418411
 45
-968.0006414281894
 46
2419.999869642865
 79
     2
 49
73.72046000000002
 49
-3612.313672000001
 53
343.6105
 43
77721.63326196035
 44
-19290.18424418411
 45
-4840.001064031389
 46
1451.996471551899
 79
     2
 49
85.76479999999978
 49
-8490.736979999983
 53
339.4440000000001
 43
77319.91326196038
 44
-19614.46424418414
 45
-2420.000892758533
 46
967.998062268047
 79
     2
 49
82.70592
 49
-4052.592016000001
 53
294.7751
 43
77397.3532619602
 44
-19643.50424418412
 45
-2419.996219594663
 46
5324.001656170133
 79
     2
 49
69.29815199999987
 49
-6860.527211999986
 53
66.80140000000002
 43
77697.43326196028
 44
-19706.42424418411
 45
968.0006414281899
 46
2419.999869642865
 79
     2
 49
73.72046000000002
 49
-3612.313672000001
 53
17.35400000000001
 43
77726.47326196032
 44
-19638.6642441841
 45
-6292.000977242868
 46
-1935.997339093414
 79
     2
 49
81.133404
 49
-8032.185215999999
 53
69.444
 43
77460.27326196036
 44
-19706.42424418411
 45
-967.9980622680481
 46
-2420.000892758532
 79
     2
 49
41.35296
 49
-4093.944976
 53
101.3099
 43
77668.39326196024
 44
-19706.42424418411
 45
-483.998853966217
 46
1936.000364079781
 79
     2
 49
24.67915999999996
 49
-2443.246035999997
 53
165.9638
 43
77663.55326196027
 44
-19682.22424418409
 45
1452.000264259034
 46
-483.999059762843
 79
     2
 49
99.77902000000002
 49
-1895.8038
 53
186.009
 43
77566.75326196023
 44
-19658.02424418408
 45
4839.999879438524
 46
483.9996696612113
 79
     2
 49
92.46820000000002
 49
-9154.338732000002
 53
303.6901
 43
77619.99326196022
 44
-19406.34424418409
 45
-484.0006459014804
 46
967.9997859612417
 79
     2
 49
69.803448
 49
-1675.283236
 53
353.1572
 43
77658.7132619603
 44
-19464.42424418411
 45
8227.999692891619
 46
-968.0038709955845
 79
     2
 49
121.868296
 49
-12064.940492
 53
60.94540000000001
 43
77779.7132619603
 44
-19478.94424418412
 45
-1936.000013164451
 46
-3388.000186131729
 79
     2
 49
49.83070399999999
 49
-4933.254215999999
 53
90.0
 43
77803.91326196038
 44
-19435.38424418413
 45
-484.0000000000001
 46
484.0000000000001
 79
     2
 49
29.04000000000001
 49
-454.96
 53
120.2564
 43
77557.0732619603
 44
-19643.50424418412
 45
1935.997525212504
 46
-3388.001188633692
 79
     2
 49
67.239216
 49
-6656.703680000001
 53
48.01279999999999
 43
77523.19326196029
 44
-19585.42424418411
 45
3871.99914436455
 46
4356.000649337909
 79
     2
 49
130.230848
 49
-6381.323168
 53
0.0
 43
77610.3132619604
 44
-19488.62424418412
 45
484.0000000000001
 46
484.0000000000001
 79
     2
 49
125.84
 49
-358.1600000000001
 53
325.3048
 43
77736.15326196025
 44
-19488.62424418412
 45
-4839.997221349963
 46
3388.004167043718
 79
     2
 49
76.52717600000003
 49
-7576.184616
 53
254.0546
 43
77799.0732619603
 44
-19532.18424418411
 45
-483.9999464194485
 46
-1936.000061299641
 79
     2
 49
70.47136800000003
 49
-3453.101872000001
 53
207.646
 43
77779.7132619603
 44
-19599.94424418412
 45
-9195.997970674924
 46
-4840.003733173883
 79
     2
 49
114.73946
 49
-11359.225416
 53
175.4261
 43
77678.0732619603
 44
-19653.18424418411
 45
-6292.000270223074
 46
483.9974837619648
 79
     2
 49
121.3867159999998
 49
-12017.27181599997
 47
8.339697819319136
 98
        3
 10
60687.82444298686
 20
-14859.18981620134
 10
59658.08449927962
 20
-15101.37487562053
 10
58315.38520887156
 20
-14939.91816934111
1001
ACAD
1010
0.0
1020
0.0
1030
0.0
1001
AcDbBlockRepETag
1070
     1
1071
        1
1005
18626
  0
CIRCLE
  5
18627
330
1F
100
AcDbEntity
  8
Cornice_linee
100
AcDbCircle
 10
59314.53995686001
 20
-12836.84894329566
 30
0.0
 40
2727.986393485827
1001
AcDbBlockRepETag
1070
     1
1071
        2
1005
18627
  0
POLYLINE
  5
18628
330
1F
100
AcDbEntity
  8
Cornice_Quote
100
AcDb3dPolyline
 66
     1
 10
0.0
 20
0.0
 30
0.0
 70
     8
1001
AcDbBlockRepETag
1070
     1
1071
        3
1005
18628
  0
VERTEX
  5
18629
330
18628
100
AcDbEntity
  8
Cornice_Quote
100
AcDbVertex
100
AcDb3dPolylineVertex
 10
66667.4749942628
 20
-11436.67870797811
 30
0.0
 70
    32
  0
VERTEX
  5
1862A
330
18628
100
AcDbEntity
  8
Cornice_Quote
100
AcDbVertex
100
AcDb3dPolylineVertex
 10
61711.7686054362
 20
-11436.67870797811
 30
0.0
 70
    32
  0
VERTEX
  5
1862B
330
18628
100
AcDbEntity
  8
Cornice_Quote
100
AcDbVertex
100
AcDb3dPolylineVertex
 10
57900.05962016177
 20
-12822.48734462855
 30
0.0
 70
    32
  0
SEQEND
  5
1862C
330
18628
100
AcDbEntity
  8
Cornice_Quote
  0
POLYLINE
  5
1862D
330
1F
100
AcDbEntity
  8
Cornice_linee
100
AcDb3dPolyline
 66
     1
 10
0.0
 20
0.0
 30
0.0
 70
     8
1001
AcDbBlockRepETag
1070
     1
1071
        4
1005
1862D
  0
VERTEX
  5
1862E
330
1862D
100
AcDbEntity
  8
Cornice_linee
100
AcDbVertex
100
AcDb3dPolylineVertex
 10
57274.6137304838
 20
-14648.0945793112
 30
0.0
 70
    32
  0
VERTEX
  5
1862F
330
1862D
100
AcDbEntity
  8
Cornice_linee
100
AcDbVertex
100
AcDb3dPolylineVertex
 10
61354.46618323645
 20
-14648.0945793112
 30
0.0
 70
    32
  0
SEQEND
  5
18630
330
1862D
100
AcDbEntity
  8
Cornice_linee
  0
POLYLINE
  5
18631
330
1F
100
AcDbEntity
  8
Cornice_linee
100
AcDb3dPolyline
 66
     1
 10
0.0
 20
0.0
 30
0.0
 70
     8
1001
AcDbBlockRepETag
1070
     1
1071
        5
1005
18631
  0
VERTEX
  5
18632
330
18631
100
AcDbEntity
  8
Cornice_linee
100
AcDbVertex
100
AcDb3dPolylineVertex
 10
57855.23467359983
 20
-12738.32410778152
 30
0.0
 70
    32
  0
VERTEX
  5
18633
330
18631
100
AcDbEntity
  8
Cornice_linee
100
AcDbVertex
100
AcDb3dPolylineVertex
 10
62040.74659243098
 20
-12738.32410778152
 30
0.0
 70
    32
  0
SEQEND
  5
18634
330
18631
100
AcDbEntity
  8
Cornice_linee
  0
LINE
  5
18635
330
1F
100
AcDbEntity
  8
Cornice_linee
100
AcDbLine
 10
57786.9102746835
 20
-13779.96062580694
 30
0.0
 11
58931.57440161565
 21
-13779.96062580694
 31
0.0
1001
AcDbBlockRepETag
1070
     1
1071
        6
1005
18635
  0
LINE
  5
18636
330
1F
100
AcDbEntity
  8
Cornice_linee
100
AcDbLine
 10
57786.9102746835
 20
-14248.08628020069
 30
0.0
 11
61649.13177171093
 21
-14248.08628020069
 31
0.0
1001
AcDbBlockRepETag
1070
     1
1071
        7
1005
18636
  0
ARC
  5
18637
330
1F
100
AcDbEntity
  8
Cornice_linee
100
AcDbCircle
 10
58830.5926407174
 20
-14151.75942486455
 30
0.0
 40
96.32685533619757
100
AcDbArc
 50
167.5879537727687
 51
12.41204622723127
1001
AcDbBlockRepETag
1070
     1
1071
        8
1005
18637
  0
LINE
  5
18638
330
1F
100
AcDbEntity
  8
Cornice_linee
100
AcDbLine
 10
58822.64045067434
 20
-13896.99203940533
 30
0.0
 11
58736.51722242904
 21
-14131.05486660224
 31
0.0
1001
AcDbBlockRepETag
1070
     1
1071
        9
1005
18638
  0
ARC
  5
18639
330
1F
100
AcDbEntity
  8
Cornice_linee
100
AcDbCircle
 10
58728.56503238599
 20
-13876.28748114308
 30
0.0
 40
96.32685533619757
100
AcDbArc
 50
347.5879537727687
 51
192.4120462272313
1001
AcDbBlockRepETag
1070
     1
1071
       10
1005
18639
  0
TEXT
  5
1863A
330
1F
100
AcDbEntity
  8
Cornice_Testi
  6
Continuous
100
AcDbText
 10
59766.27834463236
 20
-9980.291141564376
 30
0.0
 40
158.6952945378852
  1
RODAPIE
  7
style1
100
AcDbText
1001
AcDbBlockRepETag
1070
     1
1071
       11
1005
0
  0
POLYLINE
  5
1863B
330
1F
100
AcDbEntity
  8
Cornice_Quote
100
AcDb3dPolyline
 66
     1
 10
0.0
 20
0.0
 30
0.0
 70
     8
1001
AcDbBlockRepETag
1070
     1
1071
       12
1005
1863B
  0
VERTEX
  5
1863C
330
1863B
100
AcDbEntity
  8
Cornice_Quote
100
AcDbVertex
100
AcDb3dPolylineVertex
 10
61173.16800837952
 20
-10045.91884356021
 30
0.0
 70
    32
  0
VERTEX
  5
1863D
330
1863B
100
AcDbEntity
  8
Cornice_Quote
100
AcDbVertex
100
AcDb3dPolylineVertex
 10
59794.87854296633
 20
-10045.91884356021
 30
0.0
 70
    32
  0
VERTEX
  5
1863E
330
1863B
100
AcDbEntity
  8
Cornice_Quote
100
AcDbVertex
100
AcDb3dPolylineVertex
 10
57858.02976264642
 20
-11488.81578214391
 30
0.0
 70
    32
  0
SEQEND
  5
1863F
330
1863B
100
AcDbEntity
  8
Cornice_Quote
  0
POLYLINE
  5
18640
330
1F
100
AcDbEntity
  8
Cornice_linee
100
AcDb3dPolyline
 66
     1
 10
0.0
 20
0.0
 30
0.0
 70
     8
1001
AcDbBlockRepETag
1070
     1
1071
       13
1005
18640
  0
VERTEX
  5
18641
330
18640
100
AcDbEntity
  8
Cornice_linee
100
AcDbVertex
100
AcDb3dPolylineVertex
 10
57753.65531995916
 20
-10995.57523435919
 30
0.0
 70
    32
  0
VERTEX
  5
18642
330
18640
100
AcDbEntity
  8
Cornice_linee
100
AcDbVertex
100
AcDb3dPolylineVertex
 10
59970.18538551184
 20
-10191.89446453092
 30
0.0
 70
    32
  0
SEQEND
  5
18643
330
18640
100
AcDbEntity
  8
Cornice_linee
  0
POLYLINE
  5
18644
330
1F
100
AcDbEntity
  8
Cornice_linee
100
AcDb3dPolyline
 66
     1
 10
0.0
 20
0.0
 30
0.0
 70
     8
1001
AcDbBlockRepETag
1070
     1
1071
       14
1005
18644
  0
VERTEX
  5
18645
330
18644
100
AcDbEntity
  8
Cornice_linee
100
AcDbVertex
100
AcDb3dPolylineVertex
 10
57955.23674837756
 20
-12533.14386739925
 30
0.0
 70
    32
  0
VERTEX
  5
18646
330
18644
100
AcDbEntity
  8
Cornice_linee
100
AcDbVertex
100
AcDb3dPolylineVertex
 10
60790.90634704079
 20
-11017.99856052006
 30
0.0
 70
    32
  0
SEQEND
  5
18647
330
18644
100
AcDbEntity
  8
Cornice_linee
  0
POLYLINE
  5
18648
330
1F
100
AcDbEntity
  8
Cornice_linee
100
AcDb3dPolyline
 66
     1
 10
0.0
 20
0.0
 30
0.0
 70
     8
1001
AcDbBlockRepETag
1070
     1
1071
       15
1005
18648
  0
VERTEX
  5
18649
330
18648
100
AcDbEntity
  8
Cornice_linee
100
AcDbVertex
100
AcDb3dPolylineVertex
 10
57729.14510105411
 20
-12533.14386739925
 30
0.0
 70
    32
  0
VERTEX
  5
1864A
330
18648
100
AcDbEntity
  8
Cornice_linee
100
AcDbVertex
100
AcDb3dPolylineVertex
 10
62025.56798879174
 20
-12533.14386739925
 30
0.0
 70
    32
  0
SEQEND
  5
1864B
330
18648
100
AcDbEntity
  8
Cornice_linee
  0
HATCH
  5
1864C
330
1F
100
AcDbEntity
  8
Cornice_Tratteggi
100
AcDbHatch
 10
0.0
 20
0.0
 30
0.0
210
0.0
220
0.0
230
1.0
  2
AR-CONC
 70
     0
 71
     0
 91
        1
 92
        7
 72
     1
 73
     1
 93
       32
 10
62042.52635034604
 20
-12836.84894329566
 42
0.0090312901367524
 10
62040.74659243098
 20
-12738.32410778152
 42
0.0
 10
58057.16475520434
 20
-12738.32410778152
 42
0.0
 10
57900.05962016177
 20
-12822.48734462855
 42
0.0
 10
57918.3829816893
 20
-12854.06149867323
 42
0.0
 10
57856.64587368537
 20
-12857.63424797903
 42
0.0
 10
57856.64587368537
 20
-13635.48341578926
 42
0.3497543245684667
 10
57945.81444087205
 20
-13719.75017445284
 42
0.0
 10
58414.14713889896
 20
-13719.75017445284
 42
0.0
 10
58414.14713889896
 20
-13779.96062580694
 42
0.0
 10
58931.57440161565
 20
-13779.96062580694
 42
0.0
 10
58931.57440161565
 20
-13670.29224886355
 42
0.0
 10
58854.58726880734
 20
-13639.37615616102
 42
-1.0
 10
58854.58726880734
 20
-13613.7137785583
 42
0.0
 10
58931.6878522255
 20
-13613.7137785583
 42
-0.967278709760076
 10
59341.66307919787
 20
-13613.7137785583
 42
0.0
 10
59418.76366261602
 20
-13613.7137785583
 42
-1.0
 10
59418.76366261602
 20
-13639.37615616102
 42
0.0
 10
59341.77652980783
 20
-13670.29224886355
 42
0.0
 10
59341.77652980783
 20
-13779.96062580694
 42
0.0
 10
60564.01613491832
 20
-13779.96062580694
 42
0.0
 10
60564.01613491832
 20
-13670.29224886355
 42
0.0
 10
60487.02900211024
 20
-13639.37615616102
 42
-1.0
 10
60487.02900211024
 20
-13613.7137785583
 42
0.0
 10
60564.12958552828
 20
-13613.7137785583
 42
-0.967278709760076
 10
60974.10481250065
 20
-13613.7137785583
 42
0.0
 10
61051.20539591881
 20
-13613.7137785583
 42
-1.0
 10
61051.20539591881
 20
-13639.37615616102
 42
0.0
 10
60974.21826311061
 20
-13670.29224886355
 42
0.0
 10
60974.21826311061
 20
-13779.96062580694
 42
0.0
 10
61870.72086246661
 20
-13779.96062580694
 42
0.0
 10
61874.31536055368
 20
-13779.96062580694
 42
0.0884805591521053
 97
        0
 75
     0
 76
     1
 52
0.0
 41
0.9680000000000013
 77
     0
 78
    13
 53
49.99999999999999
 43
40288.11349513533
 44
-41191.54900465778
 45
176.3547595881321
 46
-15.42903480165819
 79
     2
 49
18.44040000000002
 49
-202.8444000000003
 53
355.0
 43
40288.11349513533
 44
-41191.54900465778
 45
-34.11505554444568
 46
184.9428303099504
 79
     2
 49
14.75232000000002
 49
-162.2755200000002
 53
100.4509999999999
 43
40302.80967113527
 44
-41192.83475065778
 45
142.2403416126488
 46
169.5129538100427
 79
     2
 49
15.67192000000002
 49
-172.3911200000002
 53
46.18420000000001
 43
40288.11349513533
 44
-41142.37460465776
 45
262.4045115835821
 46
-40.69697343887993
 79
     2
 49
27.66059999999997
 49
-304.2665999999997
 53
96.63559999999997
 43
40309.98051833536
 44
-41145.76599265775
 45
229.8072989633179
 46
239.507938101568
 79
     2
 49
23.50787999999995
 49
-258.5866799999994
 53
351.184
 43
40288.11349513533
 44
-41142.37460465776
 45
229.8076584278883
 46
239.5075140890589
 79
     2
 49
22.12848000000003
 49
-243.4132800000003
 53
21.0
 43
40312.70069513528
 44
-41154.66820465773
 45
146.7632036806512
 46
-98.9930219242262
 79
     2
 49
18.44040000000002
 49
-202.8444000000003
 53
326.0000000000001
 43
40312.70069513528
 44
-41154.66820465773
 45
59.82436344052245
 46
178.2939512064053
 79
     2
 49
14.75232000000002
 49
-162.2755200000002
 53
71.4514
 43
40324.93089113536
 44
-41162.91759745777
 45
206.5871630654807
 46
79.30132626914369
 79
     2
 49
15.67192000000002
 49
-172.3911200000002
 53
37.49999999999998
 43
40288.11349513533
 44
-41191.54900465778
 45
2.989767946572881
 46
81.84927762921232
 79
     6
 49
0.0
 49
-160.3085440000002
 49
0.0
 49
-164.7342400000002
 49
0.0
 49
-162.8902000000002
 53
7.500000000000002
 43
40288.11349513533
 44
-41191.54900465778
 45
64.68143330997604
 46
96.97479642393981
 79
     6
 49
0.0
 49
-93.92310400000007
 49
0.0
 49
-156.6204640000001
 49
0.0
 49
-62.08268000000006
 53
327.5
 43
40233.28403913532
 44
-41191.54900465778
 45
131.2516961215317
 46
-5.545424184907916
 79
     6
 49
0.0
 49
-61.46800000000009
 49
0.0
 49
-191.7801600000003
 49
0.0
 49
-254.4775200000003
 53
317.5
 43
40208.69683913526
 44
-41191.54900465778
 45
143.3890475816656
 46
24.61284332026639
 79
     6
 49
0.0
 49
-79.90840000000009
 49
0.0
 49
-127.3616960000002
 49
0.0
 49
-180.7159200000002
 47
0.0733094293105996
 98
        1
 10
59779.64656539704
 20
-13100.29016372788
1001
AcDbBlockRepETag
1070
     1
1071
       16
1005
1864C
  0
POLYLINE
  5
1864D
330
1F
100
AcDbEntity
  8
Cornice_Quote
100
AcDb3dPolyline
 66
     1
 10
0.0
 20
0.0
 30
0.0
 70
     8
1001
AcDbBlockRepETag
1070
     1
1071
       17
1005
1864D
  0
VERTEX
  5
1864E
330
1864D
100
AcDbEntity
  8
Cornice_Quote
100
AcDbVertex
100
AcDb3dPolylineVertex
 10
57092.48592933326
 20
-16536.74660026678
 30
0.0
 70
    32
  0
VERTEX
  5
1864F
330
1864D
100
AcDbEntity
  8
Cornice_Quote
100
AcDbVertex
100
AcDb3dPolylineVertex
 10
58070.97413926921
 20
-16536.74660026678
 30
0.0
 70
    32
  0
VERTEX
  5
18650
330
1864D
100
AcDbEntity
  8
Cornice_Quote
100
AcDbVertex
100
AcDb3dPolylineVertex
 10
59028.55094226415
 20
-15279.37061657204
 30
0.0
 70
    32
  0
SEQEND
  5
18651
330
1864D
100
AcDbEntity
  8
Cornice_Quote
  0
TEXT
  5
18652
330
1F
100
AcDbEntity
  8
Cornice_Testi
  6
Continuous
100
AcDbText
 10
56980.01697799796
 20
-16449.82334649353
 30
0.0
 40
158.6952945378852
  1
SOLERA
  7
style1
100
AcDbText
1001
AcDbBlockRepETag
1070
     1
1071
       19
1005
0
  0
ARC
  5
18653
330
1F
100
AcDbEntity
  8
Cornice_linee
100
AcDbCircle
 10
57911.77830405615
 20
-12370.03878882492
 30
0.0
 40
182.9355880451213
100
AcDbArc
 50
183.2947959518145
 51
243.0747940700636
1001
AcDbBlockRepETag
1070
     1
1071
       21
1005
18653
  0
HATCH
  5
18654
330
1F
100
AcDbEntity
  8
Cornice_Tratteggi
100
AcDbHatch
 10
0.0
 20
0.0
 30
0.0
210
0.0
220
0.0
230
1.0
  2
ANSI33
 70
     0
 71
     0
 91
        1
 92
        7
 72
     1
 73
     1
 93
       15
 10
57729.14510105411
 20
-12380.5527098194
 42
0.2669205968463505
 10
57828.94013219862
 20
-12533.14386739925
 42
0.0
 10
57955.23674837756
 20
-12533.14386739925
 42
0.0
 10
57955.23674837756
 20
-12434.95358966046
 42
0.2068350824836941
 10
57924.76988534816
 20
-12364.45426385052
 42
-0.1556857392474244
 10
57886.91234946111
 20
-12296.28595115576
 42
0.0
 10
57886.91234946111
 20
-11467.96390406048
 42
0.0
 10
57858.02976264642
 20
-11488.81578214391
 42
0.0
 10
57871.17703334696
 20
-11517.8018907751
 42
0.0
 10
57771.17495856946
 20
-11533.53720688913
 42
0.0
 10
57844.88249194587
 20
-11459.82967351272
 42
0.0
 10
57858.02976264642
 20
-11488.81578214391
 42
0.0
 10
57886.91234946111
 20
-11467.96390406048
 42
0.0
 10
57886.91234946111
 20
-11133.73595141189
 42
0.3351749916051918
 10
57729.14510105411
 20
-10991.70401911886
 42
0.0
 97
        0
 75
     0
 76
     1
 52
0.0
 41
19.36000000000003
 77
     0
 78
     2
 53
45.0
 43
40288.11349513533
 44
-41191.54900465778
 45
-86.92887925194951
 46
86.92887925194952
 79
     0
 53
45.0
 43
40375.04241193528
 44
-41191.54900465778
 45
-86.92887925194951
 46
86.92887925194952
 79
     2
 49
61.46800000000007
 49
-30.73400000000003
 47
0.0287281042308676
 98
        1
 10
57803.14370352775
 20
-11740.67867808719
1001
AcDbBlockRepETag
1070
     1
1071
       22
1005
18654
  0
POLYLINE
  5
18655
330
1F
100
AcDbEntity
  8
Cornice_linee
100
AcDb3dPolyline
 66
     1
 10
0.0
 20
0.0
 30
0.0
 70
     8
1001
AcDbBlockRepETag
1070
     1
1071
       23
1005
18655
  0
VERTEX
  5
18656
330
18655
100
AcDbEntity
  8
Cornice_linee
100
AcDbVertex
100
AcDb3dPolylineVertex
 10
57381.93292837916
 20
-14648.0945793112
 30
0.0
 70
    32
  0
VERTEX
  5
18657
330
18655
100
AcDbEntity
  8
Cornice_linee
100
AcDbVertex
100
AcDb3dPolylineVertex
 10
57381.93292837916
 20
-10911.50745760812
 30
0.0
 70
    32
  0
SEQEND
  5
18658
330
18655
100
AcDbEntity
  8
Cornice_linee
  0
LINE
  5
18659
330
1F
100
AcDbEntity
  8
Cornice_linee
100
AcDbLine
 10
57729.14510105411
 20
-14648.0945793112
 30
0.0
 11
57729.14510105411
 21
-10616.84153019357
 31
0.0
1001
AcDbBlockRepETag
1070
     1
1071
       24
1005
18659
  0
LWPOLYLINE
  5
1865A
330
1F
100
AcDbEntity
  8
Cornice_linee
100
AcDbPolyline
 90
        6
 70
     0
 43
0.0
 10
57955.23674837756
 20
-12533.14386739925
 10
57955.23674837756
 20
-12434.95358966058
 42
0.2068350824838339
 10
57924.76988534816
 20
-12364.45426385064
 42
-0.1556857392475686
 10
57886.91234946111
 20
-12296.28595115576
 10
57886.91234946111
 20
-11133.73595141177
 42
0.3351749916050233
 10
57729.14510105411
 20
-10991.70401911886
1001
AcDbBlockRepETag
1070
     1
1071
       25
1005
1865A
  0
LINE
  5
1865B
330
1F
100
AcDbEntity
  8
Cornice_linee
100
AcDbLine
 10
58414.14713889873
 20
-13719.75017445284
 30
0.0
 11
58414.14713889873
 21
-13782.89848254225
 31
0.0
1001
AcDbBlockRepETag
1070
     1
1071
       26
1005
1865B
  0
ARC
  5
1865C
330
1F
100
AcDbEntity
  8
Cornice_linee
100
AcDbCircle
 10
57877.39748391008
 20
-13692.34776187548
 30
0.0
 40
90.70514435283847
100
AcDbArc
 50
183.9725766173374
 51
266.6562002428759
1001
AcDbBlockRepETag
1070
     1
1071
       27
1005
1865C
  0
LWPOLYLINE
  5
1865D
330
1F
100
AcDbEntity
  8
Cornice_linee
100
AcDbPolyline
 90
        4
 70
     1
 43
0.0
 10
57734.32119188108
 20
-14648.0945793112
 10
57786.9102746835
 20
-14648.0945793112
 10
57786.9102746835
 20
-12533.14386739925
 10
57734.32119188108
 20
-12533.14386739925
1001
AcDbBlockRepETag
1070
     1
1071
       28
1005
1865D
  0
POLYLINE
  5
1865E
330
1F
100
AcDbEntity
  8
Cornice_linee
100
AcDb3dPolyline
 66
     1
 10
0.0
 20
0.0
 30
0.0
 70
     8
1001
AcDbBlockRepETag
1070
     1
1071
       29
1005
1865E
  0
VERTEX
  5
1865F
330
1865E
100
AcDbEntity
  8
Cornice_linee
100
AcDbVertex
100
AcDb3dPolylineVertex
 10
57786.9102746835
 20
-12533.14386739925
 30
0.0
 70
    32
  0
VERTEX
  5
18660
330
1865E
100
AcDbEntity
  8
Cornice_linee
100
AcDbVertex
100
AcDb3dPolylineVertex
 10
57786.9102746835
 20
-14379.76603083959
 30
0.0
 70
    32
  0
SEQEND
  5
18661
330
1865E
100
AcDbEntity
  8
Cornice_linee
  0
LINE
  5
18662
330
1F
100
AcDbEntity
  8
Cornice_linee
100
AcDbLine
 10
58414.14713889873
 20
-13782.89848254225
 30
0.0
 11
57872.10690749541
 21
-13782.89848254225
 31
0.0
1001
AcDbBlockRepETag
1070
     1
1071
       30
1005
18662
  0
ARC
  5
18663
330
1F
100
AcDbEntity
  8
Cornice_linee
100
AcDbCircle
 10
58320.45459906035
 20
-13876.28748114308
 30
0.0
 40
96.32685533619757
100
AcDbArc
 50
347.5879537727687
 51
192.4120462272313
1001
AcDbBlockRepETag
1070
     1
1071
       31
1005
18663
  0
ARC
  5
18664
330
1F
100
AcDbEntity
  8
Cornice_linee
100
AcDbCircle
 10
58218.42699072883
 20
-14151.75942486455
 30
0.0
 40
96.32685533619757
100
AcDbArc
 50
167.5879537727687
 51
12.41204622723127
1001
AcDbBlockRepETag
1070
     1
1071
       32
1005
18664
  0
LINE
  5
18665
330
1F
100
AcDbEntity
  8
Cornice_linee
100
AcDbLine
 10
58226.37918077188
 20
-13896.99203940533
 30
0.0
 11
58312.50240901718
 21
-14131.05486660224
 31
0.0
1001
AcDbBlockRepETag
1070
     1
1071
       33
1005
18665
  0
ARC
  5
18666
330
1F
100
AcDbEntity
  8
Cornice_linee
100
AcDbCircle
 10
57912.3441657346
 20
-13876.28748114308
 30
0.0
 40
96.32685533619757
100
AcDbArc
 50
347.5879537727687
 51
192.4120462272313
1001
AcDbBlockRepETag
1070
     1
1071
       34
1005
18666
  0
ARC
  5
18667
330
1F
100
AcDbEntity
  8
Cornice_linee
100
AcDbCircle
 10
58116.39938239742
 20
-13876.28748114308
 30
0.0
 40
96.32685533619757
100
AcDbArc
 50
347.5879537727687
 51
192.4120462272313
1001
AcDbBlockRepETag
1070
     1
1071
       35
1005
18667
  0
ARC
  5
18668
330
1F
100
AcDbEntity
  8
Cornice_linee
100
AcDbCircle
 10
57810.31655740319
 20
-14151.75942486455
 30
0.0
 40
96.32685533619757
100
AcDbArc
 50
255.9370302497647
 51
12.41204622723127
1001
AcDbBlockRepETag
1070
     1
1071
       36
1005
18668
  0
ARC
  5
18669
330
1F
100
AcDbEntity
  8
Cornice_linee
100
AcDbCircle
 10
58014.37177406601
 20
-14151.75942486455
 30
0.0
 40
96.32685533619757
100
AcDbArc
 50
167.5879537727687
 51
12.41204622723127
1001
AcDbBlockRepETag
1070
     1
1071
       37
1005
18669
  0
LINE
  5
1866A
330
1F
100
AcDbEntity
  8
Cornice_linee
100
AcDbLine
 10
57818.26874744613
 20
-13896.99203940533
 30
0.0
 11
57904.39197569154
 21
-14131.05486660224
 31
0.0
1001
AcDbBlockRepETag
1070
     1
1071
       38
1005
1866A
  0
LINE
  5
1866B
330
1F
100
AcDbEntity
  8
Cornice_linee
100
AcDbLine
 10
58006.41958402295
 20
-13896.99203940533
 30
0.0
 11
57920.29635577754
 21
-14131.05486660224
 31
0.0
1001
AcDbBlockRepETag
1070
     1
1071
       39
1005
1866B
  0
LINE
  5
1866C
330
1F
100
AcDbEntity
  8
Cornice_linee
100
AcDbLine
 10
58022.32396410895
 20
-13896.99203940533
 30
0.0
 11
58108.44719235436
 21
-14131.05486660224
 31
0.0
1001
AcDbBlockRepETag
1070
     1
1071
       40
1005
1866C
  0
LINE
  5
1866D
330
1F
100
AcDbEntity
  8
Cornice_linee
100
AcDbLine
 10
58210.47480068577
 20
-13896.99203940533
 30
0.0
 11
58124.35157244059
 21
-14131.05486660224
 31
0.0
1001
AcDbBlockRepETag
1070
     1
1071
       41
1005
1866D
  0
ARC
  5
1866E
330
1F
100
AcDbEntity
  8
Cornice_linee
100
AcDbCircle
 10
58524.50981572317
 20
-13876.28748114308
 30
0.0
 40
96.32685533619757
100
AcDbArc
 50
347.5879537727687
 51
192.4120462272313
1001
AcDbBlockRepETag
1070
     1
1071
       42
1005
1866E
  0
ARC
  5
1866F
330
1F
100
AcDbEntity
  8
Cornice_linee
100
AcDbCircle
 10
58422.48220739176
 20
-14151.75942486455
 30
0.0
 40
96.32685533619757
100
AcDbArc
 50
167.5879537727687
 51
12.41204622723127
1001
AcDbBlockRepETag
1070
     1
1071
       43
1005
1866F
  0
ARC
  5
18670
330
1F
100
AcDbEntity
  8
Cornice_linee
100
AcDbCircle
 10
58626.53742405458
 20
-14151.75942486455
 30
0.0
 40
96.32685533619757
100
AcDbArc
 50
167.5879537727687
 51
12.41204622723127
1001
AcDbBlockRepETag
1070
     1
1071
       44
1005
18670
  0
LINE
  5
18671
330
1F
100
AcDbEntity
  8
Cornice_linee
100
AcDbLine
 10
58414.53001734859
 20
-13896.99203940533
 30
0.0
 11
58328.40678910341
 21
-14131.05486660224
 31
0.0
1001
AcDbBlockRepETag
1070
     1
1071
       45
1005
18671
  0
LINE
  5
18672
330
1F
100
AcDbEntity
  8
Cornice_linee
100
AcDbLine
 10
58430.4343974347
 20
-13896.99203940533
 30
0.0
 11
58516.55762568
 21
-14131.05486660224
 31
0.0
1001
AcDbBlockRepETag
1070
     1
1071
       46
1005
18672
  0
LINE
  5
18673
330
1F
100
AcDbEntity
  8
Cornice_linee
100
AcDbLine
 10
58618.58523401152
 20
-13896.99203940533
 30
0.0
 11
58532.46200576623
 21
-14131.05486660224
 31
0.0
1001
AcDbBlockRepETag
1070
     1
1071
       47
1005
18673
  0
LINE
  5
18674
330
1F
100
AcDbEntity
  8
Cornice_linee
100
AcDbLine
 10
58634.48961409752
 20
-13896.99203940533
 30
0.0
 11
58720.61284234293
 21
-14131.05486660224
 31
0.0
1001
AcDbBlockRepETag
1070
     1
1071
       48
1005
18674
  0
LINE
  5
18675
330
1F
100
AcDbEntity
  8
Cornice_linee
100
AcDbLine
 10
57945.81444087205
 20
-13719.75017445284
 30
0.0
 11
58414.14713889873
 21
-13719.75017445284
 31
0.0
1001
AcDbBlockRepETag
1070
     1
1071
       49
1005
18675
  0
POLYLINE
  5
18676
330
1F
100
AcDbEntity
  8
Cornice_Quote
100
AcDb3dPolyline
 66
     1
 10
0.0
 20
0.0
 30
0.0
 70
     8
1001
AcDbBlockRepETag
1070
     1
1071
       50
1005
18676
  0
VERTEX
  5
18677
330
18676
100
AcDbEntity
  8
Cornice_Quote
100
AcDbVertex
100
AcDb3dPolylineVertex
 10
57881.73625863413
 20
-12790.91319058387
 30
0.0
 70
    32
  0
VERTEX
  5
18678
330
18676
100
AcDbEntity
  8
Cornice_Quote
100
AcDbVertex
100
AcDb3dPolylineVertex
 10
57828.94013219862
 20
-12859.2375895002
 30
0.0
 70
    32
  0
VERTEX
  5
18679
330
18676
100
AcDbEntity
  8
Cornice_Quote
100
AcDbVertex
100
AcDb3dPolylineVertex
 10
57918.3829816893
 20
-12854.06149867323
 30
0.0
 70
    32
  0
VERTEX
  5
1867A
330
18676
100
AcDbEntity
  8
Cornice_Quote
100
AcDbVertex
100
AcDb3dPolylineVertex
 10
57881.73625863413
 20
-12790.91319058387
 30
0.0
 70
    32
  0
SEQEND
  5
1867B
330
18676
100
AcDbEntity
  8
Cornice_Quote
  0
ARC
  5
1867C
330
1F
100
AcDbEntity
  8
Cornice_linee
100
AcDbCircle
 10
57954.09481257841
 20
-13621.67699581385
 30
0.0
 40
98.42211603065215
100
AcDbArc
 50
188.0639111053312
 51
265.1739320827072
1001
AcDbBlockRepETag
1070
     1
1071
       51
1005
1867C
  0
LINE
  5
1867D
330
1F
100
AcDbEntity
  8
Cornice_linee
100
AcDbLine
 10
57856.64587368537
 20
-12533.14386739925
 30
0.0
 11
57856.64587368537
 21
-13635.48341578926
 31
0.0
1001
AcDbBlockRepETag
1070
     1
1071
       52
1005
1867D
  0
POLYLINE
  5
1867E
330
1F
100
AcDbEntity
  8
Cornice_linee
100
AcDb3dPolyline
 66
     1
 10
0.0
 20
0.0
 30
0.0
 70
     8
1001
AcDbBlockRepETag
1070
     1
1071
       53
1005
1867E
  0
VERTEX
  5
1867F
330
1867E
100
AcDbEntity
  8
Cornice_linee
100
AcDbVertex
100
AcDb3dPolylineVertex
 10
57786.9102746835
 20
-12533.14386739925
 30
0.0
 70
    32
  0
VERTEX
  5
18680
330
1867E
100
AcDbEntity
  8
Cornice_linee
100
AcDbVertex
100
AcDb3dPolylineVertex
 10
57786.9102746835
 20
-13737.9307682917
 30
0.0
 70
    32
  0
SEQEND
  5
18681
330
1867E
100
AcDbEntity
  8
Cornice_linee
  0
POLYLINE
  5
18682
330
1F
100
AcDbEntity
  8
Cornice_Quote
100
AcDb3dPolyline
 66
     1
 10
0.0
 20
0.0
 30
0.0
 70
     8
1001
AcDbBlockRepETag
1070
     1
1071
       54
1005
18682
  0
VERTEX
  5
18683
330
18682
100
AcDbEntity
  8
Cornice_Quote
100
AcDbVertex
100
AcDb3dPolylineVertex
 10
57844.88249194587
 20
-11459.82967351272
 30
0.0
 70
    32
  0
VERTEX
  5
18684
330
18682
100
AcDbEntity
  8
Cornice_Quote
100
AcDbVertex
100
AcDb3dPolylineVertex
 10
57771.17495856946
 20
-11533.53720688913
 30
0.0
 70
    32
  0
VERTEX
  5
18685
330
18682
100
AcDbEntity
  8
Cornice_Quote
100
AcDbVertex
100
AcDb3dPolylineVertex
 10
57871.17703334696
 20
-11517.8018907751
 30
0.0
 70
    32
  0
VERTEX
  5
18686
330
18682
100
AcDbEntity
  8
Cornice_Quote
100
AcDbVertex
100
AcDb3dPolylineVertex
 10
57844.88249194587
 20
-11459.82967351272
 30
0.0
 70
    32
  0
SEQEND
  5
18687
330
18682
100
AcDbEntity
  8
Cornice_Quote
  0
LINE
  5
18688
330
1F
100
AcDbEntity
  8
Cornice_Quote
100
AcDbLine
 10
61870.72086246661
 20
-13779.96062580694
 30
0.0
 11
64315.82420022739
 21
-13779.96062580694
 31
0.0
1001
AcDbBlockRepETag
1070
     1
1071
       55
1005
18688
  0
POLYLINE
  5
18689
330
1F
100
AcDbEntity
  8
Cornice_Quote
100
AcDb3dPolyline
 66
     1
 10
0.0
 20
0.0
 30
0.0
 70
     8
1001
AcDbBlockRepETag
1070
     1
1071
       57
1005
18689
  0
VERTEX
  5
1868A
330
18689
100
AcDbEntity
  8
Cornice_Quote
100
AcDbVertex
100
AcDb3dPolylineVertex
 10
62185.13817220135
 20
-12748.88333306857
 30
0.0
 70
    32
  0
VERTEX
  5
1868B
330
18689
100
AcDbEntity
  8
Cornice_Quote
100
AcDbVertex
100
AcDb3dPolylineVertex
 10
64315.82420022739
 20
-12748.88333306857
 30
0.0
 70
    32
  0
SEQEND
  5
1868C
330
18689
100
AcDbEntity
  8
Cornice_Quote
  0
TEXT
  5
1868D
330
1F
100
AcDbEntity
  8
Cornice_Testi
  6
Continuous
100
AcDbText
 10
62046.52421757579
 20
-12274.48753467033
 30
0.0
 40
158.6952945378852
  1
PAVIMENTACIÓN
  7
style1
100
AcDbText
1001
AcDbBlockRepETag
1070
     1
1071
       58
1005
0
  0
TEXT
  5
1868E
330
1F
100
AcDbEntity
  8
Cornice_Testi
  6
Continuous
100
AcDbText
 10
62175.17548717244
 20
-13655.59197240276
 30
0.0
 40
158.6952945378852
  1
16-18-20 mm
  7
style1
100
AcDbText
1001
AcDbBlockRepETag
1070
     1
1071
       60
1005
0
  0
POLYLINE
  5
1868F
330
1F
100
AcDbEntity
  8
Cornice_Quote
100
AcDb3dPolyline
 66
     1
 10
0.0
 20
0.0
 30
0.0
 70
     8
1001
AcDbBlockRepETag
1070
     1
1071
       61
1005
1868F
  0
VERTEX
  5
18690
330
1868F
100
AcDbEntity
  8
Cornice_Quote
100
AcDbVertex
100
AcDb3dPolylineVertex
 10
61076.73009383155
 20
-13383.00521071715
 30
0.0
 70
    32
  0
VERTEX
  5
18691
330
1868F
100
AcDbEntity
  8
Cornice_Quote
100
AcDbVertex
100
AcDb3dPolylineVertex
 10
63467.22094375431
 20
-13383.00521071715
 30
0.0
 70
    32
  0
SEQEND
  5
18692
330
1868F
100
AcDbEntity
  8
Cornice_Quote
  0
TEXT
  5
18693
330
1F
100
AcDbEntity
  8
Cornice_Testi
  6
Continuous
100
AcDbText
 10
61735.4437566835
 20
-11376.91401098529
 30
0.0
 40
158.6952945378852
  1
CINTA PERIMETRAL DOBLE CARA ADHESIVO
  7
style1
100
AcDbText
1001
AcDbBlockRepETag
1070
     1
1071
       62
1005
0
  0
TEXT
  5
18694
330
1F
100
AcDbEntity
  8
Cornice_Testi
  6
Continuous
100
AcDbText
 10
61981.42953284166
 20
-15567.30423631729
 30
0.0
 40
158.6952945378852
  1
TUBO EUROTHERM
  7
style1
100
AcDbText
1001
AcDbBlockRepETag
1070
     1
1071
       63
1005
0
  0
TEXT
  5
18695
330
1F
100
AcDbEntity
  8
Cornice_Testi
  6
Continuous
100
AcDbText
 10
60614.28360973613
 20
-16134.05965771858
 30
0.0
 40
158.6952945378852
  1
MORTERO DE NIVELACIÓN
  7
style1
100
AcDbText
1001
AcDbBlockRepETag
1070
     1
1071
       64
1005
0
  0
POLYLINE
  5
18696
330
1F
100
AcDbEntity
  8
Cornice_Quote
100
AcDb3dPolyline
 66
     1
 10
0.0
 20
0.0
 30
0.0
 70
     8
1001
AcDbBlockRepETag
1070
     1
1071
       65
1005
18696
  0
VERTEX
  5
18697
330
18696
100
AcDbEntity
  8
Cornice_Quote
100
AcDbVertex
100
AcDb3dPolylineVertex
 10
63434.88567352295
 20
-15647.70123982133
 30
0.0
 70
    32
  0
VERTEX
  5
18698
330
18696
100
AcDbEntity
  8
Cornice_Quote
100
AcDbVertex
100
AcDb3dPolylineVertex
 10
61811.63145812519
 20
-15647.70123982133
 30
0.0
 70
    32
  0
VERTEX
  5
18699
330
18696
100
AcDbEntity
  8
Cornice_Quote
100
AcDbVertex
100
AcDb3dPolylineVertex
 10
60811.25057834631
 20
-13694.24222174118
 30
0.0
 70
    32
  0
SEQEND
  5
1869A
330
18696
100
AcDbEntity
  8
Cornice_Quote
  0
POLYLINE
  5
1869B
330
1F
100
AcDbEntity
  8
Cornice_Quote
100
AcDb3dPolyline
 66
     1
 10
0.0
 20
0.0
 30
0.0
 70
     8
1001
AcDbBlockRepETag
1070
     1
1071
       66
1005
1869B
  0
VERTEX
  5
1869C
330
1869B
100
AcDbEntity
  8
Cornice_Quote
100
AcDbVertex
100
AcDb3dPolylineVertex
 10
64095.38847040047
 20
-16221.00505981978
 30
0.0
 70
    32
  0
VERTEX
  5
1869D
330
1869B
100
AcDbEntity
  8
Cornice_Quote
100
AcDbVertex
100
AcDb3dPolylineVertex
 10
60591.10924111865
 20
-16221.00505981978
 30
0.0
 70
    32
  0
VERTEX
  5
1869E
330
1869B
100
AcDbEntity
  8
Cornice_Quote
100
AcDbVertex
100
AcDb3dPolylineVertex
 10
60033.33369360131
 20
-14642.81496666768
 30
0.0
 70
    32
  0
SEQEND
  5
1869F
330
1869B
100
AcDbEntity
  8
Cornice_Quote
  0
POLYLINE
  5
186A0
330
1F
100
AcDbEntity
  8
Cornice_Quote
100
AcDb3dPolyline
 66
     1
 10
0.0
 20
0.0
 30
0.0
 70
     8
1001
AcDbBlockRepETag
1070
     1
1071
       67
1005
186A0
  0
VERTEX
  5
186A1
330
186A0
100
AcDbEntity
  8
Cornice_Quote
100
AcDbVertex
100
AcDb3dPolylineVertex
 10
64468.10580289573
 20
-15116.22023370501
 30
0.0
 70
    32
  0
VERTEX
  5
186A2
330
186A0
100
AcDbEntity
  8
Cornice_Quote
100
AcDbVertex
100
AcDb3dPolylineVertex
 10
62132.54908939905
 20
-15116.22023370501
 30
0.0
 70
    32
  0
VERTEX
  5
186A3
330
186A0
100
AcDbEntity
  8
Cornice_Quote
100
AcDbVertex
100
AcDb3dPolylineVertex
 10
61527.56759353937
 20
-14106.05434790789
 30
0.0
 70
    32
  0
SEQEND
  5
186A4
330
186A0
100
AcDbEntity
  8
Cornice_Quote
  0
POLYLINE
  5
186A5
330
1F
100
AcDbEntity
  8
Cornice_Quote
100
AcDb3dPolyline
 66
     1
 10
0.0
 20
0.0
 30
0.0
 70
     8
1001
AcDbBlockRepETag
1070
     1
1071
       68
1005
186A5
  0
VERTEX
  5
186A6
330
186A5
100
AcDbEntity
  8
Cornice_Quote
100
AcDbVertex
100
AcDb3dPolylineVertex
 10
59002.25640086294
 20
-15258.25216599792
 30
0.0
 70
    32
  0
VERTEX
  5
186A7
330
186A5
100
AcDbEntity
  8
Cornice_Quote
100
AcDbVertex
100
AcDb3dPolylineVertex
 10
59091.6992503535
 20
-15216.22230848268
 30
0.0
 70
    32
  0
VERTEX
  5
186A8
330
186A5
100
AcDbEntity
  8
Cornice_Quote
100
AcDbVertex
100
AcDb3dPolylineVertex
 10
59054.84548366524
 20
-15300.48906714621
 30
0.0
 70
    32
  0
VERTEX
  5
186A9
330
186A5
100
AcDbEntity
  8
Cornice_Quote
100
AcDbVertex
100
AcDb3dPolylineVertex
 10
59002.25640086294
 20
-15258.25216599792
 30
0.0
 70
    32
  0
SEQEND
  5
186AA
330
186A5
100
AcDbEntity
  8
Cornice_Quote
  0
LINE
  5
186AB
330
1F
100
AcDbEntity
  8
Cornice_linee
100
AcDbLine
 10
60928.54313645675
 20
-13998.85150856496
 30
0.0
 11
60874.10174517438
 21
-13925.15800438222
 31
0.0
1001
AcDbBlockRepETag
1070
     1
1071
       69
1005
186AB
  0
ARC
  5
186AC
330
1F
100
AcDbEntity
  8
Cornice_linee
100
AcDbCircle
 10
60878.77324001142
 20
-13921.70691759884
 30
0.0
 40
5.808000000000008
100
AcDbArc
 50
39.37875693515164
 51
216.4552939955974
1001
AcDbBlockRepETag
1070
     1
1071
       70
1005
186AC
  0
ARC
  5
186AD
330
1F
100
AcDbEntity
  8
Cornice_linee
100
AcDbCircle
 10
60871.14480734593
 20
-14151.75942486455
 30
0.0
 40
96.32685533619757
100
AcDbArc
 50
167.5879537727687
 51
12.41204622723127
1001
AcDbBlockRepETag
1070
     1
1071
       71
1005
186AD
  0
POLYLINE
  5
186AE
330
1F
100
AcDbEntity
  8
Cornice_linee
100
AcDb3dPolyline
 66
     1
 10
0.0
 20
0.0
 30
0.0
 70
     8
1001
AcDbBlockRepETag
1070
     1
1071
       72
1005
186AE
  0
VERTEX
  5
186AF
330
186AE
100
AcDbEntity
  8
Cornice_linee
100
AcDbVertex
100
AcDb3dPolylineVertex
 10
61348.68189455837
 20
-11017.99856052006
 30
0.0
 70
    32
  0
VERTEX
  5
186B0
330
186AE
100
AcDbEntity
  8
Cornice_linee
100
AcDbVertex
100
AcDb3dPolylineVertex
 10
60790.90634704079
 20
-11017.99856052006
 30
0.0
 70
    32
  0
SEQEND
  5
186B1
330
186AE
100
AcDbEntity
  8
Cornice_linee
  0
ARC
  5
186B2
330
1F
100
AcDbEntity
  8
Cornice_linee
100
AcDbCircle
 10
60769.11719901452
 20
-13620.5346883646
 30
0.0
 40
205.1010640960861
100
AcDbArc
 50
1.905799075546117
 51
178.0942009244539
1001
AcDbBlockRepETag
1070
     1
1071
       73
1005
186B2
  0
CIRCLE
  5
186B3
330
1F
100
AcDbEntity
  8
Cornice_linee
100
AcDbCircle
 10
60769.11719901452
 20
-13620.5346883646
 30
0.0
 40
159.4259374422132
1001
AcDbBlockRepETag
1070
     1
1071
       74
1005
186B3
  0
CIRCLE
  5
186B4
330
1F
100
AcDbEntity
  8
Cornice_linee
100
AcDbCircle
 10
60769.11719901452
 20
-13620.5346883646
 30
0.0
 40
125.6612789091824
1001
AcDbBlockRepETag
1070
     1
1071
       75
1005
186B4
  0
LINE
  5
186B5
330
1F
100
AcDbEntity
  8
Cornice_linee
100
AcDbLine
 10
60609.69126157218
 20
-13779.96062580694
 30
0.0
 11
60928.54313645675
 21
-13779.96062580694
 31
0.0
1001
AcDbBlockRepETag
1070
     1
1071
       76
1005
186B5
  0
ARC
  5
186B6
330
1F
100
AcDbEntity
  8
Cornice_linee
100
AcDbCircle
 10
60973.17241567734
 20
-13876.28748114308
 30
0.0
 40
96.32685533619757
100
AcDbArc
 50
117.6009591698805
 51
192.4120462272313
1001
AcDbBlockRepETag
1070
     1
1071
       77
1005
186B6
  0
ARC
  5
186B7
330
1F
100
AcDbEntity
  8
Cornice_linee
100
AcDbCircle
 10
59850.86872403161
 20
-14151.75942486455
 30
0.0
 40
96.32685533619757
100
AcDbArc
 50
167.5879537727687
 51
12.41204622723127
1001
AcDbBlockRepETag
1070
     1
1071
       78
1005
186B7
  0
LINE
  5
186B8
330
1F
100
AcDbEntity
  8
Cornice_linee
100
AcDbLine
 10
59842.91653398855
 20
-13896.99203940533
 30
0.0
 11
59756.79330574337
 21
-14131.05486660224
 31
0.0
1001
AcDbBlockRepETag
1070
     1
1071
       79
1005
186B8
  0
ARC
  5
186B9
330
1F
100
AcDbEntity
  8
Cornice_linee
100
AcDbCircle
 10
59748.8411157002
 20
-13876.28748114308
 30
0.0
 40
96.32685533619757
100
AcDbArc
 50
347.5879537727687
 51
192.4120462272313
1001
AcDbBlockRepETag
1070
     1
1071
       80
1005
186B9
  0
LINE
  5
186BA
330
1F
100
AcDbEntity
  8
Cornice_linee
100
AcDbLine
 10
59341.77652980783
 20
-13779.96062580694
 30
0.0
 11
60564.01613491832
 21
-13779.96062580694
 31
0.0
1001
AcDbBlockRepETag
1070
     1
1071
       81
1005
186BA
  0
POLYLINE
  5
186BB
330
1F
100
AcDbEntity
  8
Cornice_linee
100
AcDb3dPolyline
 66
     1
 10
0.0
 20
0.0
 30
0.0
 70
     8
1001
AcDbBlockRepETag
1070
     1
1071
       82
1005
186BB
  0
VERTEX
  5
186BC
330
186BB
100
AcDbEntity
  8
Cornice_linee
100
AcDbVertex
100
AcDb3dPolylineVertex
 10
59341.77652980783
 20
-13670.29224886355
 30
0.0
 70
    32
  0
VERTEX
  5
186BD
330
186BB
100
AcDbEntity
  8
Cornice_linee
100
AcDbVertex
100
AcDb3dPolylineVertex
 10
59341.77652980783
 20
-13973.18913096219
 30
0.0
 70
    32
  0
SEQEND
  5
186BE
330
186BB
100
AcDbEntity
  8
Cornice_linee
  0
LINE
  5
186BF
330
1F
100
AcDbEntity
  8
Cornice_linee
100
AcDbLine
 10
59296.10140315385
 20
-13620.5346883646
 30
0.0
 11
59296.10140315385
 21
-13973.18913096219
 31
0.0
1001
AcDbBlockRepETag
1070
     1
1071
       83
1005
186BF
  0
POLYLINE
  5
186C0
330
1F
100
AcDbEntity
  8
Cornice_linee
100
AcDb3dPolyline
 66
     1
 10
0.0
 20
0.0
 30
0.0
 70
     8
1001
AcDbBlockRepETag
1070
     1
1071
       84
1005
186C0
  0
VERTEX
  5
186C1
330
186C0
100
AcDbEntity
  8
Cornice_linee
100
AcDbVertex
100
AcDb3dPolylineVertex
 10
58931.57440161565
 20
-13670.29224886355
 30
0.0
 70
    32
  0
VERTEX
  5
186C2
330
186C0
100
AcDbEntity
  8
Cornice_linee
100
AcDbVertex
100
AcDb3dPolylineVertex
 10
58931.57440161565
 20
-13973.18913096219
 30
0.0
 70
    32
  0
SEQEND
  5
186C3
330
186C0
100
AcDbEntity
  8
Cornice_linee
  0
LINE
  5
186C4
330
1F
100
AcDbEntity
  8
Cornice_linee
100
AcDbLine
 10
58977.24952826952
 20
-13620.5346883646
 30
0.0
 11
58977.24952826952
 21
-13973.18913096219
 31
0.0
1001
AcDbBlockRepETag
1070
     1
1071
       85
1005
186C4
  0
CIRCLE
  5
186C5
330
1F
100
AcDbEntity
  8
Cornice_linee
100
AcDbCircle
 10
59136.67546571163
 20
-13620.5346883646
 30
0.0
 40
125.6612789091824
1001
AcDbBlockRepETag
1070
     1
1071
       86
1005
186C5
  0
CIRCLE
  5
186C6
330
1F
100
AcDbEntity
  8
Cornice_linee
100
AcDbCircle
 10
59136.67546571163
 20
-13620.5346883646
 30
0.0
 40
159.4259374422132
1001
AcDbBlockRepETag
1070
     1
1071
       87
1005
186C6
  0
LINE
  5
186C7
330
1F
100
AcDbEntity
  8
Cornice_linee
100
AcDbLine
 10
59250.8209098127
 20
-13918.02206702257
 30
0.0
 11
59296.10140315385
 21
-13973.18913096219
 31
0.0
1001
AcDbBlockRepETag
1070
     1
1071
       88
1005
186C7
  0
LINE
  5
186C8
330
1F
100
AcDbEntity
  8
Cornice_linee
100
AcDbLine
 10
59296.10140315385
 20
-13998.85150856496
 30
0.0
 11
59241.6600118716
 21
-13925.15800438222
 31
0.0
1001
AcDbBlockRepETag
1070
     1
1071
       89
1005
186C8
  0
LINE
  5
186C9
330
1F
100
AcDbEntity
  8
Cornice_linee
100
AcDbLine
 10
59264.7893969994
 20
-13998.85150856496
 30
0.0
 11
59296.10140315385
 21
-13998.85150856496
 31
0.0
1001
AcDbBlockRepETag
1070
     1
1071
       90
1005
186C9
  0
ARC
  5
186CA
330
1F
100
AcDbEntity
  8
Cornice_linee
100
AcDbCircle
 10
59340.73068237456
 20
-13876.28748114308
 30
0.0
 40
96.32685533619757
100
AcDbArc
 50
117.6009591698805
 51
192.4120462272313
1001
AcDbBlockRepETag
1070
     1
1071
       91
1005
186CA
  0
LINE
  5
186CB
330
1F
100
AcDbEntity
  8
Cornice_linee
100
AcDbLine
 10
58977.24952826952
 20
-13779.96062580694
 30
0.0
 11
59296.10140315385
 21
-13779.96062580694
 31
0.0
1001
AcDbBlockRepETag
1070
     1
1071
       92
1005
186CB
  0
ARC
  5
186CC
330
1F
100
AcDbEntity
  8
Cornice_linee
100
AcDbCircle
 10
59238.70307404303
 20
-14151.75942486455
 30
0.0
 40
96.32685533619757
100
AcDbArc
 50
167.5879537727687
 51
12.41204622723127
1001
AcDbBlockRepETag
1070
     1
1071
       93
1005
186CC
  0
POLYLINE
  5
186CD
330
1F
100
AcDbEntity
  8
Cornice_linee
100
AcDb3dPolyline
 66
     1
 10
0.0
 20
0.0
 30
0.0
 70
     8
1001
AcDbBlockRepETag
1070
     1
1071
       94
1005
186CD
  0
VERTEX
  5
186CE
330
186CD
100
AcDbEntity
  8
Cornice_linee
100
AcDbVertex
100
AcDb3dPolylineVertex
 10
59318.9389664809
 20
-14091.39772070711
 30
0.0
 70
    32
  0
VERTEX
  5
186CF
330
186CD
100
AcDbEntity
  8
Cornice_linee
100
AcDbVertex
100
AcDb3dPolylineVertex
 10
59264.7893969994
 20
-13998.85150856496
 30
0.0
 70
    32
  0
SEQEND
  5
186D0
330
186CD
100
AcDbEntity
  8
Cornice_linee
  0
ARC
  5
186D1
330
1F
100
AcDbEntity
  8
Cornice_linee
100
AcDbCircle
 10
58932.62024904881
 20
-13876.28748114308
 30
0.0
 40
96.32685533619757
100
AcDbArc
 50
347.5879537727687
 51
62.39904083011951
1001
AcDbBlockRepETag
1070
     1
1071
       95
1005
186D1
  0
LINE
  5
186D2
330
1F
100
AcDbEntity
  8
Cornice_linee
100
AcDbLine
 10
59246.65526408632
 20
-13896.99203940533
 30
0.0
 11
59257.29590465117
 21
-13925.91081619239
 31
0.0
1001
AcDbBlockRepETag
1070
     1
1071
       96
1005
186D2
  0
ARC
  5
186D3
330
1F
100
AcDbEntity
  8
Cornice_linee
100
AcDbCircle
 10
59136.67546571163
 20
-13876.28748114308
 30
0.0
 40
96.32685533619757
100
AcDbArc
 50
347.5879537727687
 51
192.4120462272313
1001
AcDbBlockRepETag
1070
     1
1071
       97
1005
186D3
  0
LINE
  5
186D4
330
1F
100
AcDbEntity
  8
Cornice_linee
100
AcDbLine
 10
59026.69566733716
 20
-13896.99203940533
 30
0.0
 11
59016.0550267722
 21
-13925.91081619245
 31
0.0
1001
AcDbBlockRepETag
1070
     1
1071
       98
1005
186D4
  0
LINE
  5
186D5
330
1F
100
AcDbEntity
  8
Cornice_linee
100
AcDbLine
 10
59008.56153442373
 20
-13998.85150856496
 30
0.0
 11
58977.24952826952
 21
-13998.85150856496
 31
0.0
1001
AcDbBlockRepETag
1070
     1
1071
       99
1005
186D5
  0
LINE
  5
186D6
330
1F
100
AcDbEntity
  8
Cornice_linee
100
AcDbLine
 10
58977.24952826952
 20
-13998.85150856496
 30
0.0
 11
59031.69091955177
 21
-13925.15800438222
 31
0.0
1001
AcDbBlockRepETag
1070
     1
1071
      100
1005
186D6
  0
LINE
  5
186D7
330
1F
100
AcDbEntity
  8
Cornice_linee
100
AcDbLine
 10
59022.53002161067
 20
-13918.02206702257
 30
0.0
 11
58977.24952826952
 21
-13973.18913096219
 31
0.0
1001
AcDbBlockRepETag
1070
     1
1071
      101
1005
186D7
  0
LINE
  5
186D8
330
1F
100
AcDbEntity
  8
Cornice_linee
100
AcDbLine
 10
58886.29390827438
 20
-13918.02206702257
 30
0.0
 11
58931.57440161565
 21
-13973.18913096219
 31
0.0
1001
AcDbBlockRepETag
1070
     1
1071
      102
1005
186D8
  0
LINE
  5
186D9
330
1F
100
AcDbEntity
  8
Cornice_linee
100
AcDbLine
 10
58931.57440161565
 20
-13998.85150856496
 30
0.0
 11
58877.13301033329
 21
-13925.15800438222
 31
0.0
1001
AcDbBlockRepETag
1070
     1
1071
      103
1005
186D9
  0
ARC
  5
186DA
330
1F
100
AcDbEntity
  8
Cornice_linee
100
AcDbCircle
 10
58881.80450517044
 20
-13921.70691759884
 30
0.0
 40
5.808000000000008
100
AcDbArc
 50
39.37875693515164
 51
216.4552939955974
1001
AcDbBlockRepETag
1070
     1
1071
      104
1005
186DA
  0
LINE
  5
186DB
330
1F
100
AcDbEntity
  8
Cornice_linee
100
AcDbLine
 10
58900.26239546121
 20
-13998.85150856496
 30
0.0
 11
58931.57440161565
 21
-13998.85150856496
 31
0.0
1001
AcDbBlockRepETag
1070
     1
1071
      105
1005
186DB
  0
ARC
  5
186DC
330
1F
100
AcDbEntity
  8
Cornice_linee
100
AcDbCircle
 10
59246.33150670875
 20
-13921.70691759884
 30
0.0
 40
5.808000000000008
100
AcDbArc
 50
39.37875693515164
 51
216.4552939955974
1001
AcDbBlockRepETag
1070
     1
1071
      106
1005
186DC
  0
ARC
  5
186DD
330
1F
100
AcDbEntity
  8
Cornice_linee
100
AcDbCircle
 10
59027.01942471461
 20
-13921.70691759884
 30
0.0
 40
5.808000000000008
100
AcDbArc
 50
323.5447060044027
 51
140.6212430648484
1001
AcDbBlockRepETag
1070
     1
1071
      107
1005
186DD
  0
LINE
  5
186DE
330
1F
100
AcDbEntity
  8
Cornice_linee
100
AcDbLine
 10
59001.09141912637
 20
-13966.57840822346
 30
0.0
 11
58989.21655791823
 21
-13998.85150856496
 31
0.0
1001
AcDbBlockRepETag
1070
     1
1071
      108
1005
186DE
  0
ARC
  5
186DF
330
1F
100
AcDbEntity
  8
Cornice_linee
100
AcDbCircle
 10
58932.62024904881
 20
-13876.28748114308
 30
0.0
 40
96.32685533619757
100
AcDbArc
 50
90.6220884230384
 51
192.4120462272313
1001
AcDbBlockRepETag
1070
     1
1071
      109
1005
186DF
  0
LINE
  5
186E0
330
1F
100
AcDbEntity
  8
Cornice_linee
100
AcDbLine
 10
59272.25951229711
 20
-13966.57840822346
 30
0.0
 11
59284.1343735049
 21
-13998.85150856496
 31
0.0
1001
AcDbBlockRepETag
1070
     1
1071
      110
1005
186E0
  0
ARC
  5
186E1
330
1F
100
AcDbEntity
  8
Cornice_linee
100
AcDbCircle
 10
59034.64785738022
 20
-14151.75942486455
 30
0.0
 40
96.32685533619757
100
AcDbArc
 50
167.5879537727687
 51
12.41204622723127
1001
AcDbBlockRepETag
1070
     1
1071
      112
1005
186E1
  0
CIRCLE
  5
186E2
330
1F
100
AcDbEntity
  8
Cornice_linee
100
AcDbCircle
 10
59081.14511394617
 20
-14537.46732337272
 30
0.0
 40
97.01254293044646
1001
AcDbBlockRepETag
1070
     1
1071
      113
1005
186E2
  0
LINE
  5
186E3
330
1F
100
AcDbEntity
  8
Cornice_linee
100
AcDbLine
 10
58956.43891349179
 20
-14087.93349352595
 30
0.0
 11
58940.57243909186
 21
-14131.05486660224
 31
0.0
1001
AcDbBlockRepETag
1070
     1
1071
      114
1005
186E3
  0
LINE
  5
186E4
330
1F
100
AcDbEntity
  8
Cornice_linee
100
AcDbLine
 10
58838.54483076045
 20
-13896.99203940533
 30
0.0
 11
58924.66805900575
 21
-14131.05486660224
 31
0.0
1001
AcDbBlockRepETag
1070
     1
1071
      115
1005
186E4
  0
LINE
  5
186E5
330
1F
100
AcDbEntity
  8
Cornice_linee
100
AcDbLine
 10
59042.6000474235
 20
-13896.99203940533
 30
0.0
 11
59128.72327566857
 21
-14131.05486660224
 31
0.0
1001
AcDbBlockRepETag
1070
     1
1071
      116
1005
186E5
  0
LINE
  5
186E6
330
1F
100
AcDbEntity
  8
Cornice_linee
100
AcDbLine
 10
59230.75088399998
 20
-13896.99203940533
 30
0.0
 11
59144.62765575491
 21
-14131.05486660224
 31
0.0
1001
AcDbBlockRepETag
1070
     1
1071
      117
1005
186E6
  0
POLYLINE
  5
186E7
330
1F
100
AcDbEntity
  8
Cornice_linee
100
AcDb3dPolyline
 66
     1
 10
0.0
 20
0.0
 30
0.0
 70
     8
1001
AcDbBlockRepETag
1070
     1
1071
      118
1005
186E7
  0
VERTEX
  5
186E8
330
186E7
100
AcDbEntity
  8
Cornice_linee
100
AcDbVertex
100
AcDb3dPolylineVertex
 10
58954.41196494258
 20
-14091.39772070711
 30
0.0
 70
    32
  0
VERTEX
  5
186E9
330
186E7
100
AcDbEntity
  8
Cornice_linee
100
AcDbVertex
100
AcDb3dPolylineVertex
 10
59008.56153442373
 20
-13998.85150856496
 30
0.0
 70
    32
  0
SEQEND
  5
186EA
330
186E7
100
AcDbEntity
  8
Cornice_linee
  0
POLYLINE
  5
186EB
330
1F
100
AcDbEntity
  8
Cornice_linee
100
AcDb3dPolyline
 66
     1
 10
0.0
 20
0.0
 30
0.0
 70
     8
1001
AcDbBlockRepETag
1070
     1
1071
      119
1005
186EB
  0
VERTEX
  5
186EC
330
186EB
100
AcDbEntity
  8
Cornice_linee
100
AcDbVertex
100
AcDb3dPolylineVertex
 10
58954.41196494258
 20
-14091.39772070711
 30
0.0
 70
    32
  0
VERTEX
  5
186ED
330
186EB
100
AcDbEntity
  8
Cornice_linee
100
AcDbVertex
100
AcDb3dPolylineVertex
 10
58900.26239546121
 20
-13998.85150856496
 30
0.0
 70
    32
  0
SEQEND
  5
186EE
330
186EB
100
AcDbEntity
  8
Cornice_linee
  0
ARC
  5
186EF
330
1F
100
AcDbEntity
  8
Cornice_linee
100
AcDbCircle
 10
59340.73068237456
 20
-13876.28748114308
 30
0.0
 40
96.32685533619757
100
AcDbArc
 50
347.5879537727687
 51
89.3779115769616
1001
AcDbBlockRepETag
1070
     1
1071
      120
1005
186EF
  0
ARC
  5
186F0
330
1F
100
AcDbEntity
  8
Cornice_linee
100
AcDbCircle
 10
59544.78589903738
 20
-13876.28748114308
 30
0.0
 40
96.32685533619757
100
AcDbArc
 50
347.5879537727687
 51
192.4120462272313
1001
AcDbBlockRepETag
1070
     1
1071
      121
1005
186F0
  0
LINE
  5
186F1
330
1F
100
AcDbEntity
  8
Cornice_linee
100
AcDbLine
 10
59373.08853596228
 20
-13998.85150856496
 30
0.0
 11
59341.77652980783
 21
-13998.85150856496
 31
0.0
1001
AcDbBlockRepETag
1070
     1
1071
      122
1005
186F1
  0
ARC
  5
186F2
330
1F
100
AcDbEntity
  8
Cornice_linee
100
AcDbCircle
 10
59391.54642625293
 20
-13921.70691759884
 30
0.0
 40
5.808000000000008
100
AcDbArc
 50
323.5447060044027
 51
140.6212430648484
1001
AcDbBlockRepETag
1070
     1
1071
      123
1005
186F2
  0
LINE
  5
186F3
330
1F
100
AcDbEntity
  8
Cornice_linee
100
AcDbLine
 10
59341.77652980783
 20
-13998.85150856496
 30
0.0
 11
59396.21792109008
 21
-13925.15800438222
 31
0.0
1001
AcDbBlockRepETag
1070
     1
1071
      124
1005
186F3
  0
LINE
  5
186F4
330
1F
100
AcDbEntity
  8
Cornice_linee
100
AcDbLine
 10
59387.05702314898
 20
-13918.02206702257
 30
0.0
 11
59341.77652980783
 21
-13973.18913096219
 31
0.0
1001
AcDbBlockRepETag
1070
     1
1071
      125
1005
186F4
  0
ARC
  5
186F5
330
1F
100
AcDbEntity
  8
Cornice_linee
100
AcDbCircle
 10
59646.81350736879
 20
-14151.75942486455
 30
0.0
 40
96.32685533619757
100
AcDbArc
 50
167.5879537727687
 51
12.41204622723127
1001
AcDbBlockRepETag
1070
     1
1071
      126
1005
186F5
  0
ARC
  5
186F6
330
1F
100
AcDbEntity
  8
Cornice_linee
100
AcDbCircle
 10
59442.75829070597
 20
-14151.75942486455
 30
0.0
 40
96.32685533619757
100
AcDbArc
 50
167.5879537727687
 51
12.41204622723127
1001
AcDbBlockRepETag
1070
     1
1071
      127
1005
186F6
  0
CIRCLE
  5
186F7
330
1F
100
AcDbEntity
  8
Cornice_linee
100
AcDbCircle
 10
59710.30880482553
 20
-14534.8417120165
 30
0.0
 40
97.09777167805574
1001
AcDbBlockRepETag
1070
     1
1071
      128
1005
186F7
  0
LINE
  5
186F8
330
1F
100
AcDbEntity
  8
Cornice_linee
100
AcDbLine
 10
59316.91201793146
 20
-14087.93349352595
 30
0.0
 11
59332.77849233139
 21
-14131.05486660224
 31
0.0
1001
AcDbBlockRepETag
1070
     1
1071
      129
1005
186F8
  0
LINE
  5
186F9
330
1F
100
AcDbEntity
  8
Cornice_linee
100
AcDbLine
 10
59434.8061006628
 20
-13896.99203940533
 30
0.0
 11
59348.68287241773
 21
-14131.05486660224
 31
0.0
1001
AcDbBlockRepETag
1070
     1
1071
      130
1005
186F9
  0
LINE
  5
186FA
330
1F
100
AcDbEntity
  8
Cornice_linee
100
AcDbLine
 10
59450.71048074914
 20
-13896.99203940533
 30
0.0
 11
59536.83370899421
 21
-14131.05486660224
 31
0.0
1001
AcDbBlockRepETag
1070
     1
1071
      131
1005
186FA
  0
LINE
  5
186FB
330
1F
100
AcDbEntity
  8
Cornice_linee
100
AcDbLine
 10
59638.86131732573
 20
-13896.99203940533
 30
0.0
 11
59552.73808908055
 21
-14131.05486660224
 31
0.0
1001
AcDbBlockRepETag
1070
     1
1071
      132
1005
186FB
  0
LINE
  5
186FC
330
1F
100
AcDbEntity
  8
Cornice_linee
100
AcDbLine
 10
59654.76569741196
 20
-13896.99203940533
 30
0.0
 11
59740.88892565714
 21
-14131.05486660224
 31
0.0
1001
AcDbBlockRepETag
1070
     1
1071
      133
1005
186FC
  0
POLYLINE
  5
186FD
330
1F
100
AcDbEntity
  8
Cornice_linee
100
AcDb3dPolyline
 66
     1
 10
0.0
 20
0.0
 30
0.0
 70
     8
1001
AcDbBlockRepETag
1070
     1
1071
      134
1005
186FD
  0
VERTEX
  5
186FE
330
186FD
100
AcDbEntity
  8
Cornice_linee
100
AcDbVertex
100
AcDb3dPolylineVertex
 10
59318.9389664809
 20
-14091.39772070711
 30
0.0
 70
    32
  0
VERTEX
  5
186FF
330
186FD
100
AcDbEntity
  8
Cornice_linee
100
AcDbVertex
100
AcDb3dPolylineVertex
 10
59373.08853596228
 20
-13998.85150856496
 30
0.0
 70
    32
  0
SEQEND
  5
18700
330
186FD
100
AcDbEntity
  8
Cornice_linee
  0
ARC
  5
18701
330
1F
100
AcDbEntity
  8
Cornice_linee
100
AcDbCircle
 10
59136.67546571163
 20
-13620.5346883646
 30
0.0
 40
205.1010640960861
100
AcDbArc
 50
1.905799075546117
 51
178.0942009244539
1001
AcDbBlockRepETag
1070
     1
1071
      135
1005
18701
  0
POLYLINE
  5
18702
330
1F
100
AcDbEntity
  8
Cornice_linee
100
AcDb3dPolyline
 66
     1
 10
0.0
 20
0.0
 30
0.0
 70
     8
1001
AcDbBlockRepETag
1070
     1
1071
      136
1005
18702
  0
VERTEX
  5
18703
330
18702
100
AcDbEntity
  8
Cornice_linee
100
AcDbVertex
100
AcDb3dPolylineVertex
 10
58931.6878522255
 20
-13613.7137785583
 30
0.0
 70
    32
  0
VERTEX
  5
18704
330
18702
100
AcDbEntity
  8
Cornice_linee
100
AcDbVertex
100
AcDb3dPolylineVertex
 10
58854.58726880734
 20
-13613.7137785583
 30
0.0
 70
    32
  0
SEQEND
  5
18705
330
18702
100
AcDbEntity
  8
Cornice_linee
  0
ARC
  5
18706
330
1F
100
AcDbEntity
  8
Cornice_linee
100
AcDbCircle
 10
58854.58726880734
 20
-13626.54496735963
 30
0.0
 40
12.83118880137514
100
AcDbArc
 50
90.0
 51
270.0
1001
AcDbBlockRepETag
1070
     1
1071
      137
1005
18706
  0
POLYLINE
  5
18707
330
1F
100
AcDbEntity
  8
Cornice_linee
100
AcDb3dPolyline
 66
     1
 10
0.0
 20
0.0
 30
0.0
 70
     8
1001
AcDbBlockRepETag
1070
     1
1071
      138
1005
18707
  0
VERTEX
  5
18708
330
18707
100
AcDbEntity
  8
Cornice_linee
100
AcDbVertex
100
AcDb3dPolylineVertex
 10
58854.58726880734
 20
-13639.37615616102
 30
0.0
 70
    32
  0
VERTEX
  5
18709
330
18707
100
AcDbEntity
  8
Cornice_linee
100
AcDbVertex
100
AcDb3dPolylineVertex
 10
58931.57440161565
 20
-13670.29224886355
 30
0.0
 70
    32
  0
SEQEND
  5
1870A
330
18707
100
AcDbEntity
  8
Cornice_linee
  0
POLYLINE
  5
1870B
330
1F
100
AcDbEntity
  8
Cornice_linee
100
AcDb3dPolyline
 66
     1
 10
0.0
 20
0.0
 30
0.0
 70
     8
1001
AcDbBlockRepETag
1070
     1
1071
      139
1005
1870B
  0
VERTEX
  5
1870C
330
1870B
100
AcDbEntity
  8
Cornice_linee
100
AcDbVertex
100
AcDb3dPolylineVertex
 10
59644.09166341089
 20
-12601.46826631564
 30
0.0
 70
    32
  0
VERTEX
  5
1870D
330
1870B
100
AcDbEntity
  8
Cornice_linee
100
AcDbVertex
100
AcDb3dPolylineVertex
 10
59644.09166341089
 20
-12664.61657440511
 30
0.0
 70
    32
  0
SEQEND
  5
1870E
330
1870B
100
AcDbEntity
  8
Cornice_linee
  0
POLYLINE
  5
1870F
330
1F
100
AcDbEntity
  8
Cornice_linee
100
AcDb3dPolyline
 66
     1
 10
0.0
 20
0.0
 30
0.0
 70
     8
1001
AcDbBlockRepETag
1070
     1
1071
      140
1005
1870F
  0
VERTEX
  5
18710
330
1870F
100
AcDbEntity
  8
Cornice_linee
100
AcDbVertex
100
AcDb3dPolylineVertex
 10
59775.56437041657
 20
-12601.46826631564
 30
0.0
 70
    32
  0
VERTEX
  5
18711
330
1870F
100
AcDbEntity
  8
Cornice_linee
100
AcDbVertex
100
AcDb3dPolylineVertex
 10
59775.56437041657
 20
-12664.61657440511
 30
0.0
 70
    32
  0
SEQEND
  5
18712
330
1870F
100
AcDbEntity
  8
Cornice_linee
  0
POLYLINE
  5
18713
330
1F
100
AcDbEntity
  8
Cornice_linee
100
AcDb3dPolyline
 66
     1
 10
0.0
 20
0.0
 30
0.0
 70
     8
1001
AcDbBlockRepETag
1070
     1
1071
      141
1005
18713
  0
VERTEX
  5
18714
330
18713
100
AcDbEntity
  8
Cornice_linee
100
AcDbVertex
100
AcDb3dPolylineVertex
 10
59644.09166341089
 20
-12664.61657440511
 30
0.0
 70
    32
  0
VERTEX
  5
18715
330
18713
100
AcDbEntity
  8
Cornice_linee
100
AcDbVertex
100
AcDb3dPolylineVertex
 10
59775.56437041657
 20
-12664.61657440511
 30
0.0
 70
    32
  0
SEQEND
  5
18716
330
18713
100
AcDbEntity
  8
Cornice_linee
  0
POLYLINE
  5
18717
330
1F
100
AcDbEntity
  8
Cornice_linee
100
AcDb3dPolyline
 66
     1
 10
0.0
 20
0.0
 30
0.0
 70
     8
1001
AcDbBlockRepETag
1070
     1
1071
      142
1005
18717
  0
VERTEX
  5
18718
330
18717
100
AcDbEntity
  8
Cornice_linee
100
AcDbVertex
100
AcDb3dPolylineVertex
 10
59712.41606232722
 20
-12664.61657440511
 30
0.0
 70
    32
  0
VERTEX
  5
18719
330
18717
100
AcDbEntity
  8
Cornice_linee
100
AcDbVertex
100
AcDb3dPolylineVertex
 10
59712.41606232722
 20
-12738.32410778152
 30
0.0
 70
    32
  0
SEQEND
  5
1871A
330
18717
100
AcDbEntity
  8
Cornice_linee
  0
POLYLINE
  5
1871B
330
1F
100
AcDbEntity
  8
Cornice_linee
100
AcDb3dPolyline
 66
     1
 10
0.0
 20
0.0
 30
0.0
 70
     8
1001
AcDbBlockRepETag
1070
     1
1071
      143
1005
1871B
  0
VERTEX
  5
1871C
330
1871B
100
AcDbEntity
  8
Cornice_linee
100
AcDbVertex
100
AcDb3dPolylineVertex
 10
59644.09166341089
 20
-12601.46826631564
 30
0.0
 70
    32
  0
VERTEX
  5
1871D
330
1871B
100
AcDbEntity
  8
Cornice_linee
100
AcDbVertex
100
AcDb3dPolylineVertex
 10
59775.56437041657
 20
-12601.46826631564
 30
0.0
 70
    32
  0
SEQEND
  5
1871E
330
1871B
100
AcDbEntity
  8
Cornice_linee
  0
POLYLINE
  5
1871F
330
1F
100
AcDbEntity
  8
Cornice_linee
100
AcDb3dPolyline
 66
     1
 10
0.0
 20
0.0
 30
0.0
 70
     8
1001
AcDbBlockRepETag
1070
     1
1071
      144
1005
1871F
  0
VERTEX
  5
18720
330
1871F
100
AcDbEntity
  8
Cornice_linee
100
AcDbVertex
100
AcDb3dPolylineVertex
 10
59712.41606232722
 20
-12533.14386739925
 30
0.0
 70
    32
  0
VERTEX
  5
18721
330
1871F
100
AcDbEntity
  8
Cornice_linee
100
AcDbVertex
100
AcDb3dPolylineVertex
 10
59712.41606232722
 20
-12601.46826631564
 30
0.0
 70
    32
  0
SEQEND
  5
18722
330
1871F
100
AcDbEntity
  8
Cornice_linee
  0
POLYLINE
  5
18723
330
1F
100
AcDbEntity
  8
Cornice_linee
100
AcDb3dPolyline
 66
     1
 10
0.0
 20
0.0
 30
0.0
 70
     8
1001
AcDbBlockRepETag
1070
     1
1071
      145
1005
18723
  0
VERTEX
  5
18724
330
18723
100
AcDbEntity
  8
Cornice_linee
100
AcDbVertex
100
AcDb3dPolylineVertex
 10
59341.66307919787
 20
-13613.7137785583
 30
0.0
 70
    32
  0
VERTEX
  5
18725
330
18723
100
AcDbEntity
  8
Cornice_linee
100
AcDbVertex
100
AcDb3dPolylineVertex
 10
59418.76366261602
 20
-13613.7137785583
 30
0.0
 70
    32
  0
SEQEND
  5
18726
330
18723
100
AcDbEntity
  8
Cornice_linee
  0
POLYLINE
  5
18727
330
1F
100
AcDbEntity
  8
Cornice_linee
100
AcDb3dPolyline
 66
     1
 10
0.0
 20
0.0
 30
0.0
 70
     8
1001
AcDbBlockRepETag
1070
     1
1071
      146
1005
18727
  0
VERTEX
  5
18728
330
18727
100
AcDbEntity
  8
Cornice_linee
100
AcDbVertex
100
AcDb3dPolylineVertex
 10
59418.76366261602
 20
-13639.37615616102
 30
0.0
 70
    32
  0
VERTEX
  5
18729
330
18727
100
AcDbEntity
  8
Cornice_linee
100
AcDbVertex
100
AcDb3dPolylineVertex
 10
59341.77652980783
 20
-13670.29224886355
 30
0.0
 70
    32
  0
SEQEND
  5
1872A
330
18727
100
AcDbEntity
  8
Cornice_linee
  0
ARC
  5
1872B
330
1F
100
AcDbEntity
  8
Cornice_linee
100
AcDbCircle
 10
59418.76366261602
 20
-13626.54496735963
 30
0.0
 40
12.83118880137514
100
AcDbArc
 50
270.0
 51
90.0
1001
AcDbBlockRepETag
1070
     1
1071
      147
1005
1872B
  0
LINE
  5
1872C
330
1F
100
AcDbEntity
  8
Cornice_linee
100
AcDbLine
 10
60609.69126157218
 20
-13620.5346883646
 30
0.0
 11
60609.69126157218
 21
-13973.18913096219
 31
0.0
1001
AcDbBlockRepETag
1070
     1
1071
      148
1005
1872C
  0
POLYLINE
  5
1872D
330
1F
100
AcDbEntity
  8
Cornice_linee
100
AcDb3dPolyline
 66
     1
 10
0.0
 20
0.0
 30
0.0
 70
     8
1001
AcDbBlockRepETag
1070
     1
1071
      149
1005
1872D
  0
VERTEX
  5
1872E
330
1872D
100
AcDbEntity
  8
Cornice_linee
100
AcDbVertex
100
AcDb3dPolylineVertex
 10
60564.01613491832
 20
-13670.29224886355
 30
0.0
 70
    32
  0
VERTEX
  5
1872F
330
1872D
100
AcDbEntity
  8
Cornice_linee
100
AcDbVertex
100
AcDb3dPolylineVertex
 10
60564.01613491832
 20
-13973.18913096219
 30
0.0
 70
    32
  0
SEQEND
  5
18730
330
1872D
100
AcDbEntity
  8
Cornice_linee
  0
ARC
  5
18731
330
1F
100
AcDbEntity
  8
Cornice_linee
100
AcDbCircle
 10
60361.00676568889
 20
-13876.28748114308
 30
0.0
 40
96.32685533619757
100
AcDbArc
 50
347.5879537727687
 51
192.4120462272313
1001
AcDbBlockRepETag
1070
     1
1071
      150
1005
18731
  0
ARC
  5
18732
330
1F
100
AcDbEntity
  8
Cornice_linee
100
AcDbCircle
 10
60258.97915735724
 20
-14151.75942486455
 30
0.0
 40
96.32685533619757
100
AcDbArc
 50
167.5879537727687
 51
12.41204622723127
1001
AcDbBlockRepETag
1070
     1
1071
      151
1005
18732
  0
LINE
  5
18733
330
1F
100
AcDbEntity
  8
Cornice_linee
100
AcDbLine
 10
60266.93134740053
 20
-13896.99203940533
 30
0.0
 11
60353.0545756456
 21
-14131.05486660224
 31
0.0
1001
AcDbBlockRepETag
1070
     1
1071
      152
1005
18733
  0
ARC
  5
18734
330
1F
100
AcDbEntity
  8
Cornice_linee
100
AcDbCircle
 10
59952.89633236302
 20
-13876.28748114308
 30
0.0
 40
96.32685533619757
100
AcDbArc
 50
347.5879537727687
 51
192.4120462272313
1001
AcDbBlockRepETag
1070
     1
1071
      153
1005
18734
  0
ARC
  5
18735
330
1F
100
AcDbEntity
  8
Cornice_linee
100
AcDbCircle
 10
60156.95154902583
 20
-13876.28748114308
 30
0.0
 40
96.32685533619757
100
AcDbArc
 50
347.5879537727687
 51
192.4120462272313
1001
AcDbBlockRepETag
1070
     1
1071
      154
1005
18735
  0
POLYLINE
  5
18736
330
1F
100
AcDbEntity
  8
Cornice_Quote
100
AcDb3dPolyline
 66
     1
 10
0.0
 20
0.0
 30
0.0
 70
     8
1001
AcDbBlockRepETag
1070
     1
1071
      155
1005
18736
  0
VERTEX
  5
18737
330
18736
100
AcDbEntity
  8
Cornice_Quote
100
AcDbVertex
100
AcDb3dPolylineVertex
 10
60070.18746028945
 20
-14626.97612873703
 30
0.0
 70
    32
  0
VERTEX
  5
18738
330
18736
100
AcDbEntity
  8
Cornice_Quote
100
AcDbVertex
100
AcDb3dPolylineVertex
 10
59991.30383608595
 20
-14563.82782064768
 30
0.0
 70
    32
  0
VERTEX
  5
18739
330
18736
100
AcDbEntity
  8
Cornice_Quote
100
AcDbVertex
100
AcDb3dPolylineVertex
 10
59996.47992691293
 20
-14658.65380459832
 30
0.0
 70
    32
  0
VERTEX
  5
1873A
330
18736
100
AcDbEntity
  8
Cornice_Quote
100
AcDbVertex
100
AcDb3dPolylineVertex
 10
60070.18746028945
 20
-14626.97612873703
 30
0.0
 70
    32
  0
SEQEND
  5
1873B
330
18736
100
AcDbEntity
  8
Cornice_Quote
  0
ARC
  5
1873C
330
1F
100
AcDbEntity
  8
Cornice_linee
100
AcDbCircle
 10
60054.92394069443
 20
-14151.75942486455
 30
0.0
 40
96.32685533619757
100
AcDbArc
 50
167.5879537727687
 51
12.41204622723127
1001
AcDbBlockRepETag
1070
     1
1071
      156
1005
1873C
  0
LINE
  5
1873D
330
1F
100
AcDbEntity
  8
Cornice_linee
100
AcDbLine
 10
59858.82091407478
 20
-13896.99203940533
 30
0.0
 11
59944.94414231996
 21
-14131.05486660224
 31
0.0
1001
AcDbBlockRepETag
1070
     1
1071
      157
1005
1873D
  0
LINE
  5
1873E
330
1F
100
AcDbEntity
  8
Cornice_linee
100
AcDbLine
 10
60046.97175065137
 20
-13896.99203940533
 30
0.0
 11
59960.84852240619
 21
-14131.05486660224
 31
0.0
1001
AcDbBlockRepETag
1070
     1
1071
      158
1005
1873E
  0
LINE
  5
1873F
330
1F
100
AcDbEntity
  8
Cornice_linee
100
AcDbLine
 10
60062.87613073771
 20
-13896.99203940533
 30
0.0
 11
60148.99935898278
 21
-14131.05486660224
 31
0.0
1001
AcDbBlockRepETag
1070
     1
1071
      159
1005
1873F
  0
LINE
  5
18740
330
1F
100
AcDbEntity
  8
Cornice_linee
100
AcDbLine
 10
60251.02696731419
 20
-13896.99203940533
 30
0.0
 11
60164.90373906912
 21
-14131.05486660224
 31
0.0
1001
AcDbBlockRepETag
1070
     1
1071
      160
1005
18740
  0
LINE
  5
18741
330
1F
100
AcDbEntity
  8
Cornice_linee
100
AcDbLine
 10
60659.13740063994
 20
-13896.99203940533
 30
0.0
 11
60648.4967600751
 21
-13925.91081619245
 31
0.0
1001
AcDbBlockRepETag
1070
     1
1071
      161
1005
18741
  0
ARC
  5
18742
330
1F
100
AcDbEntity
  8
Cornice_linee
100
AcDbCircle
 10
60769.11719901452
 20
-13876.28748114308
 30
0.0
 40
96.32685533619757
100
AcDbArc
 50
347.5879537727687
 51
192.4120462272313
1001
AcDbBlockRepETag
1070
     1
1071
      162
1005
18742
  0
ARC
  5
18743
330
1F
100
AcDbEntity
  8
Cornice_linee
100
AcDbCircle
 10
60565.0619823517
 20
-13876.28748114308
 30
0.0
 40
96.32685533619757
100
AcDbArc
 50
347.5879537727687
 51
62.39904083011951
1001
AcDbBlockRepETag
1070
     1
1071
      163
1005
18743
  0
LINE
  5
18744
330
1F
100
AcDbEntity
  8
Cornice_linee
100
AcDbLine
 10
60654.97175491345
 20
-13918.02206702257
 30
0.0
 11
60609.69126157218
 21
-13973.18913096219
 31
0.0
1001
AcDbBlockRepETag
1070
     1
1071
      164
1005
18744
  0
LINE
  5
18745
330
1F
100
AcDbEntity
  8
Cornice_linee
100
AcDbLine
 10
60609.69126157218
 20
-13998.85150856496
 30
0.0
 11
60664.13265285466
 21
-13925.15800438222
 31
0.0
1001
AcDbBlockRepETag
1070
     1
1071
      165
1005
18745
  0
LINE
  5
18746
330
1F
100
AcDbEntity
  8
Cornice_linee
100
AcDbLine
 10
60641.00326772674
 20
-13998.85150856496
 30
0.0
 11
60609.69126157218
 21
-13998.85150856496
 31
0.0
1001
AcDbBlockRepETag
1070
     1
1071
      166
1005
18746
  0
LINE
  5
18747
330
1F
100
AcDbEntity
  8
Cornice_linee
100
AcDbLine
 10
60532.70412876399
 20
-13998.85150856496
 30
0.0
 11
60564.01613491832
 21
-13998.85150856496
 31
0.0
1001
AcDbBlockRepETag
1070
     1
1071
      167
1005
18747
  0
ARC
  5
18748
330
1F
100
AcDbEntity
  8
Cornice_linee
100
AcDbCircle
 10
60514.24623847322
 20
-13921.70691759884
 30
0.0
 40
5.808000000000008
100
AcDbArc
 50
39.37875693515164
 51
216.4552939955974
1001
AcDbBlockRepETag
1070
     1
1071
      168
1005
18748
  0
LINE
  5
18749
330
1F
100
AcDbEntity
  8
Cornice_linee
100
AcDbLine
 10
60564.01613491832
 20
-13998.85150856496
 30
0.0
 11
60509.57474363607
 21
-13925.15800438222
 31
0.0
1001
AcDbBlockRepETag
1070
     1
1071
      169
1005
18749
  0
LINE
  5
1874A
330
1F
100
AcDbEntity
  8
Cornice_linee
100
AcDbLine
 10
60518.73564157716
 20
-13918.02206702257
 30
0.0
 11
60564.01613491832
 21
-13973.18913096219
 31
0.0
1001
AcDbBlockRepETag
1070
     1
1071
      170
1005
1874A
  0
ARC
  5
1874B
330
1F
100
AcDbEntity
  8
Cornice_linee
100
AcDbCircle
 10
60659.46115801751
 20
-13921.70691759884
 30
0.0
 40
5.808000000000008
100
AcDbArc
 50
323.5447060044027
 51
140.6212430648484
1001
AcDbBlockRepETag
1070
     1
1071
      171
1005
1874B
  0
ARC
  5
1874C
330
1F
100
AcDbEntity
  8
Cornice_linee
100
AcDbCircle
 10
60565.0619823517
 20
-13876.28748114308
 30
0.0
 40
96.32685533619757
100
AcDbArc
 50
90.6220884230384
 51
192.4120462272313
1001
AcDbBlockRepETag
1070
     1
1071
      172
1005
1874C
  0
LINE
  5
1874D
330
1F
100
AcDbEntity
  8
Cornice_linee
100
AcDbLine
 10
60633.53315242904
 20
-13966.57840822346
 30
0.0
 11
60621.65829122125
 21
-13998.85150856496
 31
0.0
1001
AcDbBlockRepETag
1070
     1
1071
      173
1005
1874D
  0
ARC
  5
1874E
330
1F
100
AcDbEntity
  8
Cornice_linee
100
AcDbCircle
 10
60667.08959068311
 20
-14151.75942486455
 30
0.0
 40
96.32685533619757
100
AcDbArc
 50
167.5879537727687
 51
12.41204622723127
1001
AcDbBlockRepETag
1070
     1
1071
      174
1005
1874E
  0
ARC
  5
1874F
330
1F
100
AcDbEntity
  8
Cornice_linee
100
AcDbCircle
 10
60463.0343740203
 20
-14151.75942486455
 30
0.0
 40
96.32685533619757
100
AcDbArc
 50
167.5879537727687
 51
12.41204622723127
1001
AcDbBlockRepETag
1070
     1
1071
      175
1005
1874F
  0
LINE
  5
18750
330
1F
100
AcDbEntity
  8
Cornice_linee
100
AcDbLine
 10
60588.88064679457
 20
-14087.93349352595
 30
0.0
 11
60573.01417239476
 21
-14131.05486660224
 31
0.0
1001
AcDbBlockRepETag
1070
     1
1071
      176
1005
18750
  0
LINE
  5
18751
330
1F
100
AcDbEntity
  8
Cornice_linee
100
AcDbLine
 10
60675.04178072617
 20
-13896.99203940533
 30
0.0
 11
60761.16500897135
 21
-14131.05486660224
 31
0.0
1001
AcDbBlockRepETag
1070
     1
1071
      177
1005
18751
  0
LINE
  5
18752
330
1F
100
AcDbEntity
  8
Cornice_linee
100
AcDbLine
 10
60863.19261730276
 20
-13896.99203940533
 30
0.0
 11
60777.06938905758
 21
-14131.05486660224
 31
0.0
1001
AcDbBlockRepETag
1070
     1
1071
      178
1005
18752
  0
LINE
  5
18753
330
1F
100
AcDbEntity
  8
Cornice_linee
100
AcDbLine
 10
60470.98656406335
 20
-13896.99203940533
 30
0.0
 11
60557.10979230842
 21
-14131.05486660224
 31
0.0
1001
AcDbBlockRepETag
1070
     1
1071
      179
1005
18753
  0
LINE
  5
18754
330
1F
100
AcDbEntity
  8
Cornice_linee
100
AcDbLine
 10
60455.08218397701
 20
-13896.99203940533
 30
0.0
 11
60368.95895573194
 21
-14131.05486660224
 31
0.0
1001
AcDbBlockRepETag
1070
     1
1071
      180
1005
18754
  0
POLYLINE
  5
18755
330
1F
100
AcDbEntity
  8
Cornice_linee
100
AcDb3dPolyline
 66
     1
 10
0.0
 20
0.0
 30
0.0
 70
     8
1001
AcDbBlockRepETag
1070
     1
1071
      181
1005
18755
  0
VERTEX
  5
18756
330
18755
100
AcDbEntity
  8
Cornice_linee
100
AcDbVertex
100
AcDb3dPolylineVertex
 10
60586.85369824525
 20
-14091.39772070711
 30
0.0
 70
    32
  0
VERTEX
  5
18757
330
18755
100
AcDbEntity
  8
Cornice_linee
100
AcDbVertex
100
AcDb3dPolylineVertex
 10
60641.00326772674
 20
-13998.85150856496
 30
0.0
 70
    32
  0
SEQEND
  5
18758
330
18755
100
AcDbEntity
  8
Cornice_linee
  0
POLYLINE
  5
18759
330
1F
100
AcDbEntity
  8
Cornice_linee
100
AcDb3dPolyline
 66
     1
 10
0.0
 20
0.0
 30
0.0
 70
     8
1001
AcDbBlockRepETag
1070
     1
1071
      182
1005
18759
  0
VERTEX
  5
1875A
330
18759
100
AcDbEntity
  8
Cornice_linee
100
AcDbVertex
100
AcDb3dPolylineVertex
 10
60586.85369824525
 20
-14091.39772070711
 30
0.0
 70
    32
  0
VERTEX
  5
1875B
330
18759
100
AcDbEntity
  8
Cornice_linee
100
AcDbVertex
100
AcDb3dPolylineVertex
 10
60532.70412876399
 20
-13998.85150856496
 30
0.0
 70
    32
  0
SEQEND
  5
1875C
330
18759
100
AcDbEntity
  8
Cornice_linee
  0
POLYLINE
  5
1875D
330
1F
100
AcDbEntity
  8
Cornice_Quote
100
AcDb3dPolyline
 66
     1
 10
0.0
 20
0.0
 30
0.0
 70
     8
1001
AcDbBlockRepETag
1070
     1
1071
      183
1005
1875D
  0
VERTEX
  5
1875E
330
1875D
100
AcDbEntity
  8
Cornice_Quote
100
AcDbVertex
100
AcDb3dPolylineVertex
 10
60842.82473239093
 20
-13678.50690562703
 30
0.0
 70
    32
  0
VERTEX
  5
1875F
330
1875D
100
AcDbEntity
  8
Cornice_Quote
100
AcDbVertex
100
AcDb3dPolylineVertex
 10
60769.11719901452
 20
-13620.5346883646
 30
0.0
 70
    32
  0
VERTEX
  5
18760
330
1875D
100
AcDbEntity
  8
Cornice_Quote
100
AcDbVertex
100
AcDb3dPolylineVertex
 10
60779.67642430146
 20
-13709.97753785521
 30
0.0
 70
    32
  0
VERTEX
  5
18761
330
1875D
100
AcDbEntity
  8
Cornice_Quote
100
AcDbVertex
100
AcDb3dPolylineVertex
 10
60842.82473239093
 20
-13678.50690562703
 30
0.0
 70
    32
  0
SEQEND
  5
18762
330
1875D
100
AcDbEntity
  8
Cornice_Quote
  0
POLYLINE
  5
18763
330
1F
100
AcDbEntity
  8
Cornice_linee
100
AcDb3dPolyline
 66
     1
 10
0.0
 20
0.0
 30
0.0
 70
     8
1001
AcDbBlockRepETag
1070
     1
1071
      184
1005
18763
  0
VERTEX
  5
18764
330
18763
100
AcDbEntity
  8
Cornice_linee
100
AcDbVertex
100
AcDb3dPolylineVertex
 10
60487.02900211024
 20
-13639.37615616102
 30
0.0
 70
    32
  0
VERTEX
  5
18765
330
18763
100
AcDbEntity
  8
Cornice_linee
100
AcDbVertex
100
AcDb3dPolylineVertex
 10
60564.01613491832
 20
-13670.29224886355
 30
0.0
 70
    32
  0
SEQEND
  5
18766
330
18763
100
AcDbEntity
  8
Cornice_linee
  0
ARC
  5
18767
330
1F
100
AcDbEntity
  8
Cornice_linee
100
AcDbCircle
 10
60487.02900211024
 20
-13626.54496735963
 30
0.0
 40
12.83118880137514
100
AcDbArc
 50
90.0
 51
270.0
1001
AcDbBlockRepETag
1070
     1
1071
      185
1005
18767
  0
POLYLINE
  5
18768
330
1F
100
AcDbEntity
  8
Cornice_linee
100
AcDb3dPolyline
 66
     1
 10
0.0
 20
0.0
 30
0.0
 70
     8
1001
AcDbBlockRepETag
1070
     1
1071
      186
1005
18768
  0
VERTEX
  5
18769
330
18768
100
AcDbEntity
  8
Cornice_linee
100
AcDbVertex
100
AcDb3dPolylineVertex
 10
60564.12958552828
 20
-13613.7137785583
 30
0.0
 70
    32
  0
VERTEX
  5
1876A
330
18768
100
AcDbEntity
  8
Cornice_linee
100
AcDbVertex
100
AcDb3dPolylineVertex
 10
60487.02900211024
 20
-13613.7137785583
 30
0.0
 70
    32
  0
SEQEND
  5
1876B
330
18768
100
AcDbEntity
  8
Cornice_linee
  0
ARC
  5
1876C
330
1F
100
AcDbEntity
  8
Cornice_linee
100
AcDbCircle
 10
60675.18265959283
 20
-10949.20077264047
 30
0.0
 40
119.8569120134797
100
AcDbArc
 50
15.09060309379403
 51
61.0815534208155
1001
AcDbBlockRepETag
1070
     1
1071
      187
1005
1876C
  0
LINE
  5
1876D
330
1F
100
AcDbEntity
  8
Cornice_linee
100
AcDbLine
 10
60733.14117341151
 20
-10508.49093233922
 30
0.0
 11
60733.14117341151
 21
-10844.28895236593
 31
0.0
1001
AcDbBlockRepETag
1070
     1
1071
      188
1005
1876D
  0
POLYLINE
  5
1876E
330
1F
100
AcDbEntity
  8
Cornice_linee
100
AcDb3dPolyline
 66
     1
 10
0.0
 20
0.0
 30
0.0
 70
     8
1001
AcDbBlockRepETag
1070
     1
1071
      189
1005
1876E
  0
VERTEX
  5
1876F
330
1876E
100
AcDbEntity
  8
Cornice_linee
100
AcDbVertex
100
AcDb3dPolylineVertex
 10
60790.90634704079
 20
-11017.99856052006
 30
0.0
 70
    32
  0
VERTEX
  5
18770
330
1876E
100
AcDbEntity
  8
Cornice_linee
100
AcDbVertex
100
AcDb3dPolylineVertex
 10
60790.90634704079
 20
-10917.99648574239
 30
0.0
 70
    32
  0
SEQEND
  5
18771
330
1876E
100
AcDbEntity
  8
Cornice_linee
  0
POLYLINE
  5
18772
330
1F
100
AcDbEntity
  8
Cornice_linee
100
AcDb3dPolyline
 66
     1
 10
0.0
 20
0.0
 30
0.0
 70
     8
1001
AcDbBlockRepETag
1070
     1
1071
      190
1005
18772
  0
VERTEX
  5
18773
330
18772
100
AcDbEntity
  8
Cornice_linee
100
AcDbVertex
100
AcDb3dPolylineVertex
 10
61669.59952583222
 20
-12533.14386739925
 30
0.0
 70
    32
  0
VERTEX
  5
18774
330
18772
100
AcDbEntity
  8
Cornice_linee
100
AcDbVertex
100
AcDb3dPolylineVertex
 10
61999.11472958128
 20
-12352.11390978406
 30
0.0
 70
    32
  0
SEQEND
  5
18775
330
18772
100
AcDbEntity
  8
Cornice_linee
  0
POLYLINE
  5
18776
330
1F
100
AcDbEntity
  8
Cornice_Quote
100
AcDb3dPolyline
 66
     1
 10
0.0
 20
0.0
 30
0.0
 70
     8
1001
AcDbBlockRepETag
1070
     1
1071
      191
1005
18776
  0
VERTEX
  5
18777
330
18776
100
AcDbEntity
  8
Cornice_Quote
100
AcDbVertex
100
AcDb3dPolylineVertex
 10
64040.16762129916
 20
-12312.22831090289
 30
0.0
 70
    32
  0
VERTEX
  5
18778
330
18776
100
AcDbEntity
  8
Cornice_Quote
100
AcDbVertex
100
AcDb3dPolylineVertex
 10
62062.41674543556
 20
-12312.22831090289
 30
0.0
 70
    32
  0
VERTEX
  5
18779
330
18776
100
AcDbEntity
  8
Cornice_Quote
100
AcDbVertex
100
AcDb3dPolylineVertex
 10
61636.320948557
 20
-12590.90904102859
 30
0.0
 70
    32
  0
SEQEND
  5
1877A
330
18776
100
AcDbEntity
  8
Cornice_Quote
  0
LINE
  5
1877B
330
1F
100
AcDbEntity
  8
Cornice_linee
100
AcDbLine
 10
60928.54313645675
 20
-13620.5346883646
 30
0.0
 11
60928.54313645675
 21
-13973.18913096219
 31
0.0
1001
AcDbBlockRepETag
1070
     1
1071
      192
1005
1877B
  0
POLYLINE
  5
1877C
330
1F
100
AcDbEntity
  8
Cornice_linee
100
AcDb3dPolyline
 66
     1
 10
0.0
 20
0.0
 30
0.0
 70
     8
1001
AcDbBlockRepETag
1070
     1
1071
      193
1005
1877C
  0
VERTEX
  5
1877D
330
1877C
100
AcDbEntity
  8
Cornice_linee
100
AcDbVertex
100
AcDb3dPolylineVertex
 10
60974.21826311061
 20
-13670.29224886355
 30
0.0
 70
    32
  0
VERTEX
  5
1877E
330
1877C
100
AcDbEntity
  8
Cornice_linee
100
AcDbVertex
100
AcDb3dPolylineVertex
 10
60974.21826311061
 20
-13973.18913096219
 30
0.0
 70
    32
  0
SEQEND
  5
1877F
330
1877C
100
AcDbEntity
  8
Cornice_linee
  0
ARC
  5
18780
330
1F
100
AcDbEntity
  8
Cornice_linee
100
AcDbCircle
 10
61381.2828490031
 20
-13876.28748114308
 30
0.0
 40
96.32685533619757
100
AcDbArc
 50
347.5879537727687
 51
192.4120462272313
1001
AcDbBlockRepETag
1070
     1
1071
      194
1005
18780
  0
LINE
  5
18781
330
1F
100
AcDbEntity
  8
Cornice_linee
100
AcDbLine
 10
60974.21826311061
 20
-13779.96062580694
 30
0.0
 11
61870.72086246661
 21
-13779.96062580694
 31
0.0
1001
AcDbBlockRepETag
1070
     1
1071
      195
1005
18781
  0
ARC
  5
18782
330
1F
100
AcDbEntity
  8
Cornice_linee
100
AcDbCircle
 10
61483.3104573345
 20
-14151.75942486455
 30
0.0
 40
96.32685533619757
100
AcDbArc
 50
167.5879537727687
 51
12.41204622723127
1001
AcDbBlockRepETag
1070
     1
1071
      196
1005
18782
  0
LINE
  5
18783
330
1F
100
AcDbEntity
  8
Cornice_linee
100
AcDbLine
 10
61475.35826729122
 20
-13896.99203940533
 30
0.0
 11
61389.23503904615
 21
-14131.05486660224
 31
0.0
1001
AcDbBlockRepETag
1070
     1
1071
      197
1005
18783
  0
LINE
  5
18784
330
1F
100
AcDbEntity
  8
Cornice_linee
100
AcDbLine
 10
60879.09699738899
 20
-13896.99203940533
 30
0.0
 11
60889.73763795383
 21
-13925.91081619239
 31
0.0
1001
AcDbBlockRepETag
1070
     1
1071
      198
1005
18784
  0
ARC
  5
18785
330
1F
100
AcDbEntity
  8
Cornice_linee
100
AcDbCircle
 10
60973.17241567734
 20
-13876.28748114308
 30
0.0
 40
96.32685533619757
100
AcDbArc
 50
347.5879537727687
 51
89.3779115769616
1001
AcDbBlockRepETag
1070
     1
1071
      199
1005
18785
  0
ARC
  5
18786
330
1F
100
AcDbEntity
  8
Cornice_linee
100
AcDbCircle
 10
61177.22763234016
 20
-13876.28748114308
 30
0.0
 40
96.32685533619757
100
AcDbArc
 50
347.5879537727687
 51
192.4120462272313
1001
AcDbBlockRepETag
1070
     1
1071
      200
1005
18786
  0
LINE
  5
18787
330
1F
100
AcDbEntity
  8
Cornice_linee
100
AcDbLine
 10
60897.2311303023
 20
-13998.85150856496
 30
0.0
 11
60928.54313645675
 21
-13998.85150856496
 31
0.0
1001
AcDbBlockRepETag
1070
     1
1071
      201
1005
18787
  0
LINE
  5
18788
330
1F
100
AcDbEntity
  8
Cornice_linee
100
AcDbLine
 10
60883.26264311548
 20
-13918.02206702257
 30
0.0
 11
60928.54313645675
 21
-13973.18913096219
 31
0.0
1001
AcDbBlockRepETag
1070
     1
1071
      202
1005
18788
  0
LINE
  5
18789
330
1F
100
AcDbEntity
  8
Cornice_linee
100
AcDbLine
 10
61019.49875645177
 20
-13918.02206702257
 30
0.0
 11
60974.21826311061
 21
-13973.18913096219
 31
0.0
1001
AcDbBlockRepETag
1070
     1
1071
      203
1005
18789
  0
LINE
  5
1878A
330
1F
100
AcDbEntity
  8
Cornice_linee
100
AcDbLine
 10
60974.21826311061
 20
-13998.85150856496
 30
0.0
 11
61028.65965439286
 21
-13925.15800438222
 31
0.0
1001
AcDbBlockRepETag
1070
     1
1071
      204
1005
1878A
  0
ARC
  5
1878B
330
1F
100
AcDbEntity
  8
Cornice_linee
100
AcDbCircle
 10
61023.98815955571
 20
-13921.70691759884
 30
0.0
 40
5.808000000000008
100
AcDbArc
 50
323.5447060044027
 51
140.6212430648484
1001
AcDbBlockRepETag
1070
     1
1071
      205
1005
1878B
  0
LINE
  5
1878C
330
1F
100
AcDbEntity
  8
Cornice_linee
100
AcDbLine
 10
61005.53026926494
 20
-13998.85150856496
 30
0.0
 11
60974.21826311061
 21
-13998.85150856496
 31
0.0
1001
AcDbBlockRepETag
1070
     1
1071
      206
1005
1878C
  0
LINE
  5
1878D
330
1F
100
AcDbEntity
  8
Cornice_linee
100
AcDbLine
 10
60904.70124559989
 20
-13966.57840822346
 30
0.0
 11
60916.57610680768
 21
-13998.85150856496
 31
0.0
1001
AcDbBlockRepETag
1070
     1
1071
      207
1005
1878D
  0
ARC
  5
1878E
330
1F
100
AcDbEntity
  8
Cornice_linee
100
AcDbCircle
 10
61075.20002400875
 20
-14151.75942486455
 30
0.0
 40
96.32685533619757
100
AcDbArc
 50
167.5879537727687
 51
12.41204622723127
1001
AcDbBlockRepETag
1070
     1
1071
      208
1005
1878E
  0
ARC
  5
1878F
330
1F
100
AcDbEntity
  8
Cornice_linee
100
AcDbCircle
 10
61279.25524067157
 20
-14151.75942486455
 30
0.0
 40
96.32685533619757
100
AcDbArc
 50
167.5879537727687
 51
12.41204622723127
1001
AcDbBlockRepETag
1070
     1
1071
      209
1005
1878F
  0
LINE
  5
18790
330
1F
100
AcDbEntity
  8
Cornice_linee
100
AcDbLine
 10
60949.35375123424
 20
-14087.9334935259
 30
0.0
 11
60965.22022563417
 21
-14131.05486660224
 31
0.0
1001
AcDbBlockRepETag
1070
     1
1071
      210
1005
18790
  0
LINE
  5
18791
330
1F
100
AcDbEntity
  8
Cornice_linee
100
AcDbLine
 10
61067.24783396558
 20
-13896.99203940533
 30
0.0
 11
60981.1246057204
 21
-14131.05486660224
 31
0.0
1001
AcDbBlockRepETag
1070
     1
1071
      211
1005
18791
  0
LINE
  5
18792
330
1F
100
AcDbEntity
  8
Cornice_linee
100
AcDbLine
 10
61083.15221405192
 20
-13896.99203940533
 30
0.0
 11
61169.27544229699
 21
-14131.05486660224
 31
0.0
1001
AcDbBlockRepETag
1070
     1
1071
      212
1005
18792
  0
LINE
  5
18793
330
1F
100
AcDbEntity
  8
Cornice_linee
100
AcDbLine
 10
61271.3030506284
 20
-13896.99203940533
 30
0.0
 11
61185.17982238333
 21
-14131.05486660224
 31
0.0
1001
AcDbBlockRepETag
1070
     1
1071
      213
1005
18793
  0
LINE
  5
18794
330
1F
100
AcDbEntity
  8
Cornice_linee
100
AcDbLine
 10
61287.20743071474
 20
-13896.99203940533
 30
0.0
 11
61373.33065895981
 21
-14131.05486660224
 31
0.0
1001
AcDbBlockRepETag
1070
     1
1071
      214
1005
18794
  0
POLYLINE
  5
18795
330
1F
100
AcDbEntity
  8
Cornice_linee
100
AcDb3dPolyline
 66
     1
 10
0.0
 20
0.0
 30
0.0
 70
     8
1001
AcDbBlockRepETag
1070
     1
1071
      215
1005
18795
  0
VERTEX
  5
18796
330
18795
100
AcDbEntity
  8
Cornice_linee
100
AcDbVertex
100
AcDb3dPolylineVertex
 10
60951.38069978368
 20
-14091.39772070711
 30
0.0
 70
    32
  0
VERTEX
  5
18797
330
18795
100
AcDbEntity
  8
Cornice_linee
100
AcDbVertex
100
AcDb3dPolylineVertex
 10
60897.2311303023
 20
-13998.85150856496
 30
0.0
 70
    32
  0
SEQEND
  5
18798
330
18795
100
AcDbEntity
  8
Cornice_linee
  0
POLYLINE
  5
18799
330
1F
100
AcDbEntity
  8
Cornice_linee
100
AcDb3dPolyline
 66
     1
 10
0.0
 20
0.0
 30
0.0
 70
     8
1001
AcDbBlockRepETag
1070
     1
1071
      216
1005
18799
  0
VERTEX
  5
1879A
330
18799
100
AcDbEntity
  8
Cornice_linee
100
AcDbVertex
100
AcDb3dPolylineVertex
 10
60951.38069978368
 20
-14091.39772070711
 30
0.0
 70
    32
  0
VERTEX
  5
1879B
330
18799
100
AcDbEntity
  8
Cornice_linee
100
AcDbVertex
100
AcDb3dPolylineVertex
 10
61005.53026926494
 20
-13998.85150856496
 30
0.0
 70
    32
  0
SEQEND
  5
1879C
330
18799
100
AcDbEntity
  8
Cornice_linee
  0
ARC
  5
1879D
330
1F
100
AcDbEntity
  8
Cornice_linee
100
AcDbCircle
 10
61789.39328232873
 20
-13876.28748114308
 30
0.0
 40
96.32685533619757
100
AcDbArc
 50
41.14333999978243
 51
192.4120462272313
1001
AcDbBlockRepETag
1070
     1
1071
      217
1005
1879D
  0
ARC
  5
1879E
330
1F
100
AcDbEntity
  8
Cornice_linee
100
AcDbCircle
 10
61585.33806566591
 20
-13876.28748114308
 30
0.0
 40
96.32685533619757
100
AcDbArc
 50
347.5879537727687
 51
192.4120462272313
1001
AcDbBlockRepETag
1070
     1
1071
      218
1005
1879E
  0
ARC
  5
1879F
330
1F
100
AcDbEntity
  8
Cornice_linee
100
AcDbCircle
 10
61687.36567399732
 20
-14151.75942486455
 30
0.0
 40
96.32685533619757
100
AcDbArc
 50
167.5879537727687
 51
249.0735902815939
1001
AcDbBlockRepETag
1070
     1
1071
      219
1005
1879F
  0
LINE
  5
187A0
330
1F
100
AcDbEntity
  8
Cornice_linee
100
AcDbLine
 10
61695.31786404038
 20
-13896.99203940533
 30
0.0
 11
61754.30001193518
 21
-14057.29174683231
 31
0.0
1001
AcDbBlockRepETag
1070
     1
1071
      220
1005
187A0
  0
LINE
  5
187A1
330
1F
100
AcDbEntity
  8
Cornice_linee
100
AcDbLine
 10
61491.26264737756
 20
-13896.99203940533
 30
0.0
 11
61577.38587562263
 21
-14131.05486660224
 31
0.0
1001
AcDbBlockRepETag
1070
     1
1071
      221
1005
187A1
  0
LINE
  5
187A2
330
1F
100
AcDbEntity
  8
Cornice_linee
100
AcDbLine
 10
61679.41348395427
 20
-13896.99203940533
 30
0.0
 11
61593.29025570897
 21
-14131.05486660224
 31
0.0
1001
AcDbBlockRepETag
1070
     1
1071
      222
1005
187A2
  0
POLYLINE
  5
187A3
330
1F
100
AcDbEntity
  8
Cornice_Quote
100
AcDb3dPolyline
 66
     1
 10
0.0
 20
0.0
 30
0.0
 70
     8
1001
AcDbBlockRepETag
1070
     1
1071
      223
1005
187A3
  0
VERTEX
  5
187A4
330
187A3
100
AcDbEntity
  8
Cornice_Quote
100
AcDbVertex
100
AcDb3dPolylineVertex
 10
61564.42136022775
 20
-14090.31903179374
 30
0.0
 70
    32
  0
VERTEX
  5
187A5
330
187A3
100
AcDbEntity
  8
Cornice_Quote
100
AcDbVertex
100
AcDb3dPolylineVertex
 10
61480.15460156405
 20
-14043.11308345158
 30
0.0
 70
    32
  0
VERTEX
  5
187A6
330
187A3
100
AcDbEntity
  8
Cornice_Quote
100
AcDbVertex
100
AcDb3dPolylineVertex
 10
61501.27305213816
 20
-14127.17279848194
 30
0.0
 70
    32
  0
VERTEX
  5
187A7
330
187A3
100
AcDbEntity
  8
Cornice_Quote
100
AcDbVertex
100
AcDb3dPolylineVertex
 10
61564.42136022775
 20
-14090.31903179374
 30
0.0
 70
    32
  0
SEQEND
  5
187A8
330
187A3
100
AcDbEntity
  8
Cornice_Quote
  0
POLYLINE
  5
187A9
330
1F
100
AcDbEntity
  8
Cornice_Quote
100
AcDb3dPolyline
 66
     1
 10
0.0
 20
0.0
 30
0.0
 70
     8
1001
AcDbBlockRepETag
1070
     1
1071
      224
1005
187A9
  0
VERTEX
  5
187AA
330
187A9
100
AcDbEntity
  8
Cornice_Quote
100
AcDbVertex
100
AcDb3dPolylineVertex
 10
61641.49703938398
 20
-12564.61449962738
 30
0.0
 70
    32
  0
VERTEX
  5
187AB
330
187A9
100
AcDbEntity
  8
Cornice_Quote
100
AcDbVertex
100
AcDb3dPolylineVertex
 10
61594.29109104187
 20
-12638.3220330039
 30
0.0
 70
    32
  0
VERTEX
  5
187AC
330
187A9
100
AcDbEntity
  8
Cornice_Quote
100
AcDbVertex
100
AcDb3dPolylineVertex
 10
61678.35080607224
 20
-12606.85140077578
 30
0.0
 70
    32
  0
VERTEX
  5
187AD
330
187A9
100
AcDbEntity
  8
Cornice_Quote
100
AcDbVertex
100
AcDb3dPolylineVertex
 10
61641.49703938398
 20
-12564.61449962738
 30
0.0
 70
    32
  0
SEQEND
  5
187AE
330
187A9
100
AcDbEntity
  8
Cornice_Quote
  0
ARC
  5
187AF
330
1F
100
AcDbEntity
  8
Cornice_linee
100
AcDbCircle
 10
61051.20539591881
 20
-13626.54496735963
 30
0.0
 40
12.83118880137514
100
AcDbArc
 50
270.0
 51
90.0
1001
AcDbBlockRepETag
1070
     1
1071
      225
1005
187AF
  0
POLYLINE
  5
187B0
330
1F
100
AcDbEntity
  8
Cornice_linee
100
AcDb3dPolyline
 66
     1
 10
0.0
 20
0.0
 30
0.0
 70
     8
1001
AcDbBlockRepETag
1070
     1
1071
      226
1005
187B0
  0
VERTEX
  5
187B1
330
187B0
100
AcDbEntity
  8
Cornice_linee
100
AcDbVertex
100
AcDb3dPolylineVertex
 10
61051.20539591881
 20
-13639.37615616102
 30
0.0
 70
    32
  0
VERTEX
  5
187B2
330
187B0
100
AcDbEntity
  8
Cornice_linee
100
AcDbVertex
100
AcDb3dPolylineVertex
 10
60974.21826311061
 20
-13670.29224886355
 30
0.0
 70
    32
  0
SEQEND
  5
187B3
330
187B0
100
AcDbEntity
  8
Cornice_linee
  0
POLYLINE
  5
187B4
330
1F
100
AcDbEntity
  8
Cornice_linee
100
AcDb3dPolyline
 66
     1
 10
0.0
 20
0.0
 30
0.0
 70
     8
1001
AcDbBlockRepETag
1070
     1
1071
      227
1005
187B4
  0
VERTEX
  5
187B5
330
187B4
100
AcDbEntity
  8
Cornice_linee
100
AcDbVertex
100
AcDb3dPolylineVertex
 10
60974.10481250065
 20
-13613.7137785583
 30
0.0
 70
    32
  0
VERTEX
  5
187B6
330
187B4
100
AcDbEntity
  8
Cornice_linee
100
AcDbVertex
100
AcDb3dPolylineVertex
 10
61051.20539591881
 20
-13613.7137785583
 30
0.0
 70
    32
  0
SEQEND
  5
187B7
330
187B4
100
AcDbEntity
  8
Cornice_linee
  0
POLYLINE
  5
187B8
330
1F
100
AcDbEntity
  8
Cornice_linee
100
AcDb3dPolyline
 66
     1
 10
0.0
 20
0.0
 30
0.0
 70
     8
1001
AcDbBlockRepETag
1070
     1
1071
      228
1005
187B8
  0
VERTEX
  5
187B9
330
187B8
100
AcDbEntity
  8
Cornice_linee
100
AcDbVertex
100
AcDb3dPolylineVertex
 10
61611.62730856985
 20
-12601.46826631564
 30
0.0
 70
    32
  0
VERTEX
  5
187BA
330
187B8
100
AcDbEntity
  8
Cornice_linee
100
AcDbVertex
100
AcDb3dPolylineVertex
 10
61611.62730856985
 20
-12664.61657440511
 30
0.0
 70
    32
  0
SEQEND
  5
187BB
330
187B8
100
AcDbEntity
  8
Cornice_linee
  0
POLYLINE
  5
187BC
330
1F
100
AcDbEntity
  8
Cornice_linee
100
AcDb3dPolyline
 66
     1
 10
0.0
 20
0.0
 30
0.0
 70
     8
1001
AcDbBlockRepETag
1070
     1
1071
      229
1005
187BC
  0
VERTEX
  5
187BD
330
187BC
100
AcDbEntity
  8
Cornice_linee
100
AcDbVertex
100
AcDb3dPolylineVertex
 10
61737.92392474855
 20
-12601.46826631564
 30
0.0
 70
    32
  0
VERTEX
  5
187BE
330
187BC
100
AcDbEntity
  8
Cornice_linee
100
AcDbVertex
100
AcDb3dPolylineVertex
 10
61737.92392474855
 20
-12664.61657440511
 30
0.0
 70
    32
  0
SEQEND
  5
187BF
330
187BC
100
AcDbEntity
  8
Cornice_linee
  0
POLYLINE
  5
187C0
330
1F
100
AcDbEntity
  8
Cornice_linee
100
AcDb3dPolyline
 66
     1
 10
0.0
 20
0.0
 30
0.0
 70
     8
1001
AcDbBlockRepETag
1070
     1
1071
      230
1005
187C0
  0
VERTEX
  5
187C1
330
187C0
100
AcDbEntity
  8
Cornice_linee
100
AcDbVertex
100
AcDb3dPolylineVertex
 10
61611.62730856985
 20
-12664.61657440511
 30
0.0
 70
    32
  0
VERTEX
  5
187C2
330
187C0
100
AcDbEntity
  8
Cornice_linee
100
AcDbVertex
100
AcDb3dPolylineVertex
 10
61737.92392474855
 20
-12664.61657440511
 30
0.0
 70
    32
  0
SEQEND
  5
187C3
330
187C0
100
AcDbEntity
  8
Cornice_linee
  0
POLYLINE
  5
187C4
330
1F
100
AcDbEntity
  8
Cornice_linee
100
AcDb3dPolyline
 66
     1
 10
0.0
 20
0.0
 30
0.0
 70
     8
1001
AcDbBlockRepETag
1070
     1
1071
      231
1005
187C4
  0
VERTEX
  5
187C5
330
187C4
100
AcDbEntity
  8
Cornice_linee
100
AcDbVertex
100
AcDb3dPolylineVertex
 10
61669.59952583222
 20
-12664.61657440511
 30
0.0
 70
    32
  0
VERTEX
  5
187C6
330
187C4
100
AcDbEntity
  8
Cornice_linee
100
AcDbVertex
100
AcDb3dPolylineVertex
 10
61669.59952583222
 20
-12738.32410778152
 30
0.0
 70
    32
  0
SEQEND
  5
187C7
330
187C4
100
AcDbEntity
  8
Cornice_linee
  0
POLYLINE
  5
187C8
330
1F
100
AcDbEntity
  8
Cornice_linee
100
AcDb3dPolyline
 66
     1
 10
0.0
 20
0.0
 30
0.0
 70
     8
1001
AcDbBlockRepETag
1070
     1
1071
      232
1005
187C8
  0
VERTEX
  5
187C9
330
187C8
100
AcDbEntity
  8
Cornice_linee
100
AcDbVertex
100
AcDb3dPolylineVertex
 10
61611.62730856985
 20
-12601.46826631564
 30
0.0
 70
    32
  0
VERTEX
  5
187CA
330
187C8
100
AcDbEntity
  8
Cornice_linee
100
AcDbVertex
100
AcDb3dPolylineVertex
 10
61737.92392474855
 20
-12601.46826631564
 30
0.0
 70
    32
  0
SEQEND
  5
187CB
330
187C8
100
AcDbEntity
  8
Cornice_linee
  0
POLYLINE
  5
187CC
330
1F
100
AcDbEntity
  8
Cornice_linee
100
AcDb3dPolyline
 66
     1
 10
0.0
 20
0.0
 30
0.0
 70
     8
1001
AcDbBlockRepETag
1070
     1
1071
      233
1005
187CC
  0
VERTEX
  5
187CD
330
187CC
100
AcDbEntity
  8
Cornice_linee
100
AcDbVertex
100
AcDb3dPolylineVertex
 10
61669.59952583222
 20
-12533.14386739925
 30
0.0
 70
    32
  0
VERTEX
  5
187CE
330
187CC
100
AcDbEntity
  8
Cornice_linee
100
AcDbVertex
100
AcDb3dPolylineVertex
 10
61669.59952583222
 20
-12601.46826631564
 30
0.0
 70
    32
  0
SEQEND
  5
187CF
330
187CC
100
AcDbEntity
  8
Cornice_linee
  0
HATCH
  5
187D0
330
1F
100
AcDbEntity
  8
Cornice_Tratteggi
100
AcDbHatch
 10
0.0
 20
0.0
 30
0.0
210
0.0
220
0.0
230
1.0
  2
AR-B816
 70
     0
 71
     1
 91
        1
 92
        1
 93
        3
 72
     1
 10
57274.6137304838
 20
-14648.0945793112
 11
57381.93292837916
 21
-14648.0945793112
 72
     1
 10
57381.93292837916
 20
-14648.0945793112
 11
57381.93292837916
 21
-10911.50745760812
 72
     2
 10
59315.07811996841
 20
-12836.86439997608
 40
2728.378582104971
 50
135.1156493345528
 51
221.5940502010711
 73
     1
 97
        2
330
187D2
330
187D1
 75
     0
 76
     1
 52
0.0
 41
24.2
 77
     0
 78
     2
 53
0.0
 43
-16347.32120195823
 44
-32763.75538970117
 45
0.0
 46
193.6
 79
     0
 53
90.0
 43
-16347.32120195823
 44
-32763.75538970117
 45
-193.6
 46
193.6
 79
     2
 49
193.6
 49
-193.6
 98
        1
 10
-16347.32120195823
 20
-32763.75538970117
1001
ACAD
1010
0.0
1020
0.0
1030
0.0
1001
AcDbBlockRepETag
1070
     1
1071
      242
1005
187D0
  0
LWPOLYLINE
  5
187D1
102
{ACAD_REACTORS
330
187D0
102
}
330
1F
100
AcDbEntity
  8
Cornice_linee
100
AcDbPolyline
 90
        2
 70
     0
 43
0.0
 10
57381.93292837916
 20
-10911.50745760812
 42
0.396323776149114
 10
57274.6137304838
 20
-14648.0945793112
1001
AcDbBlockRepETag
1070
     1
1071
      243
1005
187D1
  0
LWPOLYLINE
  5
187D2
102
{ACAD_REACTORS
330
187D0
102
}
330
1F
100
AcDbEntity
  8
0
100
AcDbPolyline
 90
        3
 70
     0
 43
0.0
 10
57274.6137304838
 20
-14648.0945793112
 10
57381.93292837916
 20
-14648.0945793112
 10
57381.93292837916
 20
-10911.50745760812
1001
AcDbBlockRepETag
1070
     1
1071
      244
1005
187D2
  0
MTEXT
  5
187D3
330
1F
100
AcDbEntity
  8
0
  6
Continuous
 62
     1
100
AcDbMText
 10
56195.88395994424
 20
-8405.094084619603
 30
0.0
 40
397.2255845644607
 41
8869.4048
 71
     1
 72
     5
  1
{\fSwis721 BlkOul BT|b0|i0|c0|p82;\C7;SECCIÓN SISTEMA EUROPLUS- 24}
  7
CKSTANDARD
 73
     1
 44
1.0
  0
TEXT
  5
187D5
330
1F
100
AcDbEntity
  8
0
  6
Continuous
100
AcDbText
 10
62272.45448016643
 20
-13048.92163468018
 30
0.0
 40
152.779070986331
  1
ESPESOR.
  7
style1
100
AcDbText
  0
TEXT
  5
187D6
330
1F
100
AcDbEntity
  8
0
  6
Continuous
100
AcDbText
 10
62179.18639720709
 20
-13303.5534196574
 30
0.0
 40
152.779070986331
  1
MIN 45 mm
  7
style1
100
AcDbText
  0
TEXT
  5
187D7
330
1F
100
AcDbEntity
  8
0
  6
Continuous
100
AcDbText
 10
63949.15928544151
 20
-13276.97396591917
 30
0.0
 40
152.779070986331
  1
MORTERO CON
  7
style1
100
AcDbText
  0
TEXT
  5
187D8
330
1F
100
AcDbEntity
  8
0
  6
Continuous
100
AcDbText
 10
63967.01258184959
 20
-13534.78651060129
 30
0.0
 40
152.779070986331
  1
ADITIVO
  7
style1
100
AcDbText
  0
TEXT
  5
187D9
330
1F
100
AcDbEntity
  8
0
  6
Continuous
100
AcDbText
 10
62157.79173188552
 20
-14781.48448686284
 30
0.0
 40
152.779070986331
  1
PLANCHA
  7
style1
100
AcDbText
  0
TEXT
  5
187DA
330
1F
100
AcDbEntity
  8
0
  6
Continuous
100
AcDbText
 10
62157.79173188552
 20
-15039.29703154496
 30
0.0
 40
152.779070986331
  1
EUROPLUS 24
  7
style1
100
AcDbText
  0
POLYLINE
  5
187DB
330
1F
100
AcDbEntity
  8
Cornice_linee
100
AcDb3dPolyline
 66
     1
 10
0.0
 20
0.0
 30
0.0
 70
     8
1001
AcDbBlockRepETag
1070
     1
1071
        3
1005
187DB
  0
VERTEX
  5
187DC
330
187DB
100
AcDbEntity
  8
Cornice_linee
100
AcDbVertex
100
AcDb3dPolylineVertex
 10
59712.41606232722
 20
-12533.14386739925
 30
0.0
 70
    32
  0
VERTEX
  5
187DD
330
187DB
100
AcDbEntity
  8
Cornice_linee
100
AcDbVertex
100
AcDb3dPolylineVertex
 10
61649.52286790818
 20
-11426.25879440165
 30
0.0
 70
    32
  0
SEQEND
  5
187DE
330
187DB
100
AcDbEntity
  8
Cornice_linee
  0
POLYLINE
  5
187DF
330
1F
100
AcDbEntity
  8
Cornice_linee
100
AcDb3dPolyline
 66
     1
 10
0.0
 20
0.0
 30
0.0
 70
     8
1001
AcDbBlockRepETag
1070
     1
1071
      157
1005
187DF
  0
VERTEX
  5
187E0
330
187DF
100
AcDbEntity
  8
Cornice_linee
100
AcDbVertex
100
AcDb3dPolylineVertex
 10
60577.85844860155
 20
-12038.62014978773
 30
0.0
 70
    32
  0
VERTEX
  5
187E1
330
187DF
100
AcDbEntity
  8
Cornice_linee
100
AcDbVertex
100
AcDb3dPolylineVertex
 10
58878.44430828108
 20
-12038.62014978773
 30
0.0
 70
    32
  0
SEQEND
  5
187E2
330
187DF
100
AcDbEntity
  8
Cornice_linee
  0
ENDSEC
  0
SECTION
  2
OBJECTS
  0
DICTIONARY
  5
C
330
0
100
AcDbDictionary
281
     1
  3
ACAD_CIP_PREVIOUS_PRODUCT_INFO
350
17FB0
  3
ACAD_COLOR
350
6B
  3
ACAD_DETAILVIEWSTYLE
350
17FA7
  3
ACAD_GROUP
350
D
  3
ACAD_LAYOUT
350
1A
  3
ACAD_MATERIAL
350
6A
  3
ACAD_MLEADERSTYLE
350
12D
  3
ACAD_MLINESTYLE
350
17
  3
ACAD_PLOTSETTINGS
350
19
  3
ACAD_PLOTSTYLENAME
350
E
  3
ACAD_SCALELIST
350
10C
  3
ACAD_SECTIONVIEWSTYLE
350
17FA5
  3
ACAD_TABLESTYLE
350
7E
  3
ACAD_VISUALSTYLE
350
EF
  3
ACDBHEADERROUNDTRIPXREC
350
18860
  3
AcDbVariableDictionary
350
5E
  3
AcDsDecomposeData
350
188A8
  3
AEC_PROPERTY_SET_DEFS
350
14FB0
  3
DWGPROPS
350
18863
  0
DICTIONARY
  5
18864
330
8
100
AcDbDictionary
280
     1
281
     1
  3
ACAD_XREC_ROUNDTRIP
360
18865
  0
DICTIONARY
  5
22C8
330
2
100
AcDbDictionary
280
     1
281
     1
  3
ACAD_LAYERSTATES
360
22C9
  0
DICTIONARY
  5
1CE
330
1F
100
AcDbDictionary
280
     1
281
     1
  3
ACAD_SORTENTS
360
187E3
  0
XRECORD
  5
17FB0
102
{ACAD_REACTORS
330
C
102
}
330
C
100
AcDbXrecord
280
     1
300
ACD
300
2014
300
ACD_F_S
  0
DICTIONARY
  5
6B
102
{ACAD_REACTORS
330
C
102
}
330
C
100
AcDbDictionary
281
     1
  0
DICTIONARY
  5
17FA7
102
{ACAD_REACTORS
330
C
102
}
330
C
100
AcDbDictionary
281
     1
  3
Imperial24
350
185A7
  3
Metric50
350
17FA8
  0
DICTIONARY
  5
D
102
{ACAD_REACTORS
330
C
102
}
330
C
100
AcDbDictionary
281
     1
  0
DICTIONARY
  5
1A
102
{ACAD_REACTORS
330
C
102
}
330
C
100
AcDbDictionary
281
     1
  3
Model
350
22
  3
Presentación1
350
D3
  3
Presentación2
350
D7
  0
DICTIONARY
  5
6A
102
{ACAD_REACTORS
330
C
102
}
330
C
100
AcDbDictionary
281
     1
  3
ByBlock
350
ED
  3
ByLayer
350
EC
  3
Global
350
EE
  0
DICTIONARY
  5
12D
102
{ACAD_REACTORS
330
C
102
}
330
C
100
AcDbDictionary
281
     1
  3
Standard
350
12E
  0
DICTIONARY
  5
17
102
{ACAD_REACTORS
330
C
102
}
330
C
100
AcDbDictionary
281
     1
  3
Standard
350
18
  0
DICTIONARY
  5
19
102
{ACAD_REACTORS
330
C
102
}
330
C
100
AcDbDictionary
281
     1
  0
ACDBDICTIONARYWDFLT
  5
E
102
{ACAD_REACTORS
330
C
102
}
330
C
100
AcDbDictionary
281
     1
  3
Normal
350
F
100
AcDbDictionaryWithDefault
340
F
  0
DICTIONARY
  5
10C
102
{ACAD_REACTORS
330
C
102
}
330
C
100
AcDbDictionary
281
     1
  3
A0
350
10D
  3
A1
350
1BE
  3
A2
350
1BF
  3
A3
350
1C0
  3
A4
350
1C1
  3
A5
350
1C2
  3
A6
350
1C3
  3
A7
350
1C4
  3
A8
350
1C5
  3
A9
350
1C6
  3
B0
350
1C7
  3
B1
350
1C8
  3
B2
350
1C9
  3
B3
350
1CA
  3
B4
350
1CB
  3
B5
350
1CC
  3
B6
350
1CD
  0
DICTIONARY
  5
17FA5
102
{ACAD_REACTORS
330
C
102
}
330
C
100
AcDbDictionary
281
     1
  3
Imperial24
350
185A6
  3
Metric50
350
17FA6
  0
DICTIONARY
  5
7E
102
{ACAD_REACTORS
330
C
102
}
330
C
100
AcDbDictionary
281
     1
  3
Standard
350
7F
  0
DICTIONARY
  5
EF
102
{ACAD_REACTORS
330
C
102
}
330
C
100
AcDbDictionary
281
     1
  3
2dWireframe
350
F5
  3
3D Hidden
350
F7
  3
3dWireframe
350
F6
  3
Basic
350
F4
  3
Brighten
350
FB
  3
ColorChange
350
FF
  3
Conceptual
350
F8
  3
Dim
350
FA
  3
EdgeColorOff
350
1E6
  3
Facepattern
350
FE
  3
Flat
350
F0
  3
FlatWithEdges
350
F1
  3
Gouraud
350
F2
  3
GouraudWithEdges
350
F3
  3
Hidden
350
17F9F
  3
JitterOff
350
1E4
  3
Linepattern
350
FD
  3
OverhangOff
350
1E5
  3
Realistic
350
F9
  3
Shaded
350
17FA4
  3
Shaded with edges
350
17FA3
  3
Shades of Gray
350
17FA0
  3
Sketchy
350
17FA1
  3
Thicken
350
FC
  3
Wireframe
350
17F9E
  3
X-Ray
350
17FA2
  0
DICTIONARY
  5
18860
102
{ACAD_REACTORS
330
C
102
}
330
C
100
AcDbDictionary
281
     1
  3
COLORDICT
350
18861
  3
MATERIALDICT
350
18862
  0
DICTIONARY
  5
5E
102
{ACAD_REACTORS
330
C
102
}
330
C
100
AcDbDictionary
281
     1
  3
CANNOSCALE
350
146
  3
CMLEADERSTYLE
350
145
  3
CTABLESTYLE
350
84
  3
CVIEWDETAILSTYLE
350
18613
  3
CVIEWSECTIONSTYLE
350
18614
  3
DIMASSOC
350
5F
  3
HIDETEXT
350
63
  3
LAYEREVAL
350
1AE
  3
LAYERNOTIFY
350
1AF
  3
LIGHTINGUNITS
350
230D
  3
MSLTSCALE
350
230C
  3
PSOLHEIGHT
350
1885D
  3
PSOLWIDTH
350
1885C
  3
XCLIPFRAME
350
1885E
  0
DICTIONARY
  5
188A8
102
{ACAD_REACTORS
330
C
102
}
330
C
100
AcDbDictionary
281
     1
  3
AcDsRecords
350
188A9
  3
AcDsSchemas
350
188AA
1001
ACAD
1070
     2
  0
DICTIONARY
  5
14FB0
102
{ACAD_REACTORS
330
C
102
}
330
C
100
AcDbDictionary
281
     1
  0
XRECORD
  5
18863
102
{ACAD_REACTORS
330
C
102
}
330
C
100
AcDbXrecord
280
     1
  1
DWGPROPS COOKIE
  2

  3

  4

  6

  7

  8
acae2
  9

300
=
301
=
302
=
303
=
304
=
305
=
306
=
307
=
308
=
309
=
 40
0.0
 41
2455812.37564213
 42
2460301.545594375
  1

 90
        0
  0
XRECORD
  5
18865
102
{ACAD_REACTORS
330
18864
102
}
330
18864
100
AcDbXrecord
280
     1
102
VTR_0.000_0.000_1.000_1.000_VISUALSTYLE
340
F5
102
VTR_0.000_0.000_1.000_1.000_GRIDDISPLAY
 70
     2
102
VTR_0.000_0.000_1.000_1.000_GRIDMAJOR
 70
     5
102
VTR_0.000_0.000_1.000_1.000_DEFAULTLIGHTING
280
     1
102
VTR_0.000_0.000_1.000_1.000_DEFAULTLIGHTINGTYPE
 70
     1
102
VTR_0.000_0.000_1.000_1.000_BRIGHTNESS
141
0.0
102
VTR_0.000_0.000_1.000_1.000_CONTRAST
142
0.0
  0
DICTIONARY
  5
22C9
102
{ACAD_REACTORS
330
22C8
102
}
330
22C8
100
AcDbDictionary
281
     1
  0
SORTENTSTABLE
  5
187E3
102
{ACAD_REACTORS
330
1CE
102
}
330
1CE
100
AcDbSortentsTable
330
1F
331
18624
  5
18624
331
18626
  5
18626
331
18627
  5
18627
331
18628
  5
18628
331
1862D
  5
1862D
331
18631
  5
18631
331
18635
  5
18635
331
18636
  5
18636
331
18637
  5
18637
331
18638
  5
18638
331
18639
  5
18639
331
1863A
  5
1863A
331
1863B
  5
1863B
331
18640
  5
18640
331
18644
  5
18644
331
18648
  5
18648
331
1864C
  5
1864C
331
1864D
  5
1864D
331
18652
  5
18652
331
18653
  5
18653
331
18654
  5
18654
331
18655
  5
18655
331
18659
  5
18659
331
1865A
  5
1865A
331
1865B
  5
1865B
331
1865C
  5
1865C
331
1865D
  5
1865D
331
1865E
  5
1865E
331
18662
  5
18662
331
18663
  5
18663
331
18664
  5
18664
331
18665
  5
18665
331
18666
  5
18666
331
18667
  5
18667
331
18668
  5
18668
331
18669
  5
18669
331
1866A
  5
1866A
331
1866B
  5
1866B
331
1866C
  5
1866C
331
1866D
  5
1866D
331
1866E
  5
1866E
331
1866F
  5
1866F
331
18670
  5
18670
331
18671
  5
18671
331
18672
  5
18672
331
18673
  5
18673
331
18674
  5
18674
331
18675
  5
18675
331
18676
  5
18676
331
1867C
  5
1867C
331
1867D
  5
1867D
331
1867E
  5
1867E
331
18682
  5
18682
331
18688
  5
18688
331
18689
  5
18689
331
1868D
  5
1868D
331
1868E
  5
1868E
331
1868F
  5
1868F
331
18693
  5
18693
331
18694
  5
18694
331
18695
  5
18695
331
18696
  5
18696
331
1869B
  5
1869B
331
186A0
  5
186A0
331
186A5
  5
186A5
331
186AB
  5
186AB
331
186AC
  5
186AC
331
186AD
  5
186AD
331
186AE
  5
186AE
331
186B2
  5
186B2
331
186B3
  5
186B3
331
186B4
  5
186B4
331
186B5
  5
186B5
331
186B6
  5
186B6
331
186B7
  5
186B7
331
186B8
  5
186B8
331
186B9
  5
186B9
331
186BA
  5
186BA
331
186BB
  5
186BB
331
186BF
  5
186BF
331
186C0
  5
186C0
331
186C4
  5
186C4
331
186C5
  5
186C5
331
186C6
  5
186C6
331
186C7
  5
186C7
331
186C8
  5
186C8
331
186C9
  5
186C9
331
186CA
  5
186CA
331
186CB
  5
186CB
331
186CC
  5
186CC
331
186CD
  5
186CD
331
186D1
  5
186D1
331
186D2
  5
186D2
331
186D3
  5
186D3
331
186D4
  5
186D4
331
186D5
  5
186D5
331
186D6
  5
186D6
331
186D7
  5
186D7
331
186D8
  5
186D8
331
186D9
  5
186D9
331
186DA
  5
186DA
331
186DB
  5
186DB
331
186DC
  5
186DC
331
186DD
  5
186DD
331
186DE
  5
186DE
331
186DF
  5
186DF
331
186E0
  5
186E0
331
186E1
  5
186E1
331
186E2
  5
186E2
331
186E3
  5
186E3
331
186E4
  5
186E4
331
186E5
  5
186E5
331
186E6
  5
186E6
331
186E7
  5
186E7
331
186EB
  5
186EB
331
186EF
  5
186EF
331
186F0
  5
186F0
331
186F1
  5
186F1
331
186F2
  5
186F2
331
186F3
  5
186F3
331
186F4
  5
186F4
331
186F5
  5
186F5
331
186F6
  5
186F6
331
186F7
  5
186F7
331
186F8
  5
186F8
331
186F9
  5
186F9
331
186FA
  5
186FA
331
186FB
  5
186FB
331
186FC
  5
186FC
331
186FD
  5
186FD
331
18701
  5
18701
331
18702
  5
18702
331
18706
  5
18706
331
18707
  5
18707
331
1870B
  5
1870B
331
1870F
  5
1870F
331
18713
  5
18713
331
18717
  5
18717
331
1871B
  5
1871B
331
1871F
  5
1871F
331
18723
  5
18723
331
18727
  5
18727
331
1872B
  5
1872B
331
1872C
  5
1872C
331
1872D
  5
1872D
331
18731
  5
18731
331
18732
  5
18732
331
18733
  5
18733
331
18734
  5
18734
331
18735
  5
18735
331
18736
  5
18736
331
1873C
  5
1873C
331
1873D
  5
1873D
331
1873E
  5
1873E
331
1873F
  5
1873F
331
18740
  5
18740
331
18741
  5
18741
331
18742
  5
18742
331
18743
  5
18743
331
18744
  5
18744
331
18745
  5
18745
331
18746
  5
18746
331
18747
  5
18747
331
18748
  5
18748
331
18749
  5
18749
331
1874A
  5
1874A
331
1874B
  5
1874B
331
1874C
  5
1874C
331
1874D
  5
1874D
331
1874E
  5
1874E
331
1874F
  5
1874F
331
18750
  5
18750
331
18751
  5
18751
331
18752
  5
18752
331
18753
  5
18753
331
18754
  5
18754
331
18755
  5
18755
331
18759
  5
18759
331
1875D
  5
1875D
331
18763
  5
18763
331
18767
  5
18767
331
18768
  5
18768
331
1876C
  5
1876C
331
1876D
  5
1876D
331
1876E
  5
1876E
331
18772
  5
18772
331
18776
  5
18776
331
1877B
  5
1877B
331
1877C
  5
1877C
331
18780
  5
18780
331
18781
  5
18781
331
18782
  5
18782
331
18783
  5
18783
331
18784
  5
18784
331
18785
  5
18785
331
18786
  5
18786
331
18787
  5
18787
331
18788
  5
18788
331
18789
  5
18789
331
1878A
  5
1878A
331
1878B
  5
1878B
331
1878C
  5
1878C
331
1878D
  5
1878D
331
1878E
  5
1878E
331
1878F
  5
1878F
331
18790
  5
18790
331
18791
  5
18791
331
18792
  5
18792
331
18793
  5
18793
331
18794
  5
18794
331
18795
  5
18795
331
18799
  5
18799
331
1879D
  5
1879D
331
1879E
  5
1879E
331
1879F
  5
1879F
331
187A0
  5
187A0
331
187A1
  5
187A1
331
187A2
  5
187A2
331
187A3
  5
187A3
331
187A9
  5
187A9
331
187AF
  5
187AF
331
187B0
  5
187B0
331
187B4
  5
187B4
331
187B8
  5
187B8
331
187BC
  5
187BC
331
187C0
  5
187C0
331
187C4
  5
187C4
331
187C8
  5
187C8
331
187CC
  5
187CC
331
187D0
  5
187D0
331
187D1
  5
187D1
331
187D2
  5
187D2
331
187D3
  5
187D3
331
187D5
  5
187D5
331
187D6
  5
187D6
331
187D7
  5
187D7
331
187D8
  5
187D8
331
187D9
  5
187D9
331
187DA
  5
187DA
331
187DB
  5
187DB
331
187DF
  5
187DF
  0
ACDBDETAILVIEWSTYLE
  5
185A7
102
{ACAD_REACTORS
330
17FA7
102
}
102
{ACAD_XDICTIONARY
360
18804
102
}
330
17FA7
100
AcDbModelDocViewStyle
 70
     0
  3
Imperial24
290
     0
100
AcDbDetailViewStyle
 70
     0
 71
     0
 90
        3
 71
     1
340
11
 40
0.24
340
0
 40
0.24
300

 40
0.36
280
     3
 71
     2
340
16
 90
       25
 71
     3
340
11
 40
0.24
 90
        1
 40
0.75
 90
        1
300
%<\AcVar ViewType \f "%tc1">% %<\AcVar ViewDetailId>%\PESCALA %<\AcVar ViewScale \f "%sn">%
 71
     4
340
16
 90
       25
340
16
 90
       25
280
     0
  0
ACDBDETAILVIEWSTYLE
  5
17FA8
102
{ACAD_REACTORS
330
17FA7
102
}
102
{ACAD_XDICTIONARY
360
18800
102
}
330
17FA7
100
AcDbModelDocViewStyle
 70
     0
  3
Metric50
290
     0
100
AcDbDetailViewStyle
 70
     0
 71
     0
 90
        3
 71
     1
340
11
 40
5.0
340
0
 40
5.0
300

 40
0.0
280
     1
 71
     2
340
16
 90
       25
 71
     3
340
11
 40
5.0
 90
        0
 40
15.0
 90
        1
300
%<\AcVar ViewDetailId>% (%<\AcVar ViewScale \f "%sn">%)
 71
     4
340
16
 90
       25
340
16
 90
       25
280
     0
  0
LAYOUT
  5
22
102
{ACAD_REACTORS
330
1A
102
}
102
{ACAD_XDICTIONARY
360
18868
102
}
330
1A
100
AcDbPlotSettings
  1

  2
none_device
  4
ISO_A4_(210.00_x_297.00_MM)
  6

 40
7.5
 41
20.0
 42
7.5
 43
20.0
 44
210.0
 45
297.0
 46
11.54999923706055
 47
-13.65000009536743
 48
0.0
 49
0.0
140
0.0
141
0.0
142
1.0
143
8.704084754739808
 70
 11952
 72
     1
 73
     0
 74
     0
  7

 75
     0
147
0.1148885871608098
148
0.0
149
0.0
100
AcDbLayout
  1
Model
 70
     1
 71
     0
 10
0.0
 20
0.0
 11
12.0
 21
9.0
 12
0.0
 22
0.0
 32
0.0
 14
0.0
 24
0.0
 34
0.0
 15
0.0
 25
0.0
 35
0.0
146
0.0
 13
0.0
 23
0.0
 33
0.0
 16
1.0
 26
0.0
 36
0.0
 17
0.0
 27
1.0
 37
0.0
 76
     0
330
1F
331
EA
1001
ACAD_PSEXT
1000
None
1000
None
1000
Not applicable
1000
The layout will not be plotted unless a new plotter configuration name is selected.
1070
     0
  0
LAYOUT
  5
D3
102
{ACAD_REACTORS
330
1A
102
}
330
1A
100
AcDbPlotSettings
  1

  2
C:\Documents and Settings\basas\Application Data\Autodesk\AutoCAD 2005\R16.1\enu\plotters\Default Windows System Printer.pc3
  4

  6

 40
0.0
 41
0.0
 42
0.0
 43
0.0
 44
0.0
 45
0.0
 46
0.0
 47
0.0
 48
0.0
 49
0.0
140
0.0
141
0.0
142
1.0
143
1.0
 70
   688
 72
     0
 73
     0
 74
     5
  7

 75
    16
147
1.0
148
0.0
149
0.0
100
AcDbLayout
  1
Presentación1
 70
     1
 71
     1
 10
0.0
 20
0.0
 11
12.0
 21
9.0
 12
0.0
 22
0.0
 32
0.0
 14
0.0
 24
0.0
 34
0.0
 15
0.0
 25
0.0
 35
0.0
146
0.0
 13
0.0
 23
0.0
 33
0.0
 16
1.0
 26
0.0
 36
0.0
 17
0.0
 27
1.0
 37
0.0
 76
     0
330
D2
  0
LAYOUT
  5
D7
102
{ACAD_REACTORS
330
1A
102
}
330
1A
100
AcDbPlotSettings
  1

  2
C:\Documents and Settings\basas\Application Data\Autodesk\AutoCAD 2005\R16.1\enu\plotters\Default Windows System Printer.pc3
  4

  6

 40
0.0
 41
0.0
 42
0.0
 43
0.0
 44
0.0
 45
0.0
 46
0.0
 47
0.0
 48
0.0
 49
0.0
140
0.0
141
0.0
142
1.0
143
1.0
 70
   688
 72
     0
 73
     0
 74
     5
  7

 75
    16
147
1.0
148
0.0
149
0.0
100
AcDbLayout
  1
Presentación2
 70
     1
 71
     2
 10
0.0
 20
0.0
 11
12.0
 21
9.0
 12
0.0
 22
0.0
 32
0.0
 14
0.0
 24
0.0
 34
0.0
 15
0.0
 25
0.0
 35
0.0
146
0.0
 13
0.0
 23
0.0
 33
0.0
 16
1.0
 26
0.0
 36
0.0
 17
0.0
 27
1.0
 37
0.0
 76
     0
330
D6
  0
MATERIAL
  5
ED
102
{ACAD_REACTORS
330
6A
102
}
102
{ACAD_XDICTIONARY
360
1886A
102
}
330
6A
100
AcDbMaterial
  1
ByBlock
 73
     2
 78
     2
172
     2
176
     2
270
     2
274
     2
  0
MATERIAL
  5
EC
102
{ACAD_REACTORS
330
6A
102
}
102
{ACAD_XDICTIONARY
360
1886C
102
}
330
6A
100
AcDbMaterial
  1
ByLayer
 73
     2
 78
     2
172
     2
176
     2
270
     2
274
     2
  0
MATERIAL
  5
EE
102
{ACAD_REACTORS
330
6A
102
}
102
{ACAD_XDICTIONARY
360
1886E
102
}
330
6A
100
AcDbMaterial
  1
Global
 73
     2
 43
0.0007999999797903
 43
0.0
 43
0.0
 43
0.0
 43
0.0
 43
0.0007999999797903
 43
0.0
 43
0.0
 43
0.0
 43
0.0
 43
1.0
 43
0.0
 43
0.0
 43
0.0
 43
0.0
 43
1.0
 78
     2
172
     2
 49
0.0007999999797903
 49
0.0
 49
0.0
 49
0.0
 49
0.0
 49
0.0007999999797903
 49
0.0
 49
0.0
 49
0.0
 49
0.0
 49
1.0
 49
0.0
 49
0.0
 49
0.0
 49
0.0
 49
1.0
176
     2
142
0.0007999999797903
142
0.0
142
0.0
142
0.0
142
0.0
142
0.0007999999797903
142
0.0
142
0.0
142
0.0
142
0.0
142
1.0
142
0.0
142
0.0
142
0.0
142
0.0
142
1.0
270
     2
144
0.0007999999797903
144
0.0
144
0.0
144
0.0
144
0.0
144
0.0007999999797903
144
0.0
144
0.0
144
0.0
144
0.0
144
1.0
144
0.0
144
0.0
144
0.0
144
0.0
144
1.0
274
     2
1001
ACAD
1070
    -1
1070
     3
1070
     0
1000

1071
        0
1070
     0
  0
MLEADERSTYLE
  5
12E
102
{ACAD_REACTORS
330
12D
102
}
102
{ACAD_XDICTIONARY
360
18870
102
}
330
12D
100
AcDbMLeaderStyle
170
     2
171
     1
172
     0
 90
        2
 40
0.0
 41
0.0
173
     1
 91
-1056964608
340
14
 92
       -2
290
     1
 42
2.0
291
     1
 43
8.0
  3
Standard
341
0
 44
4.0
300

342
11
174
     1
178
     1
175
     1
176
     0
 93
-1056964608
 45
4.0
292
     0
297
     0
 46
4.0
343
0
 94
-1056964608
 47
1.0
 49
1.0
140
1.0
293
     1
141
0.0
294
     1
177
     0
142
1.0
295
     0
296
     0
143
3.75
1001
ACAD_MLEADERVER
1070
     2
  0
MLINESTYLE
  5
18
102
{ACAD_REACTORS
330
17
102
}
330
17
100
AcDbMlineStyle
  2
STANDARD
 70
     0
  3

 62
   256
 51
90.0
 52
90.0
 71
     2
 49
0.5
 62
   256
  6
BYLAYER
 49
-0.5
 62
   256
  6
BYLAYER
  0
ACDBPLACEHOLDER
  5
F
102
{ACAD_REACTORS
330
E
102
}
330
E
  0
SCALE
  5
10D
102
{ACAD_REACTORS
330
10C
102
}
330
10C
100
AcDbScale
 70
     0
300
1:1
140
1.0
141
1.0
290
     1
  0
SCALE
  5
1BE
102
{ACAD_REACTORS
330
10C
102
}
330
10C
100
AcDbScale
 70
     0
300
1:2
140
1.0
141
2.0
290
     0
  0
SCALE
  5
1BF
102
{ACAD_REACTORS
330
10C
102
}
330
10C
100
AcDbScale
 70
     0
300
1:4
140
1.0
141
4.0
290
     0
  0
SCALE
  5
1C0
102
{ACAD_REACTORS
330
10C
102
}
330
10C
100
AcDbScale
 70
     0
300
1:5
140
1.0
141
5.0
290
     0
  0
SCALE
  5
1C1
102
{ACAD_REACTORS
330
10C
102
}
330
10C
100
AcDbScale
 70
     0
300
1:8
140
1.0
141
8.0
290
     0
  0
SCALE
  5
1C2
102
{ACAD_REACTORS
330
10C
102
}
330
10C
100
AcDbScale
 70
     0
300
1:10
140
1.0
141
10.0
290
     0
  0
SCALE
  5
1C3
102
{ACAD_REACTORS
330
10C
102
}
330
10C
100
AcDbScale
 70
     0
300
1:16
140
1.0
141
16.0
290
     0
  0
SCALE
  5
1C4
102
{ACAD_REACTORS
330
10C
102
}
330
10C
100
AcDbScale
 70
     0
300
1:20
140
1.0
141
20.0
290
     0
  0
SCALE
  5
1C5
102
{ACAD_REACTORS
330
10C
102
}
330
10C
100
AcDbScale
 70
     0
300
1:30
140
1.0
141
30.0
290
     0
  0
SCALE
  5
1C6
102
{ACAD_REACTORS
330
10C
102
}
330
10C
100
AcDbScale
 70
     0
300
1:40
140
1.0
141
40.0
290
     0
  0
SCALE
  5
1C7
102
{ACAD_REACTORS
330
10C
102
}
330
10C
100
AcDbScale
 70
     0
300
1:50
140
1.0
141
50.0
290
     0
  0
SCALE
  5
1C8
102
{ACAD_REACTORS
330
10C
102
}
330
10C
100
AcDbScale
 70
     0
300
1:100
140
1.0
141
100.0
290
     0
  0
SCALE
  5
1C9
102
{ACAD_REACTORS
330
10C
102
}
330
10C
100
AcDbScale
 70
     0
300
2:1
140
2.0
141
1.0
290
     0
  0
SCALE
  5
1CA
102
{ACAD_REACTORS
330
10C
102
}
330
10C
100
AcDbScale
 70
     0
300
4:1
140
4.0
141
1.0
290
     0
  0
SCALE
  5
1CB
102
{ACAD_REACTORS
330
10C
102
}
330
10C
100
AcDbScale
 70
     0
300
8:1
140
8.0
141
1.0
290
     0
  0
SCALE
  5
1CC
102
{ACAD_REACTORS
330
10C
102
}
330
10C
100
AcDbScale
 70
     0
300
10:1
140
10.0
141
1.0
290
     0
  0
SCALE
  5
1CD
102
{ACAD_REACTORS
330
10C
102
}
330
10C
100
AcDbScale
 70
     0
300
100:1
140
100.0
141
1.0
290
     0
  0
ACDBSECTIONVIEWSTYLE
  5
185A6
102
{ACAD_REACTORS
330
17FA5
102
}
102
{ACAD_XDICTIONARY
360
18802
102
}
330
17FA5
100
AcDbModelDocViewStyle
 70
     0
  3
Imperial24
290
     0
100
AcDbSectionViewStyle
 70
     0
 71
     0
 90
       78
 71
     1
340
11
 40
0.24
340
0
340
0
 40
0.24
300
I, O, Q, S, X, Z
 40
0.48
 90
        3
 40
0.18
 90
        1
 71
     2
340
16
 90
       25
340
16
 90
       50
 40
0.24
 40
0.0
 40
0.24
 71
     3
340
11
 40
0.24
 90
        1
 40
0.75
 90
        1
300
%<\AcVar ViewType \f "%tc1">% %<\AcVar ViewSectionStartId>%-%<\AcVar ViewSectionEndId>%\PESCALA %<\AcVar ViewScale \f "%sn">%
 71
     4
300
ANSI31
 40
1.0
 90
        0
290
     0
290
     0
 90
        6
 40
0.0
 40
1.570796326794897
 40
0.2617993877991494
 40
1.308996938995747
 40
-0.2617993877991494
 40
1.832595714594046
  0
ACDBSECTIONVIEWSTYLE
  5
17FA6
102
{ACAD_REACTORS
330
17FA5
102
}
102
{ACAD_XDICTIONARY
360
187FE
102
}
330
17FA5
100
AcDbModelDocViewStyle
 70
     0
  3
Metric50
290
     0
100
AcDbSectionViewStyle
 70
     0
 71
     0
 90
      102
 71
     1
340
11
 40
5.0
340
0
340
0
 40
5.0
300
I, O, Q, S, X, Z
 40
10.0
 90
        0
 40
2.5
 90
        0
 71
     2
340
16
 90
       25
340
16
 90
       50
 40
5.0
 40
2.5
 40
5.0
 71
     3
340
11
 40
5.0
 90
        0
 40
15.0
 90
        1
300
%<\AcVar ViewSectionStartId>%-%<\AcVar ViewSectionEndId>% (%<\AcVar ViewScale \f "%sn">%)
 71
     4
300
ANSI31
 40
1.0
 90
        0
290
     0
290
     0
 90
        6
 40
0.0
 40
1.570796326794897
 40
0.2617993877991494
 40
1.308996938995747
 40
-0.2617993877991494
 40
1.832595714594046
  0
TABLESTYLE
  5
7F
102
{ACAD_REACTORS
330
7E
102
}
330
7E
100
AcDbTableStyle
  3
Standard
 70
     0
 71
     0
 40
1.5
 41
1.5
280
     0
281
     0
  7
Standard
140
4.5
170
     2
 62
     0
 63
   257
283
     0
274
    -2
284
     1
 64
     0
275
    -2
285
     1
 65
     0
276
    -2
286
     1
 66
     0
277
    -2
287
     1
 67
     0
278
    -2
288
     1
 68
     0
279
    -2
289
     1
 69
     0
  7
Standard
140
6.0
170
     5
 62
     0
 63
   257
283
     0
274
    -2
284
     1
 64
     0
275
    -2
285
     1
 65
     0
276
    -2
286
     1
 66
     0
277
    -2
287
     1
 67
     0
278
    -2
288
     1
 68
     0
279
    -2
289
     1
 69
     0
  7
Standard
140
4.5
170
     5
 62
     0
 63
   257
283
     0
274
    -2
284
     1
 64
     0
275
    -2
285
     1
 65
     0
276
    -2
286
     1
 66
     0
277
    -2
287
     1
 67
     0
278
    -2
288
     1
 68
     0
279
    -2
289
     1
 69
     0
  0
VISUALSTYLE
  5
F5
102
{ACAD_REACTORS
330
EF
102
}
102
{ACAD_XDICTIONARY
360
18874
102
}
330
EF
100
AcDbVisualStyle
  2
2dWireframe
 70
     4
 71
     0
 72
     2
 73
     1
 90
        0
 40
-0.6
 41
-30.0
 62
     5
 63
     7
 74
     1
 91
        4
 64
     7
 65
   257
 75
     1
175
     1
 42
1.0
 92
        0
 66
   257
 43
1.0
 76
     1
 77
     6
 78
     2
 67
     7
 79
     5
170
     0
171
     0
290
     0
174
     0
 93
        1
 44
0.0
173
     0
291
     0
 45
0.0
1001
ACAD
1000
AcDbSavedByObjectVersion
1070
     0
  0
VISUALSTYLE
  5
F7
102
{ACAD_REACTORS
330
EF
102
}
102
{ACAD_XDICTIONARY
360
18876
102
}
330
EF
100
AcDbVisualStyle
  2
3D Hidden
 70
     6
 71
     1
 72
     2
 73
     2
 90
        0
 40
-0.6
 41
-30.0
 62
     5
 63
     7
 74
     2
 91
        2
 64
     7
 65
   257
 75
     2
175
     1
 42
40.0
 92
        0
 66
   257
 43
1.0
 76
     1
 77
     6
 78
     2
 67
     7
 79
     3
170
     0
171
     0
290
     0
174
     0
 93
        1
 44
0.0
173
     0
291
     0
 45
0.0
1001
ACAD
1000
AcDbSavedByObjectVersion
1070
     0
  0
VISUALSTYLE
  5
F6
102
{ACAD_REACTORS
330
EF
102
}
102
{ACAD_XDICTIONARY
360
18878
102
}
330
EF
100
AcDbVisualStyle
  2
3dWireframe
 70
     5
 71
     0
 72
     2
 73
     1
 90
        0
 40
-0.6
 41
-30.0
 62
     5
 63
     7
 74
     1
 91
        4
 64
     7
 65
   257
 75
     1
175
     1
 42
1.0
 92
        0
 66
   257
 43
1.0
 76
     1
 77
     6
 78
     2
 67
     7
 79
     5
170
     0
171
     0
290
     0
174
     0
 93
        1
 44
0.0
173
     0
291
     0
 45
0.0
1001
ACAD
1000
AcDbSavedByObjectVersion
1070
     0
  0
VISUALSTYLE
  5
F4
102
{ACAD_REACTORS
330
EF
102
}
102
{ACAD_XDICTIONARY
360
1887A
102
}
330
EF
100
AcDbVisualStyle
  2
Basic
 70
     7
 71
     1
 72
     0
 73
     1
 90
        0
 40
-0.6
 41
-30.0
 62
     5
 63
     7
 74
     0
 91
        4
 64
     7
 65
   257
 75
     1
175
     1
 42
1.0
 92
        8
 66
     7
 43
1.0
 76
     1
 77
     6
 78
     2
 67
     7
 79
     5
170
     0
171
     0
290
     0
174
     0
 93
        1
 44
0.0
173
     0
291
     1
 45
0.0
1001
ACAD
1000
AcDbSavedByObjectVersion
1070
     0
  0
VISUALSTYLE
  5
FB
102
{ACAD_REACTORS
330
EF
102
}
102
{ACAD_XDICTIONARY
360
1887C
102
}
330
EF
100
AcDbVisualStyle
  2
Brighten
 70
    12
 71
     2
 72
     2
 73
     1
 90
        0
 40
-0.6
 41
-30.0
 62
     5
 63
     7
 74
     1
 91
        4
 64
     7
 65
   257
 75
     1
175
     1
 42
1.0
 92
        8
 66
     7
 43
1.0
 76
     1
 77
     6
 78
     2
 67
     7
 79
     5
170
     0
171
     0
290
     0
174
     0
 93
        1
 44
50.0
173
     0
291
     1
 45
0.0
1001
ACAD
1000
AcDbSavedByObjectVersion
1070
     0
  0
VISUALSTYLE
  5
FF
102
{ACAD_REACTORS
330
EF
102
}
102
{ACAD_XDICTIONARY
360
1887E
102
}
330
EF
100
AcDbVisualStyle
  2
ColorChange
 70
    16
 71
     2
 72
     2
 73
     3
 90
        0
 40
-0.6
 41
-30.0
 62
     5
 63
     8
 74
     1
 91
        4
 64
     7
 65
   257
 75
     1
175
     1
 42
1.0
 92
        8
 66
     8
 43
1.0
 76
     1
 77
     6
 78
     2
 67
     7
 79
     5
170
     0
171
     0
290
     0
174
     0
 93
        1
 44
0.0
173
     0
291
     1
 45
0.0
1001
ACAD
1000
AcDbSavedByObjectVersion
1070
     0
  0
VISUALSTYLE
  5
F8
102
{ACAD_REACTORS
330
EF
102
}
102
{ACAD_XDICTIONARY
360
18880
102
}
330
EF
100
AcDbVisualStyle
  2
Conceptual
 70
     9
 71
     3
 72
     2
 73
     1
 90
        0
 40
-0.6
 41
-30.0
 62
     5
 63
     7
 74
     2
 91
        2
 64
     7
 65
   257
 75
     1
175
     1
 42
40.0
 92
        8
 66
     7
 43
1.0
 76
     1
 77
     6
 78
     2
 67
     7
 79
     3
170
     0
171
     0
290
     0
174
     0
 93
        1
 44
0.0
173
     0
291
     0
 45
0.0
1001
ACAD
1000
AcDbSavedByObjectVersion
1070
     0
  0
VISUALSTYLE
  5
FA
102
{ACAD_REACTORS
330
EF
102
}
102
{ACAD_XDICTIONARY
360
18882
102
}
330
EF
100
AcDbVisualStyle
  2
Dim
 70
    11
 71
     2
 72
     2
 73
     1
 90
        0
 40
-0.6
 41
-30.0
 62
     5
 63
     7
 74
     1
 91
        4
 64
     7
 65
   257
 75
     1
175
     1
 42
1.0
 92
        8
 66
     7
 43
1.0
 76
     1
 77
     6
 78
     2
 67
     7
 79
     5
170
     0
171
     0
290
     0
174
     0
 93
        1
 44
-50.0
173
     0
291
     1
 45
0.0
1001
ACAD
1000
AcDbSavedByObjectVersion
1070
     0
  0
VISUALSTYLE
  5
1E6
102
{ACAD_REACTORS
330
EF
102
}
102
{ACAD_XDICTIONARY
360
18884
102
}
330
EF
100
AcDbVisualStyle
  2
EdgeColorOff
 70
    22
 71
     2
 72
     2
 73
     0
 90
        0
 40
-0.6
 41
-30.0
 62
     5
 63
     7
 74
     1
 91
        4
 64
     7
 65
   257
 75
     1
175
     1
 42
1.0
 92
        8
 66
     7
 43
1.0
 76
     1
 77
     6
 78
     2
 67
     7
 79
     5
170
     0
171
     0
290
     0
174
     0
 93
        1
 44
0.0
173
     0
291
     1
 45
0.0
1001
ACAD
1000
AcDbSavedByObjectVersion
1070
     0
  0
VISUALSTYLE
  5
FE
102
{ACAD_REACTORS
330
EF
102
}
102
{ACAD_XDICTIONARY
360
18886
102
}
330
EF
100
AcDbVisualStyle
  2
Facepattern
 70
    15
 71
     2
 72
     2
 73
     1
 90
        0
 40
-0.6
 41
-30.0
 62
     5
 63
     7
 74
     1
 91
        4
 64
     7
 65
   257
 75
     1
175
     1
 42
1.0
 92
        8
 66
     7
 43
1.0
 76
     1
 77
     6
 78
     2
 67
     7
 79
     5
170
     0
171
     0
290
     0
174
     0
 93
        1
 44
0.0
173
     0
291
     1
 45
0.0
1001
ACAD
1000
AcDbSavedByObjectVersion
1070
     0
  0
VISUALSTYLE
  5
F0
102
{ACAD_REACTORS
330
EF
102
}
102
{ACAD_XDICTIONARY
360
18888
102
}
330
EF
100
AcDbVisualStyle
  2
Flat
 70
     0
 71
     2
 72
     1
 73
     1
 90
        2
 40
-0.6
 41
30.0
 62
     5
 63
     7
 74
     0
 91
        4
 64
     7
 65
   257
 75
     1
175
     1
 42
1.0
 92
        8
 66
     7
 43
1.0
 76
     1
 77
     6
 78
     2
 67
     7
 79
     5
170
     0
171
     0
290
     0
174
     0
 93
        1
 44
0.0
173
     0
291
     1
 45
0.0
1001
ACAD
1000
AcDbSavedByObjectVersion
1070
     0
  0
VISUALSTYLE
  5
F1
102
{ACAD_REACTORS
330
EF
102
}
102
{ACAD_XDICTIONARY
360
1888A
102
}
330
EF
100
AcDbVisualStyle
  2
FlatWithEdges
 70
     1
 71
     2
 72
     1
 73
     1
 90
        2
 40
-0.6
 41
30.0
 62
     5
 63
     7
 74
     1
 91
        4
 64
     7
 65
   257
 75
     1
175
     1
 42
1.0
 92
        0
 66
   257
 43
1.0
 76
     1
 77
     6
 78
     2
 67
     7
 79
     5
170
     0
171
     0
290
     0
174
     0
 93
        1
 44
0.0
173
     0
291
     1
 45
0.0
1001
ACAD
1000
AcDbSavedByObjectVersion
1070
     0
  0
VISUALSTYLE
  5
F2
102
{ACAD_REACTORS
330
EF
102
}
102
{ACAD_XDICTIONARY
360
1888C
102
}
330
EF
100
AcDbVisualStyle
  2
Gouraud
 70
     2
 71
     2
 72
     2
 73
     1
 90
        2
 40
-0.6
 41
30.0
 62
     5
 63
     7
 74
     0
 91
        4
 64
     7
 65
   257
 75
     1
175
     1
 42
1.0
 92
        0
 66
     7
 43
1.0
 76
     1
 77
     6
 78
     2
 67
     7
 79
     5
170
     0
171
     0
290
     0
174
     0
 93
        1
 44
0.0
173
     0
291
     1
 45
0.0
1001
ACAD
1000
AcDbSavedByObjectVersion
1070
     0
  0
VISUALSTYLE
  5
F3
102
{ACAD_REACTORS
330
EF
102
}
102
{ACAD_XDICTIONARY
360
1888E
102
}
330
EF
100
AcDbVisualStyle
  2
GouraudWithEdges
 70
     3
 71
     2
 72
     2
 73
     1
 90
        2
 40
-0.6
 41
30.0
 62
     5
 63
     7
 74
     1
 91
        4
 64
     7
 65
   257
 75
     1
175
     1
 42
1.0
 92
        0
 66
   257
 43
1.0
 76
     1
 77
     6
 78
     2
 67
     7
 79
     5
170
     0
171
     0
290
     0
174
     0
 93
        1
 44
0.0
173
     0
291
     1
 45
0.0
1001
ACAD
1000
AcDbSavedByObjectVersion
1070
     0
  0
VISUALSTYLE
  5
17F9F
102
{ACAD_REACTORS
330
EF
102
}
102
{ACAD_XDICTIONARY
360
18890
102
}
330
EF
100
AcDbVisualStyle
  2
Hidden
 70
     6
 71
     1
 72
     2
 73
     2
 90
        0
 40
-0.6
 41
-30.0
 62
     5
 63
     7
 74
     2
 91
        2
 64
     7
 65
   257
 75
     2
175
     1
 42
40.0
 92
        0
 66
   257
 43
1.0
 76
     1
 77
     6
 78
     2
 67
     7
 79
     3
170
     0
171
     0
290
     0
174
     0
 93
        1
 44
0.0
173
     0
291
     0
 45
0.0
1001
ACAD
1000
AcDbSavedByObjectVersion
1070
     0
  0
VISUALSTYLE
  5
1E4
102
{ACAD_REACTORS
330
EF
102
}
102
{ACAD_XDICTIONARY
360
18892
102
}
330
EF
100
AcDbVisualStyle
  2
JitterOff
 70
    20
 71
     2
 72
     2
 73
     0
 90
        0
 40
-0.6
 41
-30.0
 62
     5
 63
     7
 74
     1
 91
        4
 64
     7
 65
   257
 75
     1
175
     1
 42
1.0
 92
       10
 66
     7
 43
1.0
 76
     1
 77
     6
 78
     2
 67
     7
 79
     5
170
     0
171
     0
290
     0
174
     0
 93
        1
 44
0.0
173
     0
291
     1
 45
0.0
1001
ACAD
1000
AcDbSavedByObjectVersion
1070
     0
  0
VISUALSTYLE
  5
FD
102
{ACAD_REACTORS
330
EF
102
}
102
{ACAD_XDICTIONARY
360
18894
102
}
330
EF
100
AcDbVisualStyle
  2
Linepattern
 70
    14
 71
     2
 72
     2
 73
     1
 90
        0
 40
-0.6
 41
-30.0
 62
     5
 63
     7
 74
     1
 91
        4
 64
     7
 65
   257
 75
     7
175
     7
 42
1.0
 92
        8
 66
     7
 43
1.0
 76
     1
 77
     6
 78
     2
 67
     7
 79
     5
170
     0
171
     0
290
     0
174
     0
 93
        1
 44
0.0
173
     0
291
     1
 45
0.0
1001
ACAD
1000
AcDbSavedByObjectVersion
1070
     0
  0
VISUALSTYLE
  5
1E5
102
{ACAD_REACTORS
330
EF
102
}
102
{ACAD_XDICTIONARY
360
18896
102
}
330
EF
100
AcDbVisualStyle
  2
OverhangOff
 70
    21
 71
     2
 72
     2
 73
     0
 90
        0
 40
-0.6
 41
-30.0
 62
     5
 63
     7
 74
     1
 91
        4
 64
     7
 65
   257
 75
     1
175
     1
 42
1.0
 92
        9
 66
     7
 43
1.0
 76
     1
 77
     6
 78
     2
 67
     7
 79
     5
170
     0
171
     0
290
     0
174
     0
 93
        1
 44
0.0
173
     0
291
     1
 45
0.0
1001
ACAD
1000
AcDbSavedByObjectVersion
1070
     0
  0
VISUALSTYLE
  5
F9
102
{ACAD_REACTORS
330
EF
102
}
102
{ACAD_XDICTIONARY
360
18898
102
}
330
EF
100
AcDbVisualStyle
  2
Realistic
 70
     8
 71
     2
 72
     2
 73
     1
 90
        0
 40
-0.6
 41
-30.0
 62
     5
 63
     7
 74
     1
 91
        0
 64
     7
 65
   257
 75
     1
175
     1
 42
1.0
 92
        8
 66
     8
 43
1.0
 76
     1
 77
     6
 78
     2
 67
     7
 79
     5
170
     0
171
     0
290
     0
174
     0
 93
       13
 44
0.0
173
     0
291
     0
 45
0.0
1001
ACAD
1000
AcDbSavedByObjectVersion
1070
     0
  0
VISUALSTYLE
  5
17FA4
102
{ACAD_REACTORS
330
EF
102
}
102
{ACAD_XDICTIONARY
360
1889A
102
}
330
EF
100
AcDbVisualStyle
  2
Shaded
 70
    27
 71
     2
 72
     2
 73
     1
 90
        2
 40
-0.6
 41
30.0
 62
     5
 63
     7
 74
     0
 91
        4
 64
     7
 65
   257
 75
     1
175
     1
 42
1.0
 92
        8
 66
   257
 43
1.0
 76
     1
 77
     6
 78
     2
 67
     8
 79
     3
170
     0
171
     0
290
     0
174
     0
 93
        5
 44
0.0
173
     0
291
     0
 45
0.0
1001
ACAD
1000
AcDbSavedByObjectVersion
1070
     0
  0
VISUALSTYLE
  5
17FA3
102
{ACAD_REACTORS
330
EF
102
}
102
{ACAD_XDICTIONARY
360
1889C
102
}
330
EF
100
AcDbVisualStyle
  2
Shaded with edges
 70
    26
 71
     2
 72
     2
 73
     1
 90
        2
 40
-0.6
 41
30.0
 62
     5
 63
     7
 74
     1
 91
       10
 64
     7
 65
   257
 75
     2
175
     1
 42
1.0
 92
        8
 66
   257
 43
1.0
 76
     1
 77
     6
 78
     2
 67
     7
 79
     3
170
     0
171
     0
290
     0
174
     0
 93
        5
 44
0.0
173
     0
291
     0
 45
0.0
1001
ACAD
1000
AcDbSavedByObjectVersion
1070
     0
  0
VISUALSTYLE
  5
17FA0
102
{ACAD_REACTORS
330
EF
102
}
102
{ACAD_XDICTIONARY
360
1889E
102
}
330
EF
100
AcDbVisualStyle
  2
Shades of Gray
 70
    23
 71
     2
 72
     2
 73
     3
 90
        0
 40
-0.6
 41
-30.0
 62
     5
 63
     7
 74
     2
 91
        2
 64
     7
 65
     7
 75
     1
175
     1
 42
40.0
 92
        8
 66
     7
 43
1.0
 76
     1
 77
     6
 78
     2
 67
     7
 79
     3
170
     0
171
     0
290
     0
174
     0
 93
        1
 44
0.0
173
     0
291
     0
 45
0.0
1001
ACAD
1000
AcDbSavedByObjectVersion
1070
     0
  0
VISUALSTYLE
  5
17FA1
102
{ACAD_REACTORS
330
EF
102
}
102
{ACAD_XDICTIONARY
360
188A0
102
}
330
EF
100
AcDbVisualStyle
  2
Sketchy
 70
    24
 71
     1
 72
     2
 73
     2
 90
        0
 40
-0.6
 41
-30.0
 62
     5
 63
     7
 74
     2
 91
        2
 64
     7
 65
     7
 75
     1
175
     1
 42
40.0
 92
       11
 66
     7
 43
1.0
 76
     1
 77
     6
 78
     2
 67
     7
 79
     6
170
     0
171
     0
290
     0
174
     0
 93
        1
 44
0.0
173
     0
291
     0
 45
0.0
1001
ACAD
1000
AcDbSavedByObjectVersion
1070
     0
  0
VISUALSTYLE
  5
FC
102
{ACAD_REACTORS
330
EF
102
}
102
{ACAD_XDICTIONARY
360
188A2
102
}
330
EF
100
AcDbVisualStyle
  2
Thicken
 70
    13
 71
     2
 72
     2
 73
     1
 90
        0
 40
-0.6
 41
-30.0
 62
     5
 63
     7
 74
     1
 91
        4
 64
     7
 65
   257
 75
     1
175
     1
 42
1.0
 92
       12
 66
     7
 43
1.0
 76
     1
 77
     6
 78
     2
 67
     7
 79
     5
170
     0
171
     0
290
     0
174
     0
 93
        1
 44
0.0
173
     0
291
     1
 45
0.0
1001
ACAD
1000
AcDbSavedByObjectVersion
1070
     0
  0
VISUALSTYLE
  5
17F9E
102
{ACAD_REACTORS
330
EF
102
}
102
{ACAD_XDICTIONARY
360
188A4
102
}
330
EF
100
AcDbVisualStyle
  2
Wireframe
 70
     5
 71
     0
 72
     2
 73
     0
 90
        0
 40
-0.6
 41
-30.0
 62
     5
 63
     7
 74
     1
 91
        4
 64
     7
 65
   257
 75
     1
175
     1
 42
1.0
 92
        0
 66
   257
 43
1.0
 76
     1
 77
     6
 78
     2
 67
     7
 79
     3
170
     0
171
     0
290
     0
174
     0
 93
        1
 44
0.0
173
     0
291
     0
 45
0.0
1001
ACAD
1000
AcDbSavedByObjectVersion
1070
     0
  0
VISUALSTYLE
  5
17FA2
102
{ACAD_REACTORS
330
EF
102
}
102
{ACAD_XDICTIONARY
360
188A6
102
}
330
EF
100
AcDbVisualStyle
  2
X-Ray
 70
    25
 71
     2
 72
     2
 73
     1
 90
        1
 40
0.5
 41
-30.0
 62
     5
 63
     7
 74
     1
 91
        0
 64
     7
 65
   257
 75
     1
175
     1
 42
1.0
 92
        8
 66
     7
 43
1.0
 76
     1
 77
     6
 78
     2
 67
     7
 79
     3
170
     0
171
     0
290
     0
174
     0
 93
       13
 44
0.0
173
     0
291
     0
 45
0.0
1001
ACAD
1000
AcDbSavedByObjectVersion
1070
     0
  0
XRECORD
  5
18861
102
{ACAD_REACTORS
330
18860
102
}
330
18860
100
AcDbXrecord
280
     1
340
6B
  0
XRECORD
  5
18862
102
{ACAD_REACTORS
330
18860
102
}
330
18860
100
AcDbXrecord
280
     1
340
6A
  0
DICTIONARYVAR
  5
146
102
{ACAD_REACTORS
330
5E
102
}
330
5E
100
DictionaryVariables
280
     0
  1
1:1
  0
DICTIONARYVAR
  5
145
102
{ACAD_REACTORS
330
5E
102
}
330
5E
100
DictionaryVariables
280
     0
  1
Standard
  0
DICTIONARYVAR
  5
84
102
{ACAD_REACTORS
330
5E
102
}
330
5E
100
DictionaryVariables
280
     0
  1
Standard
  0
DICTIONARYVAR
  5
18613
102
{ACAD_REACTORS
330
5E
102
}
330
5E
100
DictionaryVariables
280
     0
  1
Metric50
  0
DICTIONARYVAR
  5
18614
102
{ACAD_REACTORS
330
5E
102
}
330
5E
100
DictionaryVariables
280
     0
  1
Metric50
  0
DICTIONARYVAR
  5
5F
102
{ACAD_REACTORS
330
5E
102
}
330
5E
100
DictionaryVariables
280
     0
  1
2
  0
DICTIONARYVAR
  5
63
102
{ACAD_REACTORS
330
5E
102
}
330
5E
100
DictionaryVariables
280
     0
  1
1
  0
DICTIONARYVAR
  5
1AE
102
{ACAD_REACTORS
330
5E
102
}
330
5E
100
DictionaryVariables
280
     0
  1
0
  0
DICTIONARYVAR
  5
1AF
102
{ACAD_REACTORS
330
5E
102
}
330
5E
100
DictionaryVariables
280
     0
  1
0
  0
DICTIONARYVAR
  5
230D
102
{ACAD_REACTORS
330
5E
102
}
330
5E
100
DictionaryVariables
280
     0
  1
2
  0
DICTIONARYVAR
  5
230C
102
{ACAD_REACTORS
330
5E
102
}
330
5E
100
DictionaryVariables
280
     0
  1
1
  0
DICTIONARYVAR
  5
1885D
102
{ACAD_REACTORS
330
5E
102
}
330
5E
100
DictionaryVariables
280
     0
  1
4.000000
  0
DICTIONARYVAR
  5
1885C
102
{ACAD_REACTORS
330
5E
102
}
330
5E
100
DictionaryVariables
280
     0
  1
0.250000
  0
DICTIONARYVAR
  5
1885E
102
{ACAD_REACTORS
330
5E
102
}
330
5E
100
DictionaryVariables
280
     0
  1
2
  0
DICTIONARY
  5
188A9
102
{ACAD_REACTORS
330
188A8
102
}
330
188A8
100
AcDbDictionary
281
     1
  0
DICTIONARY
  5
188AA
102
{ACAD_REACTORS
330
188A8
102
}
330
188A8
100
AcDbDictionary
281
     1
  3
8796085000128
350
188AB
  3
8796085000144
350
188AC
  3
8796085000160
350
188AD
  3
8796085000176
350
188AE
  3
8796085000192
350
188AF
  3
8796085000208
350
188B0
  0
DICTIONARY
  5
18804
330
185A7
100
AcDbDictionary
280
     1
281
     1
  3
ACAD_XREC_ROUNDTRIP
360
18866
  0
DICTIONARY
  5
18800
330
17FA8
100
AcDbDictionary
280
     1
281
     1
  3
ACAD_XREC_ROUNDTRIP
360
18867
  0
DICTIONARY
  5
18868
330
22
100
AcDbDictionary
280
     1
281
     1
  3
ADSK_XREC_LAYOUTTHUMBNAIL
360
18869
  0
DICTIONARY
  5
1886A
330
ED
100
AcDbDictionary
280
     1
281
     1
  3
ACAD_XREC_ROUNDTRIP
360
1886B
  0
DICTIONARY
  5
1886C
330
EC
100
AcDbDictionary
280
     1
281
     1
  3
ACAD_XREC_ROUNDTRIP
360
1886D
  0
DICTIONARY
  5
1886E
330
EE
100
AcDbDictionary
280
     1
281
     1
  3
ACAD_XREC_ROUNDTRIP
360
1886F
  0
DICTIONARY
  5
18870
330
12E
100
AcDbDictionary
280
     1
281
     1
  3
ACAD_XREC_ROUNDTRIP
360
18871
  0
DICTIONARY
  5
18802
330
185A6
100
AcDbDictionary
280
     1
281
     1
  3
ACAD_XREC_ROUNDTRIP
360
18872
  0
DICTIONARY
  5
187FE
330
17FA6
100
AcDbDictionary
280
     1
281
     1
  3
ACAD_XREC_ROUNDTRIP
360
18873
  0
DICTIONARY
  5
18874
330
F5
100
AcDbDictionary
280
     1
281
     1
  3
ACAD_XREC_ROUNDTRIP
360
18875
  0
DICTIONARY
  5
18876
330
F7
100
AcDbDictionary
280
     1
281
     1
  3
ACAD_XREC_ROUNDTRIP
360
18877
  0
DICTIONARY
  5
18878
330
F6
100
AcDbDictionary
280
     1
281
     1
  3
ACAD_XREC_ROUNDTRIP
360
18879
  0
DICTIONARY
  5
1887A
330
F4
100
AcDbDictionary
280
     1
281
     1
  3
ACAD_XREC_ROUNDTRIP
360
1887B
  0
DICTIONARY
  5
1887C
330
FB
100
AcDbDictionary
280
     1
281
     1
  3
ACAD_XREC_ROUNDTRIP
360
1887D
  0
DICTIONARY
  5
1887E
330
FF
100
AcDbDictionary
280
     1
281
     1
  3
ACAD_XREC_ROUNDTRIP
360
1887F
  0
DICTIONARY
  5
18880
330
F8
100
AcDbDictionary
280
     1
281
     1
  3
ACAD_XREC_ROUNDTRIP
360
18881
  0
DICTIONARY
  5
18882
330
FA
100
AcDbDictionary
280
     1
281
     1
  3
ACAD_XREC_ROUNDTRIP
360
18883
  0
DICTIONARY
  5
18884
330
1E6
100
AcDbDictionary
280
     1
281
     1
  3
ACAD_XREC_ROUNDTRIP
360
18885
  0
DICTIONARY
  5
18886
330
FE
100
AcDbDictionary
280
     1
281
     1
  3
ACAD_XREC_ROUNDTRIP
360
18887
  0
DICTIONARY
  5
18888
330
F0
100
AcDbDictionary
280
     1
281
     1
  3
ACAD_XREC_ROUNDTRIP
360
18889
  0
DICTIONARY
  5
1888A
330
F1
100
AcDbDictionary
280
     1
281
     1
  3
ACAD_XREC_ROUNDTRIP
360
1888B
  0
DICTIONARY
  5
1888C
330
F2
100
AcDbDictionary
280
     1
281
     1
  3
ACAD_XREC_ROUNDTRIP
360
1888D
  0
DICTIONARY
  5
1888E
330
F3
100
AcDbDictionary
280
     1
281
     1
  3
ACAD_XREC_ROUNDTRIP
360
1888F
  0
DICTIONARY
  5
18890
330
17F9F
100
AcDbDictionary
280
     1
281
     1
  3
ACAD_XREC_ROUNDTRIP
360
18891
  0
DICTIONARY
  5
18892
330
1E4
100
AcDbDictionary
280
     1
281
     1
  3
ACAD_XREC_ROUNDTRIP
360
18893
  0
DICTIONARY
  5
18894
330
FD
100
AcDbDictionary
280
     1
281
     1
  3
ACAD_XREC_ROUNDTRIP
360
18895
  0
DICTIONARY
  5
18896
330
1E5
100
AcDbDictionary
280
     1
281
     1
  3
ACAD_XREC_ROUNDTRIP
360
18897
  0
DICTIONARY
  5
18898
330
F9
100
AcDbDictionary
280
     1
281
     1
  3
ACAD_XREC_ROUNDTRIP
360
18899
  0
DICTIONARY
  5
1889A
330
17FA4
100
AcDbDictionary
280
     1
281
     1
  3
ACAD_XREC_ROUNDTRIP
360
1889B
  0
DICTIONARY
  5
1889C
330
17FA3
100
AcDbDictionary
280
     1
281
     1
  3
ACAD_XREC_ROUNDTRIP
360
1889D
  0
DICTIONARY
  5
1889E
330
17FA0
100
AcDbDictionary
280
     1
281
     1
  3
ACAD_XREC_ROUNDTRIP
360
1889F
  0
DICTIONARY
  5
188A0
330
17FA1
100
AcDbDictionary
280
     1
281
     1
  3
ACAD_XREC_ROUNDTRIP
360
188A1
  0
DICTIONARY
  5
188A2
330
FC
100
AcDbDictionary
280
     1
281
     1
  3
ACAD_XREC_ROUNDTRIP
360
188A3
  0
DICTIONARY
  5
188A4
330
17F9E
100
AcDbDictionary
280
     1
281
     1
  3
ACAD_XREC_ROUNDTRIP
360
188A5
  0
DICTIONARY
  5
188A6
330
17FA2
100
AcDbDictionary
280
     1
281
     1
  3
ACAD_XREC_ROUNDTRIP
360
188A7
  0
XRECORD
  5
188AB
102
{ACAD_REACTORS
330
188AA
102
}
330
188AA
100
AcDbXrecord
280
     1
  1
AcDb_Thumbnail_Schema
102
{ATTRRECORD
341
188AD
  2
AcDbDs::TreatedAsObjectData
280
     1
291
     1
102
ATTRRECORD}
102
{ATTRRECORD
341
188AE
  2
AcDbDs::Legacy
280
     1
291
     1
102
ATTRRECORD}
  2
AcDbDs::ID
280
    10
 91
        8
102
{ATTRRECORD
341
188AF
  2
AcDs:Indexable
280
     1
291
     1
102
ATTRRECORD}
102
{ATTRRECORD
341
188B0
  2
AcDbDs::HandleAttribute
280
     7
282
     1
102
ATTRRECORD}
  2
Thumbnail_Data
280
    15
 91
        0
  0
XRECORD
  5
188AC
102
{ACAD_REACTORS
330
188AA
102
}
330
188AA
100
AcDbXrecord
280
     1
  1
AcDb3DSolid_ASM_Data
102
{ATTRRECORD
341
188AD
  2
AcDbDs::TreatedAsObjectData
280
     1
291
     1
102
ATTRRECORD}
102
{ATTRRECORD
341
188AE
  2
AcDbDs::Legacy
280
     1
291
     1
102
ATTRRECORD}
  2
AcDbDs::ID
280
    10
 91
        8
102
{ATTRRECORD
341
188AF
  2
AcDs:Indexable
280
     1
291
     1
102
ATTRRECORD}
102
{ATTRRECORD
341
188B0
  2
AcDbDs::HandleAttribute
280
     7
282
     1
102
ATTRRECORD}
  2
ASM_Data
280
    15
 91
        0
  0
XRECORD
  5
188AD
102
{ACAD_REACTORS
330
188AA
102
}
330
188AA
100
AcDbXrecord
280
     1
  1
AcDbDs::TreatedAsObjectDataSchema
  2
AcDbDs::TreatedAsObjectData
280
     1
 91
        0
  0
XRECORD
  5
188AE
102
{ACAD_REACTORS
330
188AA
102
}
330
188AA
100
AcDbXrecord
280
     1
  1
AcDbDs::LegacySchema
  2
AcDbDs::Legacy
280
     1
 91
        0
  0
XRECORD
  5
188AF
102
{ACAD_REACTORS
330
188AA
102
}
330
188AA
100
AcDbXrecord
280
     1
  1
AcDbDs::IndexedPropertySchema
  2
AcDs:Indexable
280
     1
 91
        0
  0
XRECORD
  5
188B0
102
{ACAD_REACTORS
330
188AA
102
}
330
188AA
100
AcDbXrecord
280
     1
  1
AcDbDs::HandleAttributeSchema
  2
AcDbDs::HandleAttribute
280
     7
 91
        1
284
     1
  0
XRECORD
  5
18866
102
{ACAD_REACTORS
330
18804
102
}
330
18804
100
AcDbXrecord
280
     1
102
DISPLAYNAME
  1
Imperial24
102
FLAGS
 90
        0
  0
XRECORD
  5
18867
102
{ACAD_REACTORS
330
18800
102
}
330
18800
100
AcDbXrecord
280
     1
102
DISPLAYNAME
  1
Metric50
102
FLAGS
 90
        0
  0
XRECORD
  5
18869
102
{ACAD_REACTORS
330
18868
102
}
330
18868
100
AcDbXrecord
280
     1
310
280000000001000064000000010008000000000000640000010000000100000000010000000000003028210000000000C8C8C8FF000000FF000000FF000000FF000000FF000000FF000000FF000000FF000000FF330000FF660000FF990000FFCC0000FFFF0000FF003300FF333300FF663300FF993300FFCC3300FFFF3300
310
FF006600FF336600FF666600FF996600FFCC6600FFFF6600FF009900FF339900FF669900FF999900FFCC9900FFFF9900FF00CC00FF33CC00FF66CC00FF99CC00FFCCCC00FFFFCC00FF00FF00FF33FF00FF66FF00FF99FF00FFCCFF00FFFFFF00FF000033FF330033FF660033FF990033FFCC0033FFFF0033FF003333FF3333
310
33FF663333FF993333FFCC3333FFFF3333FF006633FF336633FF666633FF996633FFCC6633FFFF6633FF009933FF339933FF669933FF999933FFCC9933FFFF9933FF00CC33FF33CC33FF66CC33FF99CC33FFCCCC33FFFFCC33FF00FF33FF33FF33FF66FF33FF99FF33FFCCFF33FFFFFF33FF000066FF330066FF660066FF99
310
0066FFCC0066FFFF0066FF003366FF333366FF663366FF993366FFCC3366FFFF3366FF006666FF336666FF666666FF996666FFCC6666FFFF6666FF009966FF339966FF669966FF999966FFCC9966FFFF9966FF00CC66FF33CC66FF66CC66FF99CC66FFCCCC66FFFFCC66FF00FF66FF33FF66FF66FF66FF99FF66FFCCFF66FF
310
FFFF66FF000099FF330099FF660099FF990099FFCC0099FFFF0099FF003399FF333399FF663399FF993399FFCC3399FFFF3399FF006699FF336699FF666699FF996699FFCC6699FFFF6699FF009999FF339999FF669999FF999999FFCC9999FFFF9999FF00CC99FF33CC99FF66CC99FF99CC99FFCCCC99FFFFCC99FF00FF99
310
FF33FF99FF66FF99FF99FF99FFCCFF99FFFFFF99FF0000CCFF3300CCFF6600CCFF9900CCFFCC00CCFFFF00CCFF0033CCFF3333CCFF6633CCFF9933CCFFCC33CCFFFF33CCFF0066CCFF3366CCFF6666CCFF9966CCFFCC66CCFFFF66CCFF0099CCFF3399CCFF6699CCFF9999CCFFCC99CCFFFF99CCFF00CCCCFF33CCCCFF66CC
310
CCFF99CCCCFFCCCCCCFFFFCCCCFF00FFCCFF33FFCCFF66FFCCFF99FFCCFFCCFFCCFFFFFFCCFF0000FFFF3300FFFF6600FFFF9900FFFFCC00FFFFFF00FFFF0033FFFF3333FFFF6633FFFF9933FFFFCC33FFFFFF33FFFF0066FFFF3366FFFF6666FFFF9966FFFFCC66FFFFFF66FFFF0099FFFF3399FFFF6699FFFF9999FFFFCC
310
99FFFFFF99FFFF00CCFFFF33CCFFFF66CCFFFF99CCFFFFCCCCFFFFFFCCFFFF00FFFFFF33FFFFFF66FFFFFF99FFFFFFCCFFFFFFFFFFFFFF000000FF0D0D0DFF1A1A1AFF282828FF353535FF434343FF505050FF5D5D5DFF6B6B6BFF787878FF868686FF939393FFA1A1A1FFAEAEAEFFBBBBBBFFC9C9C9FFD6D6D6FFE4E4E4FF
310
F1F1F1FFFFFFFFFF000000FF000000FF000000FF000000FF000000FF000000FF000000FF000000FF000000FF000000FF00000000000000000000000000000000000000000000000000000000000000000000000000000000000000000000000000000000000000000000000000000000000000000000000000000000000000
310
00000000000000000000000000000000000000000000000000000000000000000000000000000000000000000000000000000000000000000000000000000000000000000000000000000000000000000000000000000000000000000000000000000000000000000000000000000000000000000000000000000000000000
310
00000000000000000000000000000000000000000000000000000000000000000000000000000000000000000000000000000000000000000000000000000000000000000000000000000000000000000000000000000000000000000000000000000000000000000000000000000000000000000000000000000000000000
310
00000000000000000000000000000000000000000000000000000000000000000000000000000000000000000000000000000000000000000000000000000000000000000000000000000000000000000000000000000000000000000000000000000000000000000000000000000000000000000000000000000000000000
310
00000000000000000000000000000000000000000000000000000000000000000000000000000000000000000000000000000000000000000000000000000000000000000000000000000000000000000000000000000000000000000000000000000000000000000000000000000000000000000000000000000000000000
310
00000000000000000000000000000000000000000000000000000000000000000000000000000000000000000000000000000000000000000000000000000000000000000000000000000000000000000000000000000000000000000000000000000000000000000000000000000000000000000000000000000000000000
310
00000000000000000000000000000000000000000000000000000000000000000000000000000000000000000000000000000000000000000000000000000000000000000000000000000000000000000000000000000000000000000000000000000000000000000000000000000000000000000000000000000000000000
310
00000000000000000000000000000000000000000000000000000000000000000000000000000000000000000000000000000000000000000000000000000000000000000000000000000000000000000000000000000000000000000000000000000000000000000000000000000000000000000000000000000000000000
310
00000000000000000000000000000000000000000000000000000000000000000000000000000000000000000000000000000000000000000000000000000000000000000000000000000000000000000000000000000000000000000000000000000000000000000000000000000000000000000000000000000000000000
310
00000000000000000000000000000000000000000000000000000000000000000000000000000000000000000000000000000000000000000000000000000000000000000000000000000000000000000000000000000000000000000000000000000000000000000000000000000000000000000000000000000000000000
310
00000000000000000000000000000000000000000000000000000000000000000000000000000000000000000000000000000000000000000000000000000000000000000000000000000000000000000000000000000000000000000000000000000000000000000000000000000000000000000000000000000000000000
310
00000000000000000000000000000000000000000000000000000000000000000000000000000000000000000000000000000000000000000000000000000000000000000000000000000000000000000000000000000000000000000000000000000000000000000000000000000000000000000000000000000000000000
310
00000000000000000000000000000000000000000000000000000000000000000000000000000000000000000000000000000000000000000000000000000000000000000000000000000000000000000000000000000000000000000000000000000000000000000000000000000000000000000000000000000000000000
310
00000000000000000000000000000000000000000000000000000000000000000000000000000000000000000000000000000000000000000000000000000000000000000000000000000000000000000000000000000000000000000000000000000000000000000000000000000000000000000000000000000000000000
310
00000000000000000000000000000000000000000000000000000000000000000000000000000000000000000000000000000000000000000000000000000000000000000000000000000000000000000000000000000000000000000000000000000000000000000000000000000000000000000000000000000000000000
310
00000000000000000000000000000000000000000000000000000000000000000000000000000000000000000000000000000000000000000000000000000000000000000000000000000000000000000000000000000000000000000000000000000000000000000000000000000000000000000000000000000000000000
310
00000000000000000000000000000000000000000000000000000000000000000000000000000000000000000000000000000000000000000000000000000000000000000000000000000000000000000000000000000000000000000000000000000000000000000000000000000000000000000000000000000000000000
310
00000000000000000000000000000000000000000000000000000000000000000000000000000000000000000000000000000000000000000000000000000000000000000000000000000000000000000000000000000000000000000000000000000000000000000000000000000000000000000000000000000000000000
310
00000000000000000000000000000000000000000000000000000000000000000000000000000000000000000000000000000000000000000000000000000000000000000000000000000000000000000000000000000000000000000000000000000000000000000000000000000000000000000000000000000000000000
310
00000000000000000000000000000000000000000000000000000000000000000000000000000000000000000000000000000000000000000000000000000000000000000000000000000000000000000000000000000000000000000000000000000000000000000000000000000000000000000000000000000000000000
310
00000000000000000000000000000000000000000000000000000000000000000000000000000000000000000000000000000000000000000000000000000000000000000000000000000000000000000000000000000000000000000000000000000000000000000000000000000000000000000000000000000000000000
310
00000000000000000000000000000000000000000000000000000000000000000000000000000000000000000000000000000000000000000000000000000000000000000000000000000000000000000000000000000000000000000000000000000000000000000000000000000000000000000000000000000000000000
310
00000000000000000000000000000000000000000000000000000000000000000000000000000000000000000000000000000000000000000000000000000000000000000000000000000000000000000000000000000000000000000000000000000000000000000000000000000000000000000000000000000000000000
310
00000000000000000000000000000000000000000000000000000000000000000000000000000000000000000000000000000000000000000000000000000000000000000000000000000000000000000000000000000000000000000000000000000000000000000000000000000000000000000000000000000000000000
310
00000000000000000000000000000000000000000000000000000000000000000000000000000000000000000000000000000000000000000000000000000000000000000000000000000000000000000000000000000000000000000000000000000000000000000000000000000000000000000000000000000000000000
310
00000000000000000000000000000000000000000000000000000000000000000000000000000000000000000000000000000000000000000000000000000000000000000000000000000000000000000000000000000000000000000000000000000000000000000000000000000000000000000000000000000000000000
310
00000000000000000000000000000000000000000000000000000000000000000000000000000000000000000000000000000000000000000000000000000000000000000000000000000000000000000000000000000000000000000000000000000000000000000000000000000000000000000000000000000000000000
310
00000000000000000000000000000000000000000000000000000000000000000000000000000000000000000000000000000000000000000000000000000000000000000000000000000000000000000000000000000000000000000000000000000000000000000000000000000000000000000000000000000000000000
310
00000000000000000000000000000000000000000000000000000000000000000000000000000000000000000000000000000000000000000000000000000000000000000000000000000000000000000000000000000000000000000000000000000000000000000000000000000000000000000000000000000000000000
310
00000000000000000000000000000000000000000000000000000000000000000000000000000000000000000000000000000000000000000000000000000000000000000000000000000000000000000000000000000000000000000000000000000000000000000000000000000000000000000000000000000000000000
310
00000000000000000000000000000000000000000000000000000000000000000000000000000000000000000000000000000000000000000000000000000000000000000000000000000000000000000000000000000000000000000000000000000000000000000000000000000000000000000000000000000000000000
310
00000000000000000000000000000000000000000000000000000000000000000000000000000000000000000000000000000000000000000000000000000000000000000000000000000000000000000000000000000000000000000000000000000000000000000000000000000000000000000000000000000000000000
310
00000000000000000000000000000000000000000000000000000000000000000000000000000000000000000000000000000000000000000000000000000000000000000000000000000000000000000000000000000000000000000000000000000000000000000000000000000000000000000000000000000000000000
310
00000000000000000000000000000000000000000000000000000000000000000000000000000000000000000000000000000000000000000000000000000000000000000000000000000000000000000000000000000000000000000000000000000000000000000000000000000000000000000000000000000000000000
310
00000000000000000000000000000000000000000000000000000000000000000000000000000000000000000000000000000000000000000000000000000000000000000000000000000000000000000000000000000000000000000000000000000000000000000000000000000000000000000000000000000000000000
310
00000000000000000000000000000000000000000000000000000000000000000000000000000000000000000000000000000000000000000000000000000000000000000000000000000000000000000000000000000000000000000000000000000000000000000000000000000000000000000000000000000000000000
310
00000000000000000000000000000000000000000000000000000000000000000000000000000000000000000000000000000000000000000000000000000000000000000000000000000000000000000000000000000000000000000000000000000000000000000000000000000000000000000000000000000000000000
310
00000000000000000000000000000000000000000000000000000000000000000000000000000000000000000000000000000000000000000000000000000000000000000000000000000000000000000000000000000000000000000000000000000000000000000000000000000000000000000000000000000000000000
310
00000000000000000000000000000000000000000000000000000000000000000000000000000000000000000000000000000000000000000000000000000000000000000000000000000000000000000000000000000000000000000000000000000000000000000000000000000000000000000000000000000000000000
310
00000000000000000000000000000000000000000000000000000000000000000000000000000000000000000000000000000000000000000000000000000000000000000000000000000000000000000000000000000000000000000000000000000000000000000000000000000000000000000000000000000000000000
310
00000000000000000000000000000000000000000000000000000000000000000000000000000000000000000000000000000000000000000000000000000000000000000000000000000000000000000000000000000000000000000000000000000000000000000000000000000000000000000000000000000000000000
310
00000000000000000000000000000000000000000000000000000000000000000000000000000000000000000000000000000000000000000000000000000000000000000000000000000000000000000000000000000000000000000000000000000000000000000000000000000000000000000000000000000000000000
310
00000000000000000000000000000000000000000000000000000000000000000000000000000000000000000000000000000000000000000000000000000000000000000000000000000000000000000000000000000000000000000000000000000000000000000000000000000000000000000000000000000000000000
310
00000000000000000000000000000000000000000000000000000000000000000000000000000000000000000000000000000000000000000000000000000000000000000000000000000000000000000000000000000000000000000000000000000000000000000000000000000000000000000000000000000000000000
310
00000000000000000000000000000000000000000000000000000000000000000000000000000000000000000000000000000000000000000000000000000000000000000000000000000000000000000000000000000000000000000000000000000000000000000000000000000000000000000000000000000000000000
310
00000000000000000000000000000000000000000000000000000000000000000000000000000000000000000000000000000000000000000000000000000000000000000000000000000000000000000000000000000000000000000000000000000000000000000000000000000000000000000000000000000000000000
310
00000000000000000000000000000000000000000000000000000000000000000000000000000000000000000000000000000000000000000000000000000000000000000000000000000000000000000000000000000000000000000000000000000000000000000000000000000000000000000000000000000000000000
310
00000000000000000000000000000000000000000000000000000000000000000000000000000000000000000000000000000000000000000000000000000000000000000000000000000000000000000000000000000000000000000000000000000000000000000000000000000000000000000000000000000000000000
310
00000000000000000000000000000000000000000000000000000000000000000000000000000000000000000000000000000000000000000000000000000000000000000000000000000000000000000000000000000000000000000000000000000000000000000000000000000000000000000000000000000000000000
310
00000000000000000000000000000000000000000000000000000000000000000000000000000000000000000000000000000000000000000000000000000000000000000000000000000000000000000000000000000000000000000000000000000000000000000000000000000000000000000000000000000000000000
310
00000000000000000000000000000000000000000000000000000000000000000000000000000000000000000000000000000000000000000000000000000000000000000000000000000000000000000000000000000000000000000000000000000000000000000000000000000000000000000000000000000000000000
310
00000000000000000000000000000000000000000000000000000000000000000000000000000000000000000000000000000000000000000000000000000000000000000000000000000000000000000000000000000000000000000000000000000000000000000000000000000000000000000000000000000000000000
310
00000000000000000000000000000000000000000000000000000000000000000000000000000000000000000000000000000000000000000000000000000000000000000000000000000000000000000000000000000000000000000000000000000000000000000000000000000000000000000000000000000000000000
310
00000000000000000000000000000000000000000000000000000000000000000000000000000000000000000000000000000000000000000000000000000000000000000000000000000000000000000000000000000000000000000000000000000000000000000000000000000000000000000000000000000000000000
310
00000000000000000000000000000000000000000000000000000000000000000000000000000000000000000000000000000000000000000000000000000000000000000000000000000000000000000000000000000000000000000000000000000000000000000000000000000000000000000000000000000000000000
310
00000000000000000000000000000000000000000000000000000000000000000000000000000000000000000000000000000000000000000000000000000000000000000000000000000000000000000000000000000000000000000000000000000000000000000000000000000000000000000000000000000000000000
310
00000000000000000000000000000000000000000000000000000000000000000000000000000000000000000000000000000000000000000000000000000000000000000000000000000000000000000000000000000000000000000000000000000000000000000000000000000000000000000000000000000000000000
310
00000000000000000000000000000000000000000000000000000000000000000000000000000000000000000000000000000000000000000000000000000000000000000000000000000000000000000000000000000000000000000000000000000000000000000000000000000000000000000000000000000000000000
310
00000000000000000000000000000000000000000000000000000000000000000000000000000000000000000000000000000000000000000000000000000000000000000000000000000000000000000000000000000000000000000000000000000000000000000000000000000000000000000000000000000000000000
310
00000000000000000000000000000000000000000000000000000000000000000000000000000000000000000000000000000000000000000000000000000000000000000000000000000000000000000000000000000000000000000000000000000000000000000000000000000000000000000000000000000000000000
310
00000000000000000000000000000000000000000000000000000000000000000000000000000000000000000000000000000000000000000000000000000000000000000000000000000000000000000000000000000000000000000000000000000000000000000000000000000000000000000000000000000000000000
310
00000000000000000000000000000000000000000000000000000000000000000000000000000000000000000000000000000000000000000000000000000000000000000000000000000000000000000000000000000000000000000000000000000000000000000000000000000000000000000000000000000000000000
310
00000000000000000000000000000000000000000000000000000000000000000000000000000000000000000000000000000000000000000000000000000000000000000000000000000000000000000000000000000000000000000000000000000000000000000000000000000000000000000000000000000000000000
310
00000000000000000000000000000000000000000000000000000000000000000000000000000000000000000000000000000000000000000000000000000000000000000000000000000000000000000000000000000000000000000000000000000000000000000000000000000000000000000000000000000000000000
310
00000000000000000000000000000000000000000000000000000000000000000000000000000000000000000000000000000000000000000000000000000000000000000000000000000000000000000000000000000000000000000000000000000000000000000000000000000000000000000000000000000000000000
310
00000000000000000000000000000000000000000000000000000000000000000000000000000000000000000000000000000000000000000000000000000000000000000000000000000000000000000000000000000000000000000000000000000000000000000000000000000000000000000000000000000000000000
310
00000000000000000000000000000000000000000000000000000000000000000000000000000000000000000000000000000000000000000000000000000000000000000000000000000000000000000000000000000000000000000000000000000000000000000000000000000000000000000000000000000000000000
310
00000000000000000000000000000000000000000000000000000000000000000000000000000000000000000000000000000000000000000000000000000000000000000000000000000000000000000000000000000000000000000000000000000000000000000000000000000000000000000000000000000000000000
310
00000000000000000000000000000000000000000000000000000000000000000000000000000000000000000000000000000000000000000000000000000000000000000000000000000000000000000000000000000000000000000000000000000000000000000000000000000000000000000000000000000000000000
310
00000000000000000000000000000000000000000000000000000000000000000000000000000000000000000000000000000000000000000000000000000000000000000000000000000000000000000000000000000000000000000000000000000000000000000000000000000000000000000000000000000000000000
310
00000000000000000000000000000000000000000000000000000000000000000000000000000000000000000000000000000000000000000000000000000000000000000000000000000000000000000000000000000000000000000000000000000000000000000000000000000000000000000000000000000000000000
310
00000000000000000000000000000000000000000000000000000000000000000000000000000000000000000000000000000000000000000000000000000000000000000000000000000000000000000000000000000000000000000000000000000000000000000000000000000000000000000000000000000000000000
310
00000000000000000000000000000000000000000000000000000000000000000000000000000000000000000000000000000000000000000000000000000000000000000000000000000000000000000000000000000000000000000000000000000000000000000000000000000000000000000000000000000000000000
310
00000000000000000000000000000000000000000000000000000000000000000000000000000000000000000000000000000000000000000000000000000000000000000000000000000000000000000000000000000000000000000000000000000000000000000000000000000000000000000000000000000000000000
310
00000000000000000000000000000000000000000000000000000000000000000000000000000000000000000000000000000000000000000000000000000000000000000000000000000000000000000000000000000000000000000000000000000000000000000000000000000000000000000000000000000000000000
310
00000000000000000000000000000000000000000000000000000000000000000000000000000000000000000000000000000000000000000000000000000000000000000000000000000000000000000000000000000000000000000000000000000000000000000000000000000000000000000000000000000000000000
310
00000000000000000000000000000000000000000000000000000000000000000000000000000000000000000000000000000000000000000000000000000000000000000000000000000000000000000000000000000000000000000000000000000000000000000000000000000000000000000000000000000000000000
310
00000000000000000000000000000000000000000000000000000000000000000000000000000000000000000000000000000000000000000000000000000000000000000000000000000000000000000000000000000000000000000000000000000000000000000000000000000000000000000000000000000000000000
310
00000000000000000000000000000000000000000000000000000000000000000000000000000000000000000000000000000000000000000000000000000000000000000000000000000000000000000000000000000000000000000000000000000000000000000000000000000000000000000000000000000000000000
310
00000000000000000000000000000000000000000000000000000000000000000000000000000000000000000000000000000000000000000000000000000000000000000000000000000000000000000000000000000000000000000000000000000000000000000000000000000000000000000000000000000000000000
310
00000000000000000000000000000000000000000000000000000000000000000000000000000000000000000000000000000000000000000000000000000000000000000000000000000000000000000000000000000000000000000000000000000000000000000000000000000000000000000000000000000000000000
310
00000000000000000000000000000000000000000000000000000000000000000000000000000000000000000000000000000000000000000000000000000000000000000000000000000000000000000000000000000000000000000000000000000000000000000000000000000000000000000000000000000000000000
310
00000000000000000000000000000000000000000000000000000000000000000000000000000000000000000000000000000000000000000000000000000000000000000000000000000000000000000000000000000000000000000000000000000000000000000000000000000000000000000000000000000000000000
310
00000000000000000000000000000000000000000000000000000000000000000000000000000000000000000000000000000000000000000000000000000000000000000000000000000000000000000000000000000000000000000000000000000000000000000000000000000000000000000000000000000000000000
310
00000000000000000000000000000000000000000000000000000000000000000000000000000000000000000000000000000000000000000000000000000000000000000000000000000000000000000000000000000000000000000000000000000000000000000000000000000000000000000000000000000000000000
310
00000000000000000000000000000000000000000000000000000000000000000000000000000000000000000000000000000000000000000000000000000000000000000000000000000000000000000000000000000000000000000000000000000000000000000000000000000000000000000000000000000000000000
310
00000000000000000000000000000000000000000000000000000000000000000000000000000000000000000000000000000000000000000000000000000000000000000000000000000000000000000000000000000000000000000000000000000000000000000000000000000000000000000000000000000000000000
310
00000000000000000000000000000000000000000000000000000000000000000000000000000000000000000000000000000000000000000000000000000000000000000000000000000000000000000000000000000000000000000000000000000000000000000000000000000000000000000000000000000000000000
310
00000000000000000000000000000000000000000000000000000000000000000000000000000000000000000000000000000000000000000000000000000000000000000000000000000000000000000000000000000000000000000000000000000000000000000000000000000000000000000000000000000000000000
310
00000000000000000000000000000000000000000000000000000000000000000000000000000000000000000000000000000000000000000000000000000000000000000000000000000000000000000000000000000000000000000000000000000000000000000000000000000000000000000000000000000000000000
310
00000000000000000000000000000000000000000000000000000000000000000000000000000000000000000000000000000000000000000000000000000000000000000000000000000000000000000000000000000000000000000000000000000000000000000000000000000000000000000000000000000000000000
310
00000000000000000000000000000000000000000000000000000000000000000000000000000000000000000000000000000000000000000000000000000000000000000000000000000000000000000000000000000000000000000000000000000000000000000000000000000000000000000000000000000000000000
310
00000000000000000000000000000000000000000000000000000000000000000000000000000000000000000000000000000000000000000000000000000000000000000000000000000000000000000000000000000000000000000000000000000000000000000000000000000000000000000000000000000000000000
310
00000000000000000000000000000000000000000000000000000000000000000000000000000000000000000000000000000000000000000000000000000000000000000000000000000000000000000000000000000000000000000000000000000000000000000000000000000000000000000000000000000000000000
310
00000000000000000000000000000000000000000000000000000000000000000000000000000000000000000000000000000000000000000000000000000000000000000000000000000000000000000000000000000000000000000000000000000000000000000000000000000000000000000000000000000000000000
310
00000000000000000000000000000000000000000000000000000000000000000000000000000000000000000000000000000000000000000000000000000000000000000000000000000000000000000000000000000000000000000000000000000000000000000000000000000000000000000000000000000000000000
310
00000000000000000000000000000000000000000000000000000000000000000000000000000000BEBEBEBEBEBEBEBEBEBEBEBEBEBEBE000000000000000000000000000000000000000000000000000000000000000000000000000000000000000000000000000000000000000000000000000000000000000000000000
310
00000000000000000000000000000000000000000000000000000000000000000000000000000000000000000000000000000000000000000000000000000000000000000000000000000000000000000000000000000000000000000000000000000000000000000000000000000000000000000000000000000000000000
310
000000000000000000000000000000000000000000000000000000000000000000000000000000000000BE0000001B1B001B1B1B1B1B0000BE00000000000000000000000000000000000000000000000000000000000000000000000000000000000000000000000000000000000000000000000000000000000000000000
310
00000000000000000000000000000000000000000000000000000000000000000000000000000000000000000000000000000000000000000000000000000000000000000000000000000000000000000000000000000000000000000000000000000000000000000000000000000000000000000000000000000000000000
310
0000000000000000000000000000000000000000000000000000000000000000000000000000000000000000BE000000F5F51BF5F5F51B1B0000BE0000000000000000000000000000000000000000000000000000000000000000000000000000000000000000000000000000000000000000000000000000000000000000
310
00000000000000000000000000000000000000000000000000000000000000000000000000000000000000000000000000000000000000000000000000000000000000000000000000000000000000000000000000000000000000000000000000000000000000000000000000000000000000000000000000000000000000
310
00000000000000000000000000000000000000000000000000000000000000000000000000000000000000000000BE000000F5F5F5F5F51B00000000BE000000000000000000000000000000000000000000000000000000000000000000000000000000000000000000000000000000000000000000000000000000000000
310
00000000000000000000000000000000000000000000000000000000000000000000000000000000000000000000000000000000000000000000000000000000000000000000000000000000000000000000000000000000000000000000000000000000000000000000000000000000000000000000000000000000000000
310
000000000000000000000000000000000000000000000000000000000000000000000000000000000000000000000000BE0000F5F5F5F5F5F5F51BF50000BE00000000000000000000000000000000000000000000000000000000000000000000000000000000000000000000000000000000000000000000000000000000
310
00000000000000000000000000000000000000000000000000000000000000000000000000000000000000000000000000000000000000000000000000000000000000000000000000000000000000000000000000000000000000000000000000000000000000000000000000000000000000000000000000000000000000
310
0000000000000000000000000000000000000000000000000000000000000000000000000000000000000000000000000000BE0000F5F5F5F5F5F5F51B1B0000BE0000000000000000000000000000000000000000000000000000000000000000000000000000000000000000000000000000000000000000000000000000
310
00000000000000000000000000000000000000000000000000000000000000000000000000000000000000000000000000000000000000000000000000000000000000000000000000000000000000000000000000000000000000000000000000000000000000000000000000000000000000000000000000000000000000
310
00000000000000000000000000000000000000000000000000000000000000000000000000000000000000000000000000000000BE0000F5F5F5F5F51B1B1B1B1B1B1B000000000000000000000000000000000000000000000000000000000000000000000000000000000000000000000000000000000000000000000000
310
00000000000000000000000000000000000000000000000000000000000000000000000000000000000000000000000000000000000000000000000000000000000000000000000000000000000000000000000000000000000000000000000000000000000000000000000000000000000000000000000000000000000000
310
000000000000000000000000000000000000000000000000000000000000000000000000000000000000000000000000000000000000BE000000F5F5F5F5F50000000000BE00000000000000000000000000000000000000000000000000000000000000000000000000000000000000000000000000000000000000000000
310
00000000000000000000000000000000000000000000000000000000000000000000000000000000000000000000000000000000000000000000000000000000000000000000000000000000000000000000000000000000000000000000000000000000000000000000000000000000000000000000000000000000000000
310
0000000000000000000000000000000000000000000000000000000000000000000000000000000000000000000000000000000000000000BE0000000000F51B1B0000000000BE0000000000000000000000000000000000000000000000000000000000000000000000000000000000000000000000000000000000000000
310
00000000000000000000000000000000000000000000000000000000000000000000000000000000000000000000000000000000000000000000000000000000000000000000000000000000000000000000000000000000000000000000000000000000000000000000000000000000000000000000000000000000000000
310
00000000000000000000000000000000000000000000000000000000000000000000000000000000000000000000000000000000000000000000BE00000000000000000000000000BE000000000000000000000000000000000000000000000000000000000000000000000000000000000000000000000000000000000000
310
00000000000000000000000000000000000000000000000000000000000000000000000000000000000000000000000000000000000000000000000000000000000000000000000000000000000000000000000000000000000000000000000000000000000000000000000000000000000000000000000000000000000000
310
000000000000000000000000000000000000000000000000000000000000000000000000000000000000000000000000000000000000000000000000BEBEBEBEBEBEBEBEBEBEBEBEBEBEBE00000000000000000000000000000000000000000000000000000000000000000000000000000000000000000000000000000000
310
00000000000000000000000000000000000000000000000000000000000000000000000000000000000000000000000000000000000000000000000000000000000000000000000000000000000000000000000000000000000000000000000000000000000000000000000000000000000000000000000000000000000000
310
00000000000000000000000000000000000000000000000000000000000000000000000000000000000000000000000000000000000000000000000000000000000000000000000000000000000000000000000000000000000000000000000000000000000000000000000000000000000000000000000000000000000000
310
00000000000000000000000000000000000000000000000000000000000000000000000000000000000000000000000000000000000000000000000000000000000000000000000000000000000000000000000000000000000000000000000000000000000000000000000000000000000000000000000000000000000000
310
00000000000000000000000000000000000000000000000000000000000000000000000000000000000000000000000000000000000000000000000000000000000000000000000000000000000000000000000000000000000000000000000000000000000000000000000000000000000000000000000000000000000000
310
00000000000000000000000000000000000000000000000000000000000000000000000000000000000000000000000000000000000000000000000000000000000000000000000000000000000000000000000000000000000000000000000000000000000000000000000000000000000000000000000000000000000000
310
00000000000000000000000000000000000000000000000000000000000000000000000000000000000000000000000000000000000000000000000000000000000000000000000000000000000000000000000000000000000000000000000000000000000000000000000000000000000000000000000000000000000000
310
00000000000000000000000000000000000000000000000000000000000000000000000000000000000000000000000000000000000000000000000000000000000000000000000000000000000000000000000000000000000000000000000000000000000000000000000000000000000000000000000000000000000000
310
00000000000000000000000000000000000000000000000000000000000000000000000000000000000000000000000000000000000000000000000000000000000000000000000000000000000000000000000000000000000000000000000000000000000000000000000000000000000000000000000000000000000000
310
00000000000000000000000000000000000000000000000000000000000000000000000000000000000000000000000000000000000000000000000000000000000000000000000000000000000000000000000000000000000000000000000000000000000000000000000000000000000000000000000000000000000000
310
00000000000000000000000000000000000000000000000000000000000000000000000000000000000000000000000000000000000000000000000000000000000000000000000000000000000000000000000000000000000000000000000000000000000000000000000000000000000000000000000000000000000000
310
00000000000000000000000000000000000000000000000000000000000000000000000000000000000000000000000000000000000000000000000000000000000000000000000000000000000000000000000000000000000000000000000000000000000000000000000000000000000000000000000000000000000000
310
00000000000000000000000000000000000000000000000000000000000000000000000000000000000000000000000000000000000000000000000000000000000000000000000000000000000000000000000000000000000000000000000000000000000000000000000000000000000000000000000000000000000000
310
00000000000000000000000000000000000000000000000000000000000000000000000000000000000000000000000000000000000000000000000000000000000000000000000000000000000000000000000000000000000000000000000000000000000000000000000000000000000000000000000000000000000000
310
00000000000000000000000000000000000000000000000000000000000000000000000000000000000000000000000000000000000000000000000000000000000000000000000000000000000000000000000000000000000000000000000000000000000000000000000000000000000000000000000000000000000000
310
00000000000000000000000000000000000000000000000000000000000000000000000000000000000000000000000000000000000000000000000000000000000000000000000000000000000000000000000000000000000000000000000000000000000000000000000000000000000000000000000000000000000000
310
00000000000000000000000000000000000000000000000000000000000000000000000000000000000000000000000000000000000000000000000000000000000000000000000000000000000000000000000000000000000000000000000000000000000000000000000000000000000000000000000000000000000000
310
00000000000000000000000000000000000000000000000000000000000000000000000000000000000000000000000000000000000000000000000000000000000000000000000000000000000000000000000000000000000000000000000000000000000000000000000000000000000000000000000000000000000000
310
00000000000000000000000000000000000000000000000000000000000000000000000000000000000000000000000000000000000000000000000000000000000000000000000000000000000000000000000000000000000000000000000000000000000000000000000000000000000000000000000000000000000000
310
00000000000000000000000000000000000000000000000000000000000000000000000000000000000000000000000000000000000000000000000000000000000000000000000000000000000000000000000000000000000000000000000000000000000000000000000000000000000000000000000000000000000000
310
00000000000000000000000000000000000000000000000000000000000000000000000000000000000000000000000000000000000000000000000000000000000000000000000000000000000000000000000000000000000000000000000000000000000000000000000000000000000000000000000000000000000000
310
00000000000000000000000000000000000000000000000000000000000000000000000000000000000000000000000000000000000000000000000000000000000000000000000000000000000000000000000000000000000000000000000000000000000000000000000000000000000000000000000000000000000000
310
00000000000000000000000000000000000000000000000000000000000000000000000000000000000000000000000000000000000000000000000000000000000000000000000000000000000000000000000000000000000000000000000000000000000000000000000000000000000000000000000000000000000000
310
00000000000000000000000000000000000000000000000000000000000000000000000000000000000000000000000000000000000000000000000000000000000000000000000000000000000000000000000000000000000000000000000000000000000000000000000000000000000000000000000000000000000000
310
00000000000000000000000000000000000000000000000000000000000000000000000000000000000000000000000000000000000000000000000000000000000000000000000000000000000000000000000000000000000000000000000000000000000000000000000000000000000000000000000000000000000000
310
00000000000000000000000000000000000000000000000000000000000000000000000000000000000000000000000000000000000000000000000000000000000000000000000000000000000000000000000000000000000000000000000000000000000000000000000000000000000000000000000000000000000000
310
00000000000000000000000000000000000000000000000000000000000000000000000000000000000000000000000000000000000000000000000000000000000000000000000000000000000000000000000000000000000000000000000000000000000000000000000000000000000000000000000000000000000000
310
00000000000000000000000000000000000000000000000000000000000000000000000000000000000000000000000000000000000000000000000000000000000000000000000000000000000000000000000000000000000000000000000000000000000000000000000000000000000000000000000000000000000000
310
00000000000000000000000000000000000000000000000000000000000000000000000000000000000000000000000000000000000000000000000000000000000000000000000000000000000000000000000000000000000000000000000000000000000000000000000000000000000000000000000000000000000000
310
00000000000000000000000000000000000000000000000000000000000000000000000000000000000000000000000000000000000000000000000000000000000000000000000000000000000000000000000000000000000000000000000000000000000000000000000000000000000000000000000000000000000000
310
00000000000000000000000000000000000000000000000000000000000000000000000000000000000000000000000000000000000000000000000000000000000000000000000000000000000000000000000000000000000000000000000000000000000000000000000000000000000000000000000000000000000000
310
00000000000000000000000000000000000000000000000000000000000000000000000000000000000000000000000000000000000000000000000000000000000000000000000000000000000000000000000000000000000000000000000000000000000000000000000000000000000000000000000000000000000000
310
00000000000000000000000000000000000000000000000000000000000000000000000000000000000000000000000000000000000000000000000000000000000000000000000000000000000000000000000000000000000000000000000000000000000000000000000000000000000000000000000000000000000000
310
00000000000000000000000000000000000000000000000000000000000000000000000000000000000000000000000000000000000000000000000000000000000000000000000000000000000000000000000000000000000000000000000000000000000000000000000000000000000000000000000000000000000000
310
00000000000000000000000000000000000000000000000000000000000000000000000000000000000000000000000000000000000000000000000000000000000000000000000000000000000000000000000000000000000000000000000000000000000000000000000000000000000000000000000000000000000000
310
00000000000000000000000000000000000000000000000000000000000000000000000000000000000000000000000000000000000000000000000000000000000000000000000000000000000000000000000000000000000000000000000000000000000000000000000000000000000000000000000000000000000000
310
00000000000000000000000000000000000000000000000000000000000000000000000000000000000000000000000000000000000000000000000000000000000000000000000000000000000000000000000000000000000000000000000000000000000000000000000000000000000000000000000000000000000000
310
00000000000000000000000000000000000000000000000000000000000000000000000000000000000000000000000000000000000000000000000000000000000000000000000000000000000000000000000000000000000000000000000000000000000000000000000000000000000000000000000000000000000000
310
00000000000000000000000000000000000000000000000000000000000000000000000000000000000000000000000000000000000000000000000000000000000000000000000000000000000000000000000000000000000000000000000000000000000000000000000000000000000000000000000000000000000000
310
00000000000000000000000000000000000000000000000000000000000000000000000000000000000000000000000000000000000000000000000000000000000000000000000000000000000000000000000000000000000000000000000000000000000000000000000000000000000000000000000000000000000000
310
00000000000000000000000000000000000000000000000000000000000000000000000000000000000000000000000000000000000000000000000000000000000000000000000000000000000000000000000000000000000000000000000000000000000000000000000000000000000000000000000000000000000000
310
00000000000000000000000000000000000000000000000000000000000000000000000000000000000000000000000000000000000000000000000000000000000000000000000000000000000000000000000000000000000000000000000000000000000000000000000000000000000000000000000000000000000000
310
00000000000000000000000000000000000000000000000000000000000000000000000000000000000000000000000000000000000000000000000000000000000000000000000000000000000000000000000000000000000000000000000000000000000000000000000000000000000000000000000000000000000000
310
00000000000000000000000000000000000000000000000000000000000000000000000000000000000000000000000000000000000000000000000000000000000000000000000000000000000000000000000000000000000000000000000000000000000000000000000000000000000000000000000000000000000000
310
00000000000000000000000000000000000000000000000000000000000000000000000000000000000000000000000000000000000000000000000000000000000000000000000000000000000000000000000000000000000000000000000000000000000000000000000000000000000000000000000000000000000000
310
00000000000000000000000000000000000000000000000000000000000000000000000000000000000000000000000000000000000000000000000000000000000000000000000000000000000000000000000000000000000000000000000000000000000000000000000000000000000000000000000000000000000000
310
00000000000000000000000000000000000000000000000000000000000000000000000000000000000000000000000000000000000000000000000000000000000000000000000000000000000000000000000000000000000000000000000000000000000000000000000000000000000000000000000000000000000000
310
00000000000000000000000000000000000000000000000000000000000000000000000000000000000000000000000000000000000000000000000000000000000000000000000000000000000000000000000000000000000000000000000000000000000000000000000000000000000000000000000000000000000000
310
00000000000000000000000000000000000000000000000000000000000000000000000000000000000000000000000000000000000000000000000000000000000000000000000000000000000000000000000000000000000000000000000000000000000000000000000000000000000000000000000000000000000000
310
00000000000000000000000000000000000000000000000000000000000000000000000000000000000000000000000000000000000000000000000000000000000000000000000000000000000000000000000000000000000000000000000000000000000000000000000000000000000000000000000000000000000000
310
00000000000000000000000000000000000000000000000000000000000000000000000000000000000000000000000000000000000000000000000000000000000000000000000000000000000000000000000000000000000000000000000000000000000000000000000000000000000000000000000000000000000000
310
00000000000000000000000000000000000000000000000000000000000000000000000000000000000000000000000000000000000000000000000000000000000000000000000000000000000000000000000000000000000000000000000000000000000000000000000000000000000000000000000000000000000000
310
00000000000000000000000000000000000000000000000000000000000000000000000000000000000000000000000000000000000000000000000000000000000000000000000000000000000000000000000000000000000000000000000000000000000000000000000000000000000000000000000000000000000000
310
00000000000000000000000000000000000000000000000000000000000000000000000000000000000000000000000000000000000000000000000000000000000000000000000000000000000000000000000000000000000000000000000000000000000000000000000000000000000000000000000000000000000000
310
00000000000000000000000000000000000000000000000000000000000000000000000000000000000000000000000000000000000000000000000000000000000000000000000000000000000000000000000000000000000000000000000000000000000000000000000000000000000000000000000000000000000000
310
00000000000000000000000000000000000000000000000000000000000000000000000000000000000000000000000000000000000000000000000000000000000000000000000000000000000000000000000000000000000000000000000000000000000000000000000000000000000000000000000000000000000000
310
00000000000000000000000000000000000000000000000000000000000000000000000000000000000000000000000000000000000000000000000000000000000000000000000000000000000000000000000000000000000000000000000000000000000000000000000000000000000000000000000000000000000000
310
00000000000000000000000000000000000000000000000000000000000000000000000000000000000000000000000000000000000000000000000000000000000000000000000000000000000000000000000000000000000000000000000000000000000000000000000000000000000000000000000000000000000000
310
00000000000000000000000000000000000000000000000000000000000000000000000000000000000000000000000000000000000000000000000000000000000000000000000000000000000000000000000000000000000000000000000000000000000000000000000000000000000000000000000000000000000000
310
00000000000000000000000000000000000000000000000000000000000000000000000000000000000000000000000000000000000000000000000000000000000000000000000000000000000000000000000000000000000000000000000000000000000000000000000000000000000000000000000000000000000000
310
00000000000000000000000000000000000000000000000000000000000000000000000000000000000000000000000000000000000000000000000000000000000000000000000000000000000000000000000000000000000000000000000000000000000000000000000000000000000000000000000000000000000000
310
00000000000000000000000000000000000000000000000000000000000000000000000000000000000000000000000000000000000000000000000000000000000000000000000000000000000000000000000000000000000000000000000000000000000000000000000000000000000000000000000000000000000000
310
00000000000000000000000000000000000000000000000000000000000000000000000000000000000000000000000000000000000000000000000000000000000000000000000000000000000000000000000000000000000000000000000000000000000000000000000000000000000000000000000000000000000000
310
00000000000000000000000000000000000000000000000000000000000000000000000000000000000000000000000000000000000000000000000000000000000000000000000000000000000000000000000000000000000000000000000000000000000000000000000000000000000000000000000000000000000000
310
00000000000000000000000000000000000000000000000000000000000000000000000000000000000000000000000000000000000000000000000000000000000000000000000000000000000000000000000000000000000000000000000000000000000000000000000000000000000000000000000000000000000000
310
00000000000000000000000000000000000000000000000000000000000000000000000000000000000000000000000000000000000000000000000000000000000000000000000000000000000000000000000000000000000000000000000000000000000000000000000000000000000000000000000000000000000000
310
00000000000000000000000000000000000000000000000000000000000000000000000000000000000000000000000000000000000000000000000000000000000000000000000000000000000000000000000000000000000000000000000000000000000000000000000000000000000000000000000000000000000000
310
00000000000000000000000000000000000000000000000000000000000000000000000000000000000000000000000000000000000000000000000000000000000000000000000000000000000000000000000000000000000000000000000000000000000000000000000000000000000000000000000000000000000000
310
00000000000000000000000000000000000000000000000000000000000000000000000000000000000000000000000000000000000000000000000000000000000000000000000000000000000000000000000000000000000000000000000000000000000000000000000000000000000000000000000000000000000000
310
00000000000000000000000000000000000000000000000000000000000000000000000000000000000000000000000000000000000000000000000000000000000000000000000000000000000000000000000000000000000000000000000000000000000000000000000000000000000000000000000000000000000000
310
00000000000000000000000000000000000000000000000000000000000000000000000000000000000000000000000000000000000000000000000000000000000000000000000000000000000000000000000000000000000000000000000000000000000000000000000000000000000000000000000000000000000000
310
00000000000000000000000000000000000000000000000000000000000000000000000000000000000000000000000000000000000000000000000000000000000000000000000000000000000000000000000000000000000000000000000000000000000000000000000000000000000000000000000000000000000000
310
00000000000000000000000000000000000000000000000000000000000000000000000000000000000000000000000000000000000000000000000000000000000000000000000000000000000000000000000000000000000000000000000000000000000000000000000000000000000000000000000000000000000000
310
00000000000000000000000000000000000000000000000000000000000000000000000000000000000000000000000000000000000000000000000000000000000000000000000000000000000000000000000000000000000000000000000000000000000000000000000000000000000000000000000000000000000000
310
00000000000000000000000000000000000000000000000000000000000000000000000000000000000000000000000000000000000000000000000000000000000000000000000000000000000000000000000000000000000000000000000000000000000000000000000000000000000000000000000000000000000000
310
00000000000000000000000000000000000000000000000000000000000000000000000000000000000000000000000000000000000000000000000000000000000000000000000000000000000000000000000000000000000000000000000000000000000000000000000000000000000000000000000000000000000000
310
00000000000000000000000000000000000000000000000000000000000000000000000000000000000000000000000000000000000000000000000000000000000000000000000000000000000000000000000000000000000000000000000000000000000000000000000000000000000000000000000000000000000000
310
00000000000000000000000000000000000000000000000000000000000000000000000000000000000000000000000000000000000000000000000000000000000000000000000000000000000000000000000000000000000000000000000000000000000000000000000000000000000000000000000000000000000000
310
00000000000000000000000000000000000000000000000000000000000000000000000000000000000000000000000000000000000000000000000000000000000000000000000000000000000000000000000000000000000000000000000000000000000000000000000000000000000000000000000000000000000000
310
00000000000000000000000000000000000000000000000000000000000000000000000000000000000000000000000000000000000000000000000000000000000000000000000000000000000000000000000000000000000000000000000000000000000000000000000000000000000000000000000000000000000000
310
00000000000000000000000000000000000000000000000000000000000000000000000000000000000000000000000000000000000000000000000000000000000000000000000000000000000000000000000000000000000000000000000000000000000000000000000000000000000000000000000000000000000000
310
00000000000000000000000000000000000000000000000000000000000000000000000000000000000000000000000000000000000000000000000000000000000000000000000000000000000000000000000000000000000000000000000000000000000000000000000000000000000000000000000000000000000000
310
00000000000000000000000000000000000000000000000000000000000000000000000000000000000000000000000000000000000000000000000000000000000000000000000000000000000000000000000000000000000000000000000000000000000000000000000000000000000000000000000000000000000000
310
00000000000000000000000000000000000000000000000000000000000000000000000000000000000000000000000000000000000000000000000000000000000000000000000000000000000000000000000000000000000000000000000000000000000000000000000000000000000000000000000000000000000000
310
00000000000000000000000000000000000000000000000000000000000000000000000000000000000000000000000000000000000000000000000000000000000000000000000000000000000000000000000000000000000000000000000000000000000000000000000000000000000000000000000000000000000000
310
00000000000000000000000000000000000000000000000000000000000000000000000000000000000000000000000000000000000000000000000000000000000000000000000000000000000000000000000000000000000000000000000000000000000000000000000000000000000000000000000000
  0
XRECORD
  5
1886B
102
{ACAD_REACTORS
330
1886A
102
}
330
1886A
100
AcDbXrecord
280
     1
102
MATERIAL
148
0.0
149
0.0
149
0.0
 93
        0
 94
       63
282
     0
 72
     1
 77
     1
171
     1
175
     1
179
     1
273
     0
  0
XRECORD
  5
1886D
102
{ACAD_REACTORS
330
1886C
102
}
330
1886C
100
AcDbXrecord
280
     1
102
MATERIAL
148
0.0
149
0.0
149
0.0
 93
        0
 94
       63
282
     0
 72
     1
 77
     1
171
     1
175
     1
179
     1
273
     0
  0
XRECORD
  5
1886F
102
{ACAD_REACTORS
330
1886E
102
}
330
1886E
100
AcDbXrecord
280
     1
102
MATERIAL
148
0.0
149
0.0
149
0.0
 93
        0
 94
       63
282
     0
 72
     1
 77
     1
171
     1
175
     1
179
     1
273
     0
  0
XRECORD
  5
18871
102
{ACAD_REACTORS
330
18870
102
}
330
18870
100
AcDbXrecord
280
     1
102
ACAD_ROUNDTRIP_2010_MLEADER_STYLE
  0
XRECORD
  5
18872
102
{ACAD_REACTORS
330
18802
102
}
330
18802
100
AcDbXrecord
280
     1
102
DISPLAYNAME
  1
Imperial24
102
FLAGS
 90
        0
  0
XRECORD
  5
18873
102
{ACAD_REACTORS
330
187FE
102
}
330
187FE
100
AcDbXrecord
280
     1
102
DISPLAYNAME
  1
Metric50
102
FLAGS
 90
        0
  0
XRECORD
  5
18875
102
{ACAD_REACTORS
330
18874
102
}
330
18874
100
AcDbXrecord
280
     1
102
RTVSPropertyOp0
 70
     1
102
RTVSPropertyOp1
 70
     1
102
RTVSPropertyOp2
 70
     1
102
RTVSPropertyOp3
 70
     1
102
RTVSPropertyOp4
 70
     1
102
RTVSPropertyOp5
 70
     1
102
RTVSPropertyOp6
 70
     1
102
RTVSPropertyOp7
 70
     1
102
RTVSPropertyOp8
 70
     1
102
RTVSPropertyOp9
 70
     1
102
RTVSPropertyOp10
 70
     1
102
RTVSPropertyOp11
 70
     1
102
RTVSPropertyOp12
 70
     1
102
RTVSPropertyOp13
 70
     1
102
RTVSPropertyOp14
 70
     1
102
RTVSPropertyOp15
 70
     1
102
RTVSPropertyOp16
 70
     1
102
RTVSPropertyOp17
 70
     1
102
RTVSPropertyOp18
 70
     1
102
RTVSPropertyOp19
 70
     1
102
RTVSPropertyOp20
 70
     1
102
RTVSPropertyOp21
 70
     1
102
RTVSPropertyOp22
 70
     1
102
RTVSPropertyOp23
 70
     1
102
RTVSPropertyOp24
 70
     1
102
RTVSPropertyOp25
 70
     1
102
RTVSPropertyOp26
 70
     1
102
RTVSPropertyOp27
 70
     1
102
RTVSPropertyOp28
 70
     1
102
RTVSPropertyOp29
 70
     1
102
RTVSPropertyOp30
 70
     1
102
RTVSPropertyOp31
 70
     1
102
RTVSPropertyOp32
 70
     1
102
RTVSPropertyOp33
 70
     1
102
RTVSPropertyOp34
 70
     1
102
RTVSPropertyOp35
 70
     1
102
RTVSPropertyOp36
 70
     1
102
RTVSPropertyOp37
 70
     1
102
RTVSPropertyOp38
 70
     1
102
RTVSPropertyOp39
 70
     1
102
RTVSPropertyOp40
 70
     1
102
RTVSPropertyOp41
 70
     1
102
RTVSPropertyOp42
 70
     1
102
RTVSPropertyOp43
 70
     1
102
RTVSPropertyOp44
 70
     1
102
RTVSPropertyOp45
 70
     1
102
RTVSPropertyOp46
 70
     1
102
RTVSPropertyOp47
 70
     1
102
RTVSPropertyOp48
 70
     1
102
RTVSPropertyOp49
 70
     1
102
RTVSPropertyOp50
 70
     1
102
RTVSPropertyOp51
 70
     0
102
RTVSPropertyOp52
 70
     0
102
RTVSPropertyOp53
 70
     1
102
RTVSPropertyOp54
 70
     1
102
RTVSPropertyOp55
 70
     1
102
RTVSPropertyOp56
 70
     1
102
RTVSPropertyOp57
 70
     1
102
RTVSPost2010Prop28
280
     1
102
RTVSPost2010PropOp28
 70
     1
102
RTVSPost2010Prop29
280
     1
102
RTVSPost2010PropOp29
 70
     1
102
RTVSPost2010Prop30
280
     0
102
RTVSPost2010PropOp30
 70
     1
102
RTVSPost2010Prop31
280
     0
102
RTVSPost2010PropOp31
 70
     1
102
RTVSPost2010Prop32
280
     0
102
RTVSPost2010PropOp32
 70
     1
102
RTVSPost2010Prop33
280
     0
102
RTVSPost2010PropOp33
 70
     1
102
RTVSPost2010Prop34
280
     0
102
RTVSPost2010PropOp34
 70
     1
102
RTVSPost2010Prop35
280
     0
102
RTVSPost2010PropOp35
 70
     1
102
RTVSPost2010Prop36
280
     0
102
RTVSPost2010PropOp36
 70
     1
102
RTVSPost2010Prop37
 90
       50
102
RTVSPost2010PropOp37
 70
     1
102
RTVSPost2010Prop38
140
0.0
102
RTVSPost2010PropOp38
 70
     1
102
RTVSPost2010Prop39
140
1.0
102
RTVSPost2010PropOp39
 70
     1
102
RTVSPost2010Prop40
 90
        0
102
RTVSPost2010PropOp40
 70
     1
102
RTVSPost2010Prop41ColorIndex
 90
       18
102
RTVSPost2010Prop41ColorRGB
 90
        0
102
RTVSPost2010PropOp41
 70
     1
102
RTVSPost2010Prop42
 90
       50
102
RTVSPost2010PropOp42
 70
     1
102
RTVSPost2010Prop43
 90
        3
102
RTVSPost2010PropOp43
 70
     1
102
RTVSPost2010Prop44ColorIndex
 90
        5
102
RTVSPost2010Prop44ColorRGB
 90
      255
102
RTVSPost2010PropOp44
 70
     1
102
RTVSPost2010Prop45
280
     0
102
RTVSPost2010PropOp45
 70
     1
102
RTVSPost2010Prop46
 90
       50
102
RTVSPost2010PropOp46
 70
     1
102
RTVSPost2010Prop47
 90
       50
102
RTVSPost2010PropOp47
 70
     1
102
RTVSPost2010Prop48
 90
       50
102
RTVSPost2010PropOp48
 70
     1
102
RTVSPost2010Prop49
280
     0
102
RTVSPost2010PropOp49
 70
     1
102
RTVSPost2010Prop50
 90
       50
102
RTVSPost2010PropOp50
 70
     1
102
RTVSPost2010Prop51ColorIndex
 90
      256
102
RTVSPost2010Prop51ColorRGB
 90
-16777216
102
RTVSPost2010PropOp51
 70
     0
102
RTVSPost2010Prop52
140
1.0
102
RTVSPost2010PropOp52
 70
     0
102
RTVSPost2010Prop53
 90
        2
102
RTVSPost2010PropOp53
 70
     1
102
RTVSPost2010Prop54
  1
strokes_ogs.tif
102
RTVSPost2010PropOp54
 70
     1
102
RTVSPost2010Prop55
280
     0
102
RTVSPost2010PropOp55
 70
     1
102
RTVSPost2010Prop56
140
1.0
102
RTVSPost2010PropOp56
 70
     1
102
RTVSPost2010Prop57
140
1.0
102
RTVSPost2010PropOp57
 70
     1
  0
XRECORD
  5
18877
102
{ACAD_REACTORS
330
18876
102
}
330
18876
100
AcDbXrecord
280
     1
102
RTVSPropertyOp0
 70
     1
102
RTVSPropertyOp1
 70
     1
102
RTVSPropertyOp2
 70
     1
102
RTVSPropertyOp3
 70
     1
102
RTVSPropertyOp4
 70
     1
102
RTVSPropertyOp5
 70
     1
102
RTVSPropertyOp6
 70
     1
102
RTVSPropertyOp7
 70
     1
102
RTVSPropertyOp8
 70
     1
102
RTVSPropertyOp9
 70
     1
102
RTVSPropertyOp10
 70
     1
102
RTVSPropertyOp11
 70
     1
102
RTVSPropertyOp12
 70
     1
102
RTVSPropertyOp13
 70
     1
102
RTVSPropertyOp14
 70
     1
102
RTVSPropertyOp15
 70
     1
102
RTVSPropertyOp16
 70
     1
102
RTVSPropertyOp17
 70
     1
102
RTVSPropertyOp18
 70
     1
102
RTVSPropertyOp19
 70
     1
102
RTVSPropertyOp20
 70
     1
102
RTVSPropertyOp21
 70
     1
102
RTVSPropertyOp22
 70
     1
102
RTVSPropertyOp23
 70
     1
102
RTVSPropertyOp24
 70
     1
102
RTVSPropertyOp25
 70
     1
102
RTVSPropertyOp26
 70
     1
102
RTVSPropertyOp27
 70
     1
102
RTVSPropertyOp28
 70
     1
102
RTVSPropertyOp29
 70
     1
102
RTVSPropertyOp30
 70
     1
102
RTVSPropertyOp31
 70
     1
102
RTVSPropertyOp32
 70
     1
102
RTVSPropertyOp33
 70
     1
102
RTVSPropertyOp34
 70
     1
102
RTVSPropertyOp35
 70
     1
102
RTVSPropertyOp36
 70
     1
102
RTVSPropertyOp37
 70
     1
102
RTVSPropertyOp38
 70
     1
102
RTVSPropertyOp39
 70
     1
102
RTVSPropertyOp40
 70
     1
102
RTVSPropertyOp41
 70
     1
102
RTVSPropertyOp42
 70
     1
102
RTVSPropertyOp43
 70
     1
102
RTVSPropertyOp44
 70
     1
102
RTVSPropertyOp45
 70
     1
102
RTVSPropertyOp46
 70
     1
102
RTVSPropertyOp47
 70
     1
102
RTVSPropertyOp48
 70
     1
102
RTVSPropertyOp49
 70
     1
102
RTVSPropertyOp50
 70
     1
102
RTVSPropertyOp51
 70
     0
102
RTVSPropertyOp52
 70
     0
102
RTVSPropertyOp53
 70
     1
102
RTVSPropertyOp54
 70
     1
102
RTVSPropertyOp55
 70
     1
102
RTVSPropertyOp56
 70
     1
102
RTVSPropertyOp57
 70
     1
102
RTVSPost2010Prop28
280
     0
102
RTVSPost2010PropOp28
 70
     1
102
RTVSPost2010Prop29
280
     1
102
RTVSPost2010PropOp29
 70
     1
102
RTVSPost2010Prop30
280
     1
102
RTVSPost2010PropOp30
 70
     1
102
RTVSPost2010Prop31
280
     0
102
RTVSPost2010PropOp31
 70
     1
102
RTVSPost2010Prop32
280
     0
102
RTVSPost2010PropOp32
 70
     1
102
RTVSPost2010Prop33
280
     0
102
RTVSPost2010PropOp33
 70
     1
102
RTVSPost2010Prop34
280
     0
102
RTVSPost2010PropOp34
 70
     1
102
RTVSPost2010Prop35
280
     0
102
RTVSPost2010PropOp35
 70
     1
102
RTVSPost2010Prop36
280
     0
102
RTVSPost2010PropOp36
 70
     1
102
RTVSPost2010Prop37
 90
       50
102
RTVSPost2010PropOp37
 70
     1
102
RTVSPost2010Prop38
140
0.0
102
RTVSPost2010PropOp38
 70
     1
102
RTVSPost2010Prop39
140
1.0
102
RTVSPost2010PropOp39
 70
     1
102
RTVSPost2010Prop40
 90
        0
102
RTVSPost2010PropOp40
 70
     1
102
RTVSPost2010Prop41ColorIndex
 90
       18
102
RTVSPost2010Prop41ColorRGB
 90
        0
102
RTVSPost2010PropOp41
 70
     1
102
RTVSPost2010Prop42
 90
       50
102
RTVSPost2010PropOp42
 70
     1
102
RTVSPost2010Prop43
 90
        3
102
RTVSPost2010PropOp43
 70
     1
102
RTVSPost2010Prop44ColorIndex
 90
        5
102
RTVSPost2010Prop44ColorRGB
 90
      255
102
RTVSPost2010PropOp44
 70
     1
102
RTVSPost2010Prop45
280
     0
102
RTVSPost2010PropOp45
 70
     1
102
RTVSPost2010Prop46
 90
       50
102
RTVSPost2010PropOp46
 70
     1
102
RTVSPost2010Prop47
 90
       50
102
RTVSPost2010PropOp47
 70
     1
102
RTVSPost2010Prop48
 90
       50
102
RTVSPost2010PropOp48
 70
     1
102
RTVSPost2010Prop49
280
     0
102
RTVSPost2010PropOp49
 70
     1
102
RTVSPost2010Prop50
 90
       50
102
RTVSPost2010PropOp50
 70
     1
102
RTVSPost2010Prop51ColorIndex
 90
      256
102
RTVSPost2010Prop51ColorRGB
 90
-16777216
102
RTVSPost2010PropOp51
 70
     0
102
RTVSPost2010Prop52
140
1.0
102
RTVSPost2010PropOp52
 70
     0
102
RTVSPost2010Prop53
 90
        2
102
RTVSPost2010PropOp53
 70
     1
102
RTVSPost2010Prop54
  1
strokes_ogs.tif
102
RTVSPost2010PropOp54
 70
     1
102
RTVSPost2010Prop55
280
     0
102
RTVSPost2010PropOp55
 70
     1
102
RTVSPost2010Prop56
140
1.0
102
RTVSPost2010PropOp56
 70
     1
102
RTVSPost2010Prop57
140
1.0
102
RTVSPost2010PropOp57
 70
     1
  0
XRECORD
  5
18879
102
{ACAD_REACTORS
330
18878
102
}
330
18878
100
AcDbXrecord
280
     1
102
RTVSPropertyOp0
 70
     1
102
RTVSPropertyOp1
 70
     1
102
RTVSPropertyOp2
 70
     1
102
RTVSPropertyOp3
 70
     1
102
RTVSPropertyOp4
 70
     1
102
RTVSPropertyOp5
 70
     1
102
RTVSPropertyOp6
 70
     1
102
RTVSPropertyOp7
 70
     1
102
RTVSPropertyOp8
 70
     1
102
RTVSPropertyOp9
 70
     1
102
RTVSPropertyOp10
 70
     1
102
RTVSPropertyOp11
 70
     1
102
RTVSPropertyOp12
 70
     1
102
RTVSPropertyOp13
 70
     1
102
RTVSPropertyOp14
 70
     1
102
RTVSPropertyOp15
 70
     1
102
RTVSPropertyOp16
 70
     1
102
RTVSPropertyOp17
 70
     1
102
RTVSPropertyOp18
 70
     1
102
RTVSPropertyOp19
 70
     1
102
RTVSPropertyOp20
 70
     1
102
RTVSPropertyOp21
 70
     1
102
RTVSPropertyOp22
 70
     1
102
RTVSPropertyOp23
 70
     1
102
RTVSPropertyOp24
 70
     1
102
RTVSPropertyOp25
 70
     1
102
RTVSPropertyOp26
 70
     1
102
RTVSPropertyOp27
 70
     1
102
RTVSPropertyOp28
 70
     1
102
RTVSPropertyOp29
 70
     1
102
RTVSPropertyOp30
 70
     1
102
RTVSPropertyOp31
 70
     1
102
RTVSPropertyOp32
 70
     1
102
RTVSPropertyOp33
 70
     1
102
RTVSPropertyOp34
 70
     1
102
RTVSPropertyOp35
 70
     1
102
RTVSPropertyOp36
 70
     1
102
RTVSPropertyOp37
 70
     1
102
RTVSPropertyOp38
 70
     1
102
RTVSPropertyOp39
 70
     1
102
RTVSPropertyOp40
 70
     1
102
RTVSPropertyOp41
 70
     1
102
RTVSPropertyOp42
 70
     1
102
RTVSPropertyOp43
 70
     1
102
RTVSPropertyOp44
 70
     1
102
RTVSPropertyOp45
 70
     1
102
RTVSPropertyOp46
 70
     1
102
RTVSPropertyOp47
 70
     1
102
RTVSPropertyOp48
 70
     1
102
RTVSPropertyOp49
 70
     1
102
RTVSPropertyOp50
 70
     1
102
RTVSPropertyOp51
 70
     0
102
RTVSPropertyOp52
 70
     0
102
RTVSPropertyOp53
 70
     1
102
RTVSPropertyOp54
 70
     1
102
RTVSPropertyOp55
 70
     1
102
RTVSPropertyOp56
 70
     1
102
RTVSPropertyOp57
 70
     1
102
RTVSPost2010Prop28
280
     0
102
RTVSPost2010PropOp28
 70
     1
102
RTVSPost2010Prop29
280
     1
102
RTVSPost2010PropOp29
 70
     1
102
RTVSPost2010Prop30
280
     1
102
RTVSPost2010PropOp30
 70
     1
102
RTVSPost2010Prop31
280
     0
102
RTVSPost2010PropOp31
 70
     1
102
RTVSPost2010Prop32
280
     0
102
RTVSPost2010PropOp32
 70
     1
102
RTVSPost2010Prop33
280
     0
102
RTVSPost2010PropOp33
 70
     1
102
RTVSPost2010Prop34
280
     0
102
RTVSPost2010PropOp34
 70
     1
102
RTVSPost2010Prop35
280
     0
102
RTVSPost2010PropOp35
 70
     1
102
RTVSPost2010Prop36
280
     0
102
RTVSPost2010PropOp36
 70
     1
102
RTVSPost2010Prop37
 90
       50
102
RTVSPost2010PropOp37
 70
     1
102
RTVSPost2010Prop38
140
0.0
102
RTVSPost2010PropOp38
 70
     1
102
RTVSPost2010Prop39
140
1.0
102
RTVSPost2010PropOp39
 70
     1
102
RTVSPost2010Prop40
 90
        0
102
RTVSPost2010PropOp40
 70
     1
102
RTVSPost2010Prop41ColorIndex
 90
       18
102
RTVSPost2010Prop41ColorRGB
 90
        0
102
RTVSPost2010PropOp41
 70
     1
102
RTVSPost2010Prop42
 90
       50
102
RTVSPost2010PropOp42
 70
     1
102
RTVSPost2010Prop43
 90
        3
102
RTVSPost2010PropOp43
 70
     1
102
RTVSPost2010Prop44ColorIndex
 90
        5
102
RTVSPost2010Prop44ColorRGB
 90
      255
102
RTVSPost2010PropOp44
 70
     1
102
RTVSPost2010Prop45
280
     0
102
RTVSPost2010PropOp45
 70
     1
102
RTVSPost2010Prop46
 90
       50
102
RTVSPost2010PropOp46
 70
     1
102
RTVSPost2010Prop47
 90
       50
102
RTVSPost2010PropOp47
 70
     1
102
RTVSPost2010Prop48
 90
       50
102
RTVSPost2010PropOp48
 70
     1
102
RTVSPost2010Prop49
280
     0
102
RTVSPost2010PropOp49
 70
     1
102
RTVSPost2010Prop50
 90
       50
102
RTVSPost2010PropOp50
 70
     1
102
RTVSPost2010Prop51ColorIndex
 90
      256
102
RTVSPost2010Prop51ColorRGB
 90
-16777216
102
RTVSPost2010PropOp51
 70
     0
102
RTVSPost2010Prop52
140
1.0
102
RTVSPost2010PropOp52
 70
     0
102
RTVSPost2010Prop53
 90
        2
102
RTVSPost2010PropOp53
 70
     1
102
RTVSPost2010Prop54
  1
strokes_ogs.tif
102
RTVSPost2010PropOp54
 70
     1
102
RTVSPost2010Prop55
280
     0
102
RTVSPost2010PropOp55
 70
     1
102
RTVSPost2010Prop56
140
1.0
102
RTVSPost2010PropOp56
 70
     1
102
RTVSPost2010Prop57
140
1.0
102
RTVSPost2010PropOp57
 70
     1
  0
XRECORD
  5
1887B
102
{ACAD_REACTORS
330
1887A
102
}
330
1887A
100
AcDbXrecord
280
     1
102
RTVSPropertyOp0
 70
     1
102
RTVSPropertyOp1
 70
     1
102
RTVSPropertyOp2
 70
     1
102
RTVSPropertyOp3
 70
     1
102
RTVSPropertyOp4
 70
     1
102
RTVSPropertyOp5
 70
     1
102
RTVSPropertyOp6
 70
     1
102
RTVSPropertyOp7
 70
     1
102
RTVSPropertyOp8
 70
     1
102
RTVSPropertyOp9
 70
     1
102
RTVSPropertyOp10
 70
     1
102
RTVSPropertyOp11
 70
     1
102
RTVSPropertyOp12
 70
     1
102
RTVSPropertyOp13
 70
     1
102
RTVSPropertyOp14
 70
     1
102
RTVSPropertyOp15
 70
     1
102
RTVSPropertyOp16
 70
     1
102
RTVSPropertyOp17
 70
     1
102
RTVSPropertyOp18
 70
     1
102
RTVSPropertyOp19
 70
     1
102
RTVSPropertyOp20
 70
     1
102
RTVSPropertyOp21
 70
     1
102
RTVSPropertyOp22
 70
     1
102
RTVSPropertyOp23
 70
     1
102
RTVSPropertyOp24
 70
     1
102
RTVSPropertyOp25
 70
     1
102
RTVSPropertyOp26
 70
     1
102
RTVSPropertyOp27
 70
     1
102
RTVSPropertyOp28
 70
     1
102
RTVSPropertyOp29
 70
     1
102
RTVSPropertyOp30
 70
     1
102
RTVSPropertyOp31
 70
     1
102
RTVSPropertyOp32
 70
     1
102
RTVSPropertyOp33
 70
     1
102
RTVSPropertyOp34
 70
     1
102
RTVSPropertyOp35
 70
     1
102
RTVSPropertyOp36
 70
     1
102
RTVSPropertyOp37
 70
     1
102
RTVSPropertyOp38
 70
     1
102
RTVSPropertyOp39
 70
     1
102
RTVSPropertyOp40
 70
     1
102
RTVSPropertyOp41
 70
     1
102
RTVSPropertyOp42
 70
     1
102
RTVSPropertyOp43
 70
     1
102
RTVSPropertyOp44
 70
     1
102
RTVSPropertyOp45
 70
     1
102
RTVSPropertyOp46
 70
     1
102
RTVSPropertyOp47
 70
     1
102
RTVSPropertyOp48
 70
     1
102
RTVSPropertyOp49
 70
     1
102
RTVSPropertyOp50
 70
     1
102
RTVSPropertyOp51
 70
     0
102
RTVSPropertyOp52
 70
     0
102
RTVSPropertyOp53
 70
     1
102
RTVSPropertyOp54
 70
     1
102
RTVSPropertyOp55
 70
     1
102
RTVSPropertyOp56
 70
     1
102
RTVSPropertyOp57
 70
     1
102
RTVSPost2010Prop28
280
     0
102
RTVSPost2010PropOp28
 70
     1
102
RTVSPost2010Prop29
280
     1
102
RTVSPost2010PropOp29
 70
     1
102
RTVSPost2010Prop30
280
     1
102
RTVSPost2010PropOp30
 70
     1
102
RTVSPost2010Prop31
280
     0
102
RTVSPost2010PropOp31
 70
     1
102
RTVSPost2010Prop32
280
     0
102
RTVSPost2010PropOp32
 70
     1
102
RTVSPost2010Prop33
280
     0
102
RTVSPost2010PropOp33
 70
     1
102
RTVSPost2010Prop34
280
     0
102
RTVSPost2010PropOp34
 70
     1
102
RTVSPost2010Prop35
280
     0
102
RTVSPost2010PropOp35
 70
     1
102
RTVSPost2010Prop36
280
     0
102
RTVSPost2010PropOp36
 70
     1
102
RTVSPost2010Prop37
 90
       50
102
RTVSPost2010PropOp37
 70
     1
102
RTVSPost2010Prop38
140
0.0
102
RTVSPost2010PropOp38
 70
     1
102
RTVSPost2010Prop39
140
1.0
102
RTVSPost2010PropOp39
 70
     1
102
RTVSPost2010Prop40
 90
        0
102
RTVSPost2010PropOp40
 70
     1
102
RTVSPost2010Prop41ColorIndex
 90
       18
102
RTVSPost2010Prop41ColorRGB
 90
        0
102
RTVSPost2010PropOp41
 70
     1
102
RTVSPost2010Prop42
 90
       50
102
RTVSPost2010PropOp42
 70
     1
102
RTVSPost2010Prop43
 90
        3
102
RTVSPost2010PropOp43
 70
     1
102
RTVSPost2010Prop44ColorIndex
 90
        5
102
RTVSPost2010Prop44ColorRGB
 90
      255
102
RTVSPost2010PropOp44
 70
     1
102
RTVSPost2010Prop45
280
     0
102
RTVSPost2010PropOp45
 70
     1
102
RTVSPost2010Prop46
 90
       50
102
RTVSPost2010PropOp46
 70
     1
102
RTVSPost2010Prop47
 90
       50
102
RTVSPost2010PropOp47
 70
     1
102
RTVSPost2010Prop48
 90
       50
102
RTVSPost2010PropOp48
 70
     1
102
RTVSPost2010Prop49
280
     0
102
RTVSPost2010PropOp49
 70
     1
102
RTVSPost2010Prop50
 90
       50
102
RTVSPost2010PropOp50
 70
     1
102
RTVSPost2010Prop51ColorIndex
 90
      256
102
RTVSPost2010Prop51ColorRGB
 90
-16777216
102
RTVSPost2010PropOp51
 70
     0
102
RTVSPost2010Prop52
140
1.0
102
RTVSPost2010PropOp52
 70
     0
102
RTVSPost2010Prop53
 90
        2
102
RTVSPost2010PropOp53
 70
     1
102
RTVSPost2010Prop54
  1
strokes_ogs.tif
102
RTVSPost2010PropOp54
 70
     1
102
RTVSPost2010Prop55
280
     0
102
RTVSPost2010PropOp55
 70
     1
102
RTVSPost2010Prop56
140
1.0
102
RTVSPost2010PropOp56
 70
     1
102
RTVSPost2010Prop57
140
1.0
102
RTVSPost2010PropOp57
 70
     1
  0
XRECORD
  5
1887D
102
{ACAD_REACTORS
330
1887C
102
}
330
1887C
100
AcDbXrecord
280
     1
102
RTVSPropertyOp0
 70
     1
102
RTVSPropertyOp1
 70
     1
102
RTVSPropertyOp2
 70
     1
102
RTVSPropertyOp3
 70
     1
102
RTVSPropertyOp4
 70
     1
102
RTVSPropertyOp5
 70
     1
102
RTVSPropertyOp6
 70
     1
102
RTVSPropertyOp7
 70
     1
102
RTVSPropertyOp8
 70
     1
102
RTVSPropertyOp9
 70
     1
102
RTVSPropertyOp10
 70
     1
102
RTVSPropertyOp11
 70
     1
102
RTVSPropertyOp12
 70
     1
102
RTVSPropertyOp13
 70
     1
102
RTVSPropertyOp14
 70
     1
102
RTVSPropertyOp15
 70
     1
102
RTVSPropertyOp16
 70
     1
102
RTVSPropertyOp17
 70
     1
102
RTVSPropertyOp18
 70
     1
102
RTVSPropertyOp19
 70
     1
102
RTVSPropertyOp20
 70
     1
102
RTVSPropertyOp21
 70
     1
102
RTVSPropertyOp22
 70
     1
102
RTVSPropertyOp23
 70
     1
102
RTVSPropertyOp24
 70
     1
102
RTVSPropertyOp25
 70
     1
102
RTVSPropertyOp26
 70
     1
102
RTVSPropertyOp27
 70
     1
102
RTVSPropertyOp28
 70
     1
102
RTVSPropertyOp29
 70
     1
102
RTVSPropertyOp30
 70
     1
102
RTVSPropertyOp31
 70
     1
102
RTVSPropertyOp32
 70
     1
102
RTVSPropertyOp33
 70
     1
102
RTVSPropertyOp34
 70
     1
102
RTVSPropertyOp35
 70
     1
102
RTVSPropertyOp36
 70
     1
102
RTVSPropertyOp37
 70
     1
102
RTVSPropertyOp38
 70
     1
102
RTVSPropertyOp39
 70
     1
102
RTVSPropertyOp40
 70
     1
102
RTVSPropertyOp41
 70
     1
102
RTVSPropertyOp42
 70
     1
102
RTVSPropertyOp43
 70
     1
102
RTVSPropertyOp44
 70
     1
102
RTVSPropertyOp45
 70
     1
102
RTVSPropertyOp46
 70
     1
102
RTVSPropertyOp47
 70
     1
102
RTVSPropertyOp48
 70
     1
102
RTVSPropertyOp49
 70
     1
102
RTVSPropertyOp50
 70
     1
102
RTVSPropertyOp51
 70
     0
102
RTVSPropertyOp52
 70
     0
102
RTVSPropertyOp53
 70
     1
102
RTVSPropertyOp54
 70
     1
102
RTVSPropertyOp55
 70
     1
102
RTVSPropertyOp56
 70
     1
102
RTVSPropertyOp57
 70
     1
102
RTVSPost2010Prop28
280
     0
102
RTVSPost2010PropOp28
 70
     1
102
RTVSPost2010Prop29
280
     1
102
RTVSPost2010PropOp29
 70
     1
102
RTVSPost2010Prop30
280
     1
102
RTVSPost2010PropOp30
 70
     1
102
RTVSPost2010Prop31
280
     0
102
RTVSPost2010PropOp31
 70
     1
102
RTVSPost2010Prop32
280
     0
102
RTVSPost2010PropOp32
 70
     1
102
RTVSPost2010Prop33
280
     0
102
RTVSPost2010PropOp33
 70
     1
102
RTVSPost2010Prop34
280
     0
102
RTVSPost2010PropOp34
 70
     1
102
RTVSPost2010Prop35
280
     0
102
RTVSPost2010PropOp35
 70
     1
102
RTVSPost2010Prop36
280
     0
102
RTVSPost2010PropOp36
 70
     1
102
RTVSPost2010Prop37
 90
       50
102
RTVSPost2010PropOp37
 70
     1
102
RTVSPost2010Prop38
140
0.0
102
RTVSPost2010PropOp38
 70
     1
102
RTVSPost2010Prop39
140
1.0
102
RTVSPost2010PropOp39
 70
     1
102
RTVSPost2010Prop40
 90
        0
102
RTVSPost2010PropOp40
 70
     1
102
RTVSPost2010Prop41ColorIndex
 90
       18
102
RTVSPost2010Prop41ColorRGB
 90
        0
102
RTVSPost2010PropOp41
 70
     1
102
RTVSPost2010Prop42
 90
       50
102
RTVSPost2010PropOp42
 70
     1
102
RTVSPost2010Prop43
 90
        3
102
RTVSPost2010PropOp43
 70
     1
102
RTVSPost2010Prop44ColorIndex
 90
        5
102
RTVSPost2010Prop44ColorRGB
 90
      255
102
RTVSPost2010PropOp44
 70
     1
102
RTVSPost2010Prop45
280
     0
102
RTVSPost2010PropOp45
 70
     1
102
RTVSPost2010Prop46
 90
       50
102
RTVSPost2010PropOp46
 70
     1
102
RTVSPost2010Prop47
 90
       50
102
RTVSPost2010PropOp47
 70
     1
102
RTVSPost2010Prop48
 90
       50
102
RTVSPost2010PropOp48
 70
     1
102
RTVSPost2010Prop49
280
     0
102
RTVSPost2010PropOp49
 70
     1
102
RTVSPost2010Prop50
 90
       50
102
RTVSPost2010PropOp50
 70
     1
102
RTVSPost2010Prop51ColorIndex
 90
      256
102
RTVSPost2010Prop51ColorRGB
 90
-16777216
102
RTVSPost2010PropOp51
 70
     0
102
RTVSPost2010Prop52
140
1.0
102
RTVSPost2010PropOp52
 70
     0
102
RTVSPost2010Prop53
 90
        2
102
RTVSPost2010PropOp53
 70
     1
102
RTVSPost2010Prop54
  1
strokes_ogs.tif
102
RTVSPost2010PropOp54
 70
     1
102
RTVSPost2010Prop55
280
     0
102
RTVSPost2010PropOp55
 70
     1
102
RTVSPost2010Prop56
140
1.0
102
RTVSPost2010PropOp56
 70
     1
102
RTVSPost2010Prop57
140
1.0
102
RTVSPost2010PropOp57
 70
     1
  0
XRECORD
  5
1887F
102
{ACAD_REACTORS
330
1887E
102
}
330
1887E
100
AcDbXrecord
280
     1
102
RTVSPropertyOp0
 70
     1
102
RTVSPropertyOp1
 70
     1
102
RTVSPropertyOp2
 70
     1
102
RTVSPropertyOp3
 70
     1
102
RTVSPropertyOp4
 70
     1
102
RTVSPropertyOp5
 70
     1
102
RTVSPropertyOp6
 70
     1
102
RTVSPropertyOp7
 70
     1
102
RTVSPropertyOp8
 70
     1
102
RTVSPropertyOp9
 70
     1
102
RTVSPropertyOp10
 70
     1
102
RTVSPropertyOp11
 70
     1
102
RTVSPropertyOp12
 70
     1
102
RTVSPropertyOp13
 70
     1
102
RTVSPropertyOp14
 70
     1
102
RTVSPropertyOp15
 70
     1
102
RTVSPropertyOp16
 70
     1
102
RTVSPropertyOp17
 70
     1
102
RTVSPropertyOp18
 70
     1
102
RTVSPropertyOp19
 70
     1
102
RTVSPropertyOp20
 70
     1
102
RTVSPropertyOp21
 70
     1
102
RTVSPropertyOp22
 70
     1
102
RTVSPropertyOp23
 70
     1
102
RTVSPropertyOp24
 70
     1
102
RTVSPropertyOp25
 70
     1
102
RTVSPropertyOp26
 70
     1
102
RTVSPropertyOp27
 70
     1
102
RTVSPropertyOp28
 70
     1
102
RTVSPropertyOp29
 70
     1
102
RTVSPropertyOp30
 70
     1
102
RTVSPropertyOp31
 70
     1
102
RTVSPropertyOp32
 70
     1
102
RTVSPropertyOp33
 70
     1
102
RTVSPropertyOp34
 70
     1
102
RTVSPropertyOp35
 70
     1
102
RTVSPropertyOp36
 70
     1
102
RTVSPropertyOp37
 70
     1
102
RTVSPropertyOp38
 70
     1
102
RTVSPropertyOp39
 70
     1
102
RTVSPropertyOp40
 70
     1
102
RTVSPropertyOp41
 70
     1
102
RTVSPropertyOp42
 70
     1
102
RTVSPropertyOp43
 70
     1
102
RTVSPropertyOp44
 70
     1
102
RTVSPropertyOp45
 70
     1
102
RTVSPropertyOp46
 70
     1
102
RTVSPropertyOp47
 70
     1
102
RTVSPropertyOp48
 70
     1
102
RTVSPropertyOp49
 70
     1
102
RTVSPropertyOp50
 70
     1
102
RTVSPropertyOp51
 70
     0
102
RTVSPropertyOp52
 70
     0
102
RTVSPropertyOp53
 70
     1
102
RTVSPropertyOp54
 70
     1
102
RTVSPropertyOp55
 70
     1
102
RTVSPropertyOp56
 70
     1
102
RTVSPropertyOp57
 70
     1
102
RTVSPost2010Prop28
280
     0
102
RTVSPost2010PropOp28
 70
     1
102
RTVSPost2010Prop29
280
     1
102
RTVSPost2010PropOp29
 70
     1
102
RTVSPost2010Prop30
280
     1
102
RTVSPost2010PropOp30
 70
     1
102
RTVSPost2010Prop31
280
     0
102
RTVSPost2010PropOp31
 70
     1
102
RTVSPost2010Prop32
280
     0
102
RTVSPost2010PropOp32
 70
     1
102
RTVSPost2010Prop33
280
     0
102
RTVSPost2010PropOp33
 70
     1
102
RTVSPost2010Prop34
280
     0
102
RTVSPost2010PropOp34
 70
     1
102
RTVSPost2010Prop35
280
     0
102
RTVSPost2010PropOp35
 70
     1
102
RTVSPost2010Prop36
280
     0
102
RTVSPost2010PropOp36
 70
     1
102
RTVSPost2010Prop37
 90
       50
102
RTVSPost2010PropOp37
 70
     1
102
RTVSPost2010Prop38
140
0.0
102
RTVSPost2010PropOp38
 70
     1
102
RTVSPost2010Prop39
140
1.0
102
RTVSPost2010PropOp39
 70
     1
102
RTVSPost2010Prop40
 90
        0
102
RTVSPost2010PropOp40
 70
     1
102
RTVSPost2010Prop41ColorIndex
 90
       18
102
RTVSPost2010Prop41ColorRGB
 90
        0
102
RTVSPost2010PropOp41
 70
     1
102
RTVSPost2010Prop42
 90
       50
102
RTVSPost2010PropOp42
 70
     1
102
RTVSPost2010Prop43
 90
        3
102
RTVSPost2010PropOp43
 70
     1
102
RTVSPost2010Prop44ColorIndex
 90
        5
102
RTVSPost2010Prop44ColorRGB
 90
      255
102
RTVSPost2010PropOp44
 70
     1
102
RTVSPost2010Prop45
280
     0
102
RTVSPost2010PropOp45
 70
     1
102
RTVSPost2010Prop46
 90
       50
102
RTVSPost2010PropOp46
 70
     1
102
RTVSPost2010Prop47
 90
       50
102
RTVSPost2010PropOp47
 70
     1
102
RTVSPost2010Prop48
 90
       50
102
RTVSPost2010PropOp48
 70
     1
102
RTVSPost2010Prop49
280
     0
102
RTVSPost2010PropOp49
 70
     1
102
RTVSPost2010Prop50
 90
       50
102
RTVSPost2010PropOp50
 70
     1
102
RTVSPost2010Prop51ColorIndex
 90
      256
102
RTVSPost2010Prop51ColorRGB
 90
-16777216
102
RTVSPost2010PropOp51
 70
     0
102
RTVSPost2010Prop52
140
1.0
102
RTVSPost2010PropOp52
 70
     0
102
RTVSPost2010Prop53
 90
        2
102
RTVSPost2010PropOp53
 70
     1
102
RTVSPost2010Prop54
  1
strokes_ogs.tif
102
RTVSPost2010PropOp54
 70
     1
102
RTVSPost2010Prop55
280
     0
102
RTVSPost2010PropOp55
 70
     1
102
RTVSPost2010Prop56
140
1.0
102
RTVSPost2010PropOp56
 70
     1
102
RTVSPost2010Prop57
140
1.0
102
RTVSPost2010PropOp57
 70
     1
  0
XRECORD
  5
18881
102
{ACAD_REACTORS
330
18880
102
}
330
18880
100
AcDbXrecord
280
     1
102
RTVSPropertyOp0
 70
     1
102
RTVSPropertyOp1
 70
     1
102
RTVSPropertyOp2
 70
     1
102
RTVSPropertyOp3
 70
     1
102
RTVSPropertyOp4
 70
     1
102
RTVSPropertyOp5
 70
     1
102
RTVSPropertyOp6
 70
     1
102
RTVSPropertyOp7
 70
     1
102
RTVSPropertyOp8
 70
     1
102
RTVSPropertyOp9
 70
     1
102
RTVSPropertyOp10
 70
     1
102
RTVSPropertyOp11
 70
     1
102
RTVSPropertyOp12
 70
     1
102
RTVSPropertyOp13
 70
     1
102
RTVSPropertyOp14
 70
     1
102
RTVSPropertyOp15
 70
     1
102
RTVSPropertyOp16
 70
     1
102
RTVSPropertyOp17
 70
     1
102
RTVSPropertyOp18
 70
     1
102
RTVSPropertyOp19
 70
     1
102
RTVSPropertyOp20
 70
     1
102
RTVSPropertyOp21
 70
     1
102
RTVSPropertyOp22
 70
     1
102
RTVSPropertyOp23
 70
     1
102
RTVSPropertyOp24
 70
     1
102
RTVSPropertyOp25
 70
     1
102
RTVSPropertyOp26
 70
     1
102
RTVSPropertyOp27
 70
     1
102
RTVSPropertyOp28
 70
     1
102
RTVSPropertyOp29
 70
     1
102
RTVSPropertyOp30
 70
     1
102
RTVSPropertyOp31
 70
     1
102
RTVSPropertyOp32
 70
     1
102
RTVSPropertyOp33
 70
     1
102
RTVSPropertyOp34
 70
     1
102
RTVSPropertyOp35
 70
     1
102
RTVSPropertyOp36
 70
     1
102
RTVSPropertyOp37
 70
     1
102
RTVSPropertyOp38
 70
     1
102
RTVSPropertyOp39
 70
     1
102
RTVSPropertyOp40
 70
     1
102
RTVSPropertyOp41
 70
     1
102
RTVSPropertyOp42
 70
     1
102
RTVSPropertyOp43
 70
     1
102
RTVSPropertyOp44
 70
     1
102
RTVSPropertyOp45
 70
     1
102
RTVSPropertyOp46
 70
     1
102
RTVSPropertyOp47
 70
     1
102
RTVSPropertyOp48
 70
     1
102
RTVSPropertyOp49
 70
     1
102
RTVSPropertyOp50
 70
     1
102
RTVSPropertyOp51
 70
     0
102
RTVSPropertyOp52
 70
     0
102
RTVSPropertyOp53
 70
     1
102
RTVSPropertyOp54
 70
     1
102
RTVSPropertyOp55
 70
     1
102
RTVSPropertyOp56
 70
     1
102
RTVSPropertyOp57
 70
     1
102
RTVSPost2010Prop28
280
     0
102
RTVSPost2010PropOp28
 70
     1
102
RTVSPost2010Prop29
280
     1
102
RTVSPost2010PropOp29
 70
     1
102
RTVSPost2010Prop30
280
     1
102
RTVSPost2010PropOp30
 70
     1
102
RTVSPost2010Prop31
280
     0
102
RTVSPost2010PropOp31
 70
     1
102
RTVSPost2010Prop32
280
     0
102
RTVSPost2010PropOp32
 70
     1
102
RTVSPost2010Prop33
280
     0
102
RTVSPost2010PropOp33
 70
     1
102
RTVSPost2010Prop34
280
     0
102
RTVSPost2010PropOp34
 70
     1
102
RTVSPost2010Prop35
280
     0
102
RTVSPost2010PropOp35
 70
     1
102
RTVSPost2010Prop36
280
     0
102
RTVSPost2010PropOp36
 70
     1
102
RTVSPost2010Prop37
 90
       50
102
RTVSPost2010PropOp37
 70
     1
102
RTVSPost2010Prop38
140
0.0
102
RTVSPost2010PropOp38
 70
     1
102
RTVSPost2010Prop39
140
1.0
102
RTVSPost2010PropOp39
 70
     1
102
RTVSPost2010Prop40
 90
        0
102
RTVSPost2010PropOp40
 70
     1
102
RTVSPost2010Prop41ColorIndex
 90
       18
102
RTVSPost2010Prop41ColorRGB
 90
        0
102
RTVSPost2010PropOp41
 70
     1
102
RTVSPost2010Prop42
 90
       50
102
RTVSPost2010PropOp42
 70
     1
102
RTVSPost2010Prop43
 90
        3
102
RTVSPost2010PropOp43
 70
     1
102
RTVSPost2010Prop44ColorIndex
 90
        5
102
RTVSPost2010Prop44ColorRGB
 90
      255
102
RTVSPost2010PropOp44
 70
     1
102
RTVSPost2010Prop45
280
     0
102
RTVSPost2010PropOp45
 70
     1
102
RTVSPost2010Prop46
 90
       50
102
RTVSPost2010PropOp46
 70
     1
102
RTVSPost2010Prop47
 90
       50
102
RTVSPost2010PropOp47
 70
     1
102
RTVSPost2010Prop48
 90
       50
102
RTVSPost2010PropOp48
 70
     1
102
RTVSPost2010Prop49
280
     0
102
RTVSPost2010PropOp49
 70
     1
102
RTVSPost2010Prop50
 90
       50
102
RTVSPost2010PropOp50
 70
     1
102
RTVSPost2010Prop51ColorIndex
 90
      256
102
RTVSPost2010Prop51ColorRGB
 90
-16777216
102
RTVSPost2010PropOp51
 70
     0
102
RTVSPost2010Prop52
140
1.0
102
RTVSPost2010PropOp52
 70
     0
102
RTVSPost2010Prop53
 90
        2
102
RTVSPost2010PropOp53
 70
     1
102
RTVSPost2010Prop54
  1
strokes_ogs.tif
102
RTVSPost2010PropOp54
 70
     1
102
RTVSPost2010Prop55
280
     0
102
RTVSPost2010PropOp55
 70
     1
102
RTVSPost2010Prop56
140
1.0
102
RTVSPost2010PropOp56
 70
     1
102
RTVSPost2010Prop57
140
1.0
102
RTVSPost2010PropOp57
 70
     1
  0
XRECORD
  5
18883
102
{ACAD_REACTORS
330
18882
102
}
330
18882
100
AcDbXrecord
280
     1
102
RTVSPropertyOp0
 70
     1
102
RTVSPropertyOp1
 70
     1
102
RTVSPropertyOp2
 70
     1
102
RTVSPropertyOp3
 70
     1
102
RTVSPropertyOp4
 70
     1
102
RTVSPropertyOp5
 70
     1
102
RTVSPropertyOp6
 70
     1
102
RTVSPropertyOp7
 70
     1
102
RTVSPropertyOp8
 70
     1
102
RTVSPropertyOp9
 70
     1
102
RTVSPropertyOp10
 70
     1
102
RTVSPropertyOp11
 70
     1
102
RTVSPropertyOp12
 70
     1
102
RTVSPropertyOp13
 70
     1
102
RTVSPropertyOp14
 70
     1
102
RTVSPropertyOp15
 70
     1
102
RTVSPropertyOp16
 70
     1
102
RTVSPropertyOp17
 70
     1
102
RTVSPropertyOp18
 70
     1
102
RTVSPropertyOp19
 70
     1
102
RTVSPropertyOp20
 70
     1
102
RTVSPropertyOp21
 70
     1
102
RTVSPropertyOp22
 70
     1
102
RTVSPropertyOp23
 70
     1
102
RTVSPropertyOp24
 70
     1
102
RTVSPropertyOp25
 70
     1
102
RTVSPropertyOp26
 70
     1
102
RTVSPropertyOp27
 70
     1
102
RTVSPropertyOp28
 70
     1
102
RTVSPropertyOp29
 70
     1
102
RTVSPropertyOp30
 70
     1
102
RTVSPropertyOp31
 70
     1
102
RTVSPropertyOp32
 70
     1
102
RTVSPropertyOp33
 70
     1
102
RTVSPropertyOp34
 70
     1
102
RTVSPropertyOp35
 70
     1
102
RTVSPropertyOp36
 70
     1
102
RTVSPropertyOp37
 70
     1
102
RTVSPropertyOp38
 70
     1
102
RTVSPropertyOp39
 70
     1
102
RTVSPropertyOp40
 70
     1
102
RTVSPropertyOp41
 70
     1
102
RTVSPropertyOp42
 70
     1
102
RTVSPropertyOp43
 70
     1
102
RTVSPropertyOp44
 70
     1
102
RTVSPropertyOp45
 70
     1
102
RTVSPropertyOp46
 70
     1
102
RTVSPropertyOp47
 70
     1
102
RTVSPropertyOp48
 70
     1
102
RTVSPropertyOp49
 70
     1
102
RTVSPropertyOp50
 70
     1
102
RTVSPropertyOp51
 70
     0
102
RTVSPropertyOp52
 70
     0
102
RTVSPropertyOp53
 70
     1
102
RTVSPropertyOp54
 70
     1
102
RTVSPropertyOp55
 70
     1
102
RTVSPropertyOp56
 70
     1
102
RTVSPropertyOp57
 70
     1
102
RTVSPost2010Prop28
280
     0
102
RTVSPost2010PropOp28
 70
     1
102
RTVSPost2010Prop29
280
     1
102
RTVSPost2010PropOp29
 70
     1
102
RTVSPost2010Prop30
280
     1
102
RTVSPost2010PropOp30
 70
     1
102
RTVSPost2010Prop31
280
     0
102
RTVSPost2010PropOp31
 70
     1
102
RTVSPost2010Prop32
280
     0
102
RTVSPost2010PropOp32
 70
     1
102
RTVSPost2010Prop33
280
     0
102
RTVSPost2010PropOp33
 70
     1
102
RTVSPost2010Prop34
280
     0
102
RTVSPost2010PropOp34
 70
     1
102
RTVSPost2010Prop35
280
     0
102
RTVSPost2010PropOp35
 70
     1
102
RTVSPost2010Prop36
280
     0
102
RTVSPost2010PropOp36
 70
     1
102
RTVSPost2010Prop37
 90
       50
102
RTVSPost2010PropOp37
 70
     1
102
RTVSPost2010Prop38
140
0.0
102
RTVSPost2010PropOp38
 70
     1
102
RTVSPost2010Prop39
140
1.0
102
RTVSPost2010PropOp39
 70
     1
102
RTVSPost2010Prop40
 90
        0
102
RTVSPost2010PropOp40
 70
     1
102
RTVSPost2010Prop41ColorIndex
 90
       18
102
RTVSPost2010Prop41ColorRGB
 90
        0
102
RTVSPost2010PropOp41
 70
     1
102
RTVSPost2010Prop42
 90
       50
102
RTVSPost2010PropOp42
 70
     1
102
RTVSPost2010Prop43
 90
        3
102
RTVSPost2010PropOp43
 70
     1
102
RTVSPost2010Prop44ColorIndex
 90
        5
102
RTVSPost2010Prop44ColorRGB
 90
      255
102
RTVSPost2010PropOp44
 70
     1
102
RTVSPost2010Prop45
280
     0
102
RTVSPost2010PropOp45
 70
     1
102
RTVSPost2010Prop46
 90
       50
102
RTVSPost2010PropOp46
 70
     1
102
RTVSPost2010Prop47
 90
       50
102
RTVSPost2010PropOp47
 70
     1
102
RTVSPost2010Prop48
 90
       50
102
RTVSPost2010PropOp48
 70
     1
102
RTVSPost2010Prop49
280
     0
102
RTVSPost2010PropOp49
 70
     1
102
RTVSPost2010Prop50
 90
       50
102
RTVSPost2010PropOp50
 70
     1
102
RTVSPost2010Prop51ColorIndex
 90
      256
102
RTVSPost2010Prop51ColorRGB
 90
-16777216
102
RTVSPost2010PropOp51
 70
     0
102
RTVSPost2010Prop52
140
1.0
102
RTVSPost2010PropOp52
 70
     0
102
RTVSPost2010Prop53
 90
        2
102
RTVSPost2010PropOp53
 70
     1
102
RTVSPost2010Prop54
  1
strokes_ogs.tif
102
RTVSPost2010PropOp54
 70
     1
102
RTVSPost2010Prop55
280
     0
102
RTVSPost2010PropOp55
 70
     1
102
RTVSPost2010Prop56
140
1.0
102
RTVSPost2010PropOp56
 70
     1
102
RTVSPost2010Prop57
140
1.0
102
RTVSPost2010PropOp57
 70
     1
  0
XRECORD
  5
18885
102
{ACAD_REACTORS
330
18884
102
}
330
18884
100
AcDbXrecord
280
     1
102
RTVSPropertyOp0
 70
     0
102
RTVSPropertyOp1
 70
     0
102
RTVSPropertyOp2
 70
     0
102
RTVSPropertyOp3
 70
     0
102
RTVSPropertyOp4
 70
     0
102
RTVSPropertyOp5
 70
     0
102
RTVSPropertyOp6
 70
     0
102
RTVSPropertyOp7
 70
     0
102
RTVSPropertyOp8
 70
     0
102
RTVSPropertyOp9
 70
     0
102
RTVSPropertyOp10
 70
     0
102
RTVSPropertyOp11
 70
     0
102
RTVSPropertyOp12
 70
     0
102
RTVSPropertyOp13
 70
     0
102
RTVSPropertyOp14
 70
     2
102
RTVSPropertyOp15
 70
     0
102
RTVSPropertyOp16
 70
     0
102
RTVSPropertyOp17
 70
     0
102
RTVSPropertyOp18
 70
     0
102
RTVSPropertyOp19
 70
     0
102
RTVSPropertyOp20
 70
     0
102
RTVSPropertyOp21
 70
     0
102
RTVSPropertyOp22
 70
     0
102
RTVSPropertyOp23
 70
     0
102
RTVSPropertyOp24
 70
     0
102
RTVSPropertyOp25
 70
     0
102
RTVSPropertyOp26
 70
     0
102
RTVSPropertyOp27
 70
     0
102
RTVSPropertyOp28
 70
     1
102
RTVSPropertyOp29
 70
     1
102
RTVSPropertyOp30
 70
     1
102
RTVSPropertyOp31
 70
     1
102
RTVSPropertyOp32
 70
     1
102
RTVSPropertyOp33
 70
     1
102
RTVSPropertyOp34
 70
     1
102
RTVSPropertyOp35
 70
     1
102
RTVSPropertyOp36
 70
     1
102
RTVSPropertyOp37
 70
     1
102
RTVSPropertyOp38
 70
     1
102
RTVSPropertyOp39
 70
     1
102
RTVSPropertyOp40
 70
     1
102
RTVSPropertyOp41
 70
     1
102
RTVSPropertyOp42
 70
     1
102
RTVSPropertyOp43
 70
     1
102
RTVSPropertyOp44
 70
     1
102
RTVSPropertyOp45
 70
     1
102
RTVSPropertyOp46
 70
     1
102
RTVSPropertyOp47
 70
     1
102
RTVSPropertyOp48
 70
     1
102
RTVSPropertyOp49
 70
     1
102
RTVSPropertyOp50
 70
     1
102
RTVSPropertyOp51
 70
     0
102
RTVSPropertyOp52
 70
     0
102
RTVSPropertyOp53
 70
     1
102
RTVSPropertyOp54
 70
     1
102
RTVSPropertyOp55
 70
     1
102
RTVSPropertyOp56
 70
     1
102
RTVSPropertyOp57
 70
     1
102
RTVSPost2010Prop28
280
     0
102
RTVSPost2010PropOp28
 70
     1
102
RTVSPost2010Prop29
280
     1
102
RTVSPost2010PropOp29
 70
     1
102
RTVSPost2010Prop30
280
     1
102
RTVSPost2010PropOp30
 70
     1
102
RTVSPost2010Prop31
280
     0
102
RTVSPost2010PropOp31
 70
     1
102
RTVSPost2010Prop32
280
     0
102
RTVSPost2010PropOp32
 70
     1
102
RTVSPost2010Prop33
280
     0
102
RTVSPost2010PropOp33
 70
     1
102
RTVSPost2010Prop34
280
     0
102
RTVSPost2010PropOp34
 70
     1
102
RTVSPost2010Prop35
280
     0
102
RTVSPost2010PropOp35
 70
     1
102
RTVSPost2010Prop36
280
     0
102
RTVSPost2010PropOp36
 70
     1
102
RTVSPost2010Prop37
 90
       50
102
RTVSPost2010PropOp37
 70
     1
102
RTVSPost2010Prop38
140
0.0
102
RTVSPost2010PropOp38
 70
     1
102
RTVSPost2010Prop39
140
1.0
102
RTVSPost2010PropOp39
 70
     1
102
RTVSPost2010Prop40
 90
        0
102
RTVSPost2010PropOp40
 70
     1
102
RTVSPost2010Prop41ColorIndex
 90
       18
102
RTVSPost2010Prop41ColorRGB
 90
        0
102
RTVSPost2010PropOp41
 70
     1
102
RTVSPost2010Prop42
 90
       50
102
RTVSPost2010PropOp42
 70
     1
102
RTVSPost2010Prop43
 90
        3
102
RTVSPost2010PropOp43
 70
     1
102
RTVSPost2010Prop44ColorIndex
 90
        5
102
RTVSPost2010Prop44ColorRGB
 90
      255
102
RTVSPost2010PropOp44
 70
     1
102
RTVSPost2010Prop45
280
     0
102
RTVSPost2010PropOp45
 70
     1
102
RTVSPost2010Prop46
 90
       50
102
RTVSPost2010PropOp46
 70
     1
102
RTVSPost2010Prop47
 90
       50
102
RTVSPost2010PropOp47
 70
     1
102
RTVSPost2010Prop48
 90
       50
102
RTVSPost2010PropOp48
 70
     1
102
RTVSPost2010Prop49
280
     0
102
RTVSPost2010PropOp49
 70
     1
102
RTVSPost2010Prop50
 90
       50
102
RTVSPost2010PropOp50
 70
     1
102
RTVSPost2010Prop51ColorIndex
 90
      256
102
RTVSPost2010Prop51ColorRGB
 90
-16777216
102
RTVSPost2010PropOp51
 70
     0
102
RTVSPost2010Prop52
140
1.0
102
RTVSPost2010PropOp52
 70
     0
102
RTVSPost2010Prop53
 90
        2
102
RTVSPost2010PropOp53
 70
     1
102
RTVSPost2010Prop54
  1
strokes_ogs.tif
102
RTVSPost2010PropOp54
 70
     1
102
RTVSPost2010Prop55
280
     0
102
RTVSPost2010PropOp55
 70
     1
102
RTVSPost2010Prop56
140
1.0
102
RTVSPost2010PropOp56
 70
     1
102
RTVSPost2010Prop57
140
1.0
102
RTVSPost2010PropOp57
 70
     1
  0
XRECORD
  5
18887
102
{ACAD_REACTORS
330
18886
102
}
330
18886
100
AcDbXrecord
280
     1
102
RTVSPropertyOp0
 70
     1
102
RTVSPropertyOp1
 70
     1
102
RTVSPropertyOp2
 70
     1
102
RTVSPropertyOp3
 70
     1
102
RTVSPropertyOp4
 70
     1
102
RTVSPropertyOp5
 70
     1
102
RTVSPropertyOp6
 70
     1
102
RTVSPropertyOp7
 70
     1
102
RTVSPropertyOp8
 70
     1
102
RTVSPropertyOp9
 70
     1
102
RTVSPropertyOp10
 70
     1
102
RTVSPropertyOp11
 70
     1
102
RTVSPropertyOp12
 70
     1
102
RTVSPropertyOp13
 70
     1
102
RTVSPropertyOp14
 70
     1
102
RTVSPropertyOp15
 70
     1
102
RTVSPropertyOp16
 70
     1
102
RTVSPropertyOp17
 70
     1
102
RTVSPropertyOp18
 70
     1
102
RTVSPropertyOp19
 70
     1
102
RTVSPropertyOp20
 70
     1
102
RTVSPropertyOp21
 70
     1
102
RTVSPropertyOp22
 70
     1
102
RTVSPropertyOp23
 70
     1
102
RTVSPropertyOp24
 70
     1
102
RTVSPropertyOp25
 70
     1
102
RTVSPropertyOp26
 70
     1
102
RTVSPropertyOp27
 70
     1
102
RTVSPropertyOp28
 70
     1
102
RTVSPropertyOp29
 70
     1
102
RTVSPropertyOp30
 70
     1
102
RTVSPropertyOp31
 70
     1
102
RTVSPropertyOp32
 70
     1
102
RTVSPropertyOp33
 70
     1
102
RTVSPropertyOp34
 70
     1
102
RTVSPropertyOp35
 70
     1
102
RTVSPropertyOp36
 70
     1
102
RTVSPropertyOp37
 70
     1
102
RTVSPropertyOp38
 70
     1
102
RTVSPropertyOp39
 70
     1
102
RTVSPropertyOp40
 70
     1
102
RTVSPropertyOp41
 70
     1
102
RTVSPropertyOp42
 70
     1
102
RTVSPropertyOp43
 70
     1
102
RTVSPropertyOp44
 70
     1
102
RTVSPropertyOp45
 70
     1
102
RTVSPropertyOp46
 70
     1
102
RTVSPropertyOp47
 70
     1
102
RTVSPropertyOp48
 70
     1
102
RTVSPropertyOp49
 70
     1
102
RTVSPropertyOp50
 70
     1
102
RTVSPropertyOp51
 70
     0
102
RTVSPropertyOp52
 70
     0
102
RTVSPropertyOp53
 70
     1
102
RTVSPropertyOp54
 70
     1
102
RTVSPropertyOp55
 70
     1
102
RTVSPropertyOp56
 70
     1
102
RTVSPropertyOp57
 70
     1
102
RTVSPost2010Prop28
280
     0
102
RTVSPost2010PropOp28
 70
     1
102
RTVSPost2010Prop29
280
     1
102
RTVSPost2010PropOp29
 70
     1
102
RTVSPost2010Prop30
280
     1
102
RTVSPost2010PropOp30
 70
     1
102
RTVSPost2010Prop31
280
     0
102
RTVSPost2010PropOp31
 70
     1
102
RTVSPost2010Prop32
280
     0
102
RTVSPost2010PropOp32
 70
     1
102
RTVSPost2010Prop33
280
     0
102
RTVSPost2010PropOp33
 70
     1
102
RTVSPost2010Prop34
280
     0
102
RTVSPost2010PropOp34
 70
     1
102
RTVSPost2010Prop35
280
     0
102
RTVSPost2010PropOp35
 70
     1
102
RTVSPost2010Prop36
280
     0
102
RTVSPost2010PropOp36
 70
     1
102
RTVSPost2010Prop37
 90
       50
102
RTVSPost2010PropOp37
 70
     1
102
RTVSPost2010Prop38
140
0.0
102
RTVSPost2010PropOp38
 70
     1
102
RTVSPost2010Prop39
140
1.0
102
RTVSPost2010PropOp39
 70
     1
102
RTVSPost2010Prop40
 90
        0
102
RTVSPost2010PropOp40
 70
     1
102
RTVSPost2010Prop41ColorIndex
 90
       18
102
RTVSPost2010Prop41ColorRGB
 90
        0
102
RTVSPost2010PropOp41
 70
     1
102
RTVSPost2010Prop42
 90
       50
102
RTVSPost2010PropOp42
 70
     1
102
RTVSPost2010Prop43
 90
        3
102
RTVSPost2010PropOp43
 70
     1
102
RTVSPost2010Prop44ColorIndex
 90
        5
102
RTVSPost2010Prop44ColorRGB
 90
      255
102
RTVSPost2010PropOp44
 70
     1
102
RTVSPost2010Prop45
280
     0
102
RTVSPost2010PropOp45
 70
     1
102
RTVSPost2010Prop46
 90
       50
102
RTVSPost2010PropOp46
 70
     1
102
RTVSPost2010Prop47
 90
       50
102
RTVSPost2010PropOp47
 70
     1
102
RTVSPost2010Prop48
 90
       50
102
RTVSPost2010PropOp48
 70
     1
102
RTVSPost2010Prop49
280
     0
102
RTVSPost2010PropOp49
 70
     1
102
RTVSPost2010Prop50
 90
       50
102
RTVSPost2010PropOp50
 70
     1
102
RTVSPost2010Prop51ColorIndex
 90
      256
102
RTVSPost2010Prop51ColorRGB
 90
-16777216
102
RTVSPost2010PropOp51
 70
     0
102
RTVSPost2010Prop52
140
1.0
102
RTVSPost2010PropOp52
 70
     0
102
RTVSPost2010Prop53
 90
        2
102
RTVSPost2010PropOp53
 70
     1
102
RTVSPost2010Prop54
  1
strokes_ogs.tif
102
RTVSPost2010PropOp54
 70
     1
102
RTVSPost2010Prop55
280
     0
102
RTVSPost2010PropOp55
 70
     1
102
RTVSPost2010Prop56
140
1.0
102
RTVSPost2010PropOp56
 70
     1
102
RTVSPost2010Prop57
140
1.0
102
RTVSPost2010PropOp57
 70
     1
  0
XRECORD
  5
18889
102
{ACAD_REACTORS
330
18888
102
}
330
18888
100
AcDbXrecord
280
     1
102
RTVSPropertyOp0
 70
     1
102
RTVSPropertyOp1
 70
     1
102
RTVSPropertyOp2
 70
     1
102
RTVSPropertyOp3
 70
     1
102
RTVSPropertyOp4
 70
     1
102
RTVSPropertyOp5
 70
     1
102
RTVSPropertyOp6
 70
     1
102
RTVSPropertyOp7
 70
     1
102
RTVSPropertyOp8
 70
     1
102
RTVSPropertyOp9
 70
     1
102
RTVSPropertyOp10
 70
     1
102
RTVSPropertyOp11
 70
     1
102
RTVSPropertyOp12
 70
     1
102
RTVSPropertyOp13
 70
     1
102
RTVSPropertyOp14
 70
     1
102
RTVSPropertyOp15
 70
     1
102
RTVSPropertyOp16
 70
     1
102
RTVSPropertyOp17
 70
     1
102
RTVSPropertyOp18
 70
     1
102
RTVSPropertyOp19
 70
     1
102
RTVSPropertyOp20
 70
     1
102
RTVSPropertyOp21
 70
     1
102
RTVSPropertyOp22
 70
     1
102
RTVSPropertyOp23
 70
     1
102
RTVSPropertyOp24
 70
     1
102
RTVSPropertyOp25
 70
     1
102
RTVSPropertyOp26
 70
     1
102
RTVSPropertyOp27
 70
     1
102
RTVSPropertyOp28
 70
     1
102
RTVSPropertyOp29
 70
     1
102
RTVSPropertyOp30
 70
     1
102
RTVSPropertyOp31
 70
     1
102
RTVSPropertyOp32
 70
     1
102
RTVSPropertyOp33
 70
     1
102
RTVSPropertyOp34
 70
     1
102
RTVSPropertyOp35
 70
     1
102
RTVSPropertyOp36
 70
     1
102
RTVSPropertyOp37
 70
     1
102
RTVSPropertyOp38
 70
     1
102
RTVSPropertyOp39
 70
     1
102
RTVSPropertyOp40
 70
     1
102
RTVSPropertyOp41
 70
     1
102
RTVSPropertyOp42
 70
     1
102
RTVSPropertyOp43
 70
     1
102
RTVSPropertyOp44
 70
     1
102
RTVSPropertyOp45
 70
     1
102
RTVSPropertyOp46
 70
     1
102
RTVSPropertyOp47
 70
     1
102
RTVSPropertyOp48
 70
     1
102
RTVSPropertyOp49
 70
     1
102
RTVSPropertyOp50
 70
     1
102
RTVSPropertyOp51
 70
     0
102
RTVSPropertyOp52
 70
     0
102
RTVSPropertyOp53
 70
     1
102
RTVSPropertyOp54
 70
     1
102
RTVSPropertyOp55
 70
     1
102
RTVSPropertyOp56
 70
     1
102
RTVSPropertyOp57
 70
     1
102
RTVSPost2010Prop28
280
     0
102
RTVSPost2010PropOp28
 70
     1
102
RTVSPost2010Prop29
280
     1
102
RTVSPost2010PropOp29
 70
     1
102
RTVSPost2010Prop30
280
     1
102
RTVSPost2010PropOp30
 70
     1
102
RTVSPost2010Prop31
280
     0
102
RTVSPost2010PropOp31
 70
     1
102
RTVSPost2010Prop32
280
     0
102
RTVSPost2010PropOp32
 70
     1
102
RTVSPost2010Prop33
280
     0
102
RTVSPost2010PropOp33
 70
     1
102
RTVSPost2010Prop34
280
     0
102
RTVSPost2010PropOp34
 70
     1
102
RTVSPost2010Prop35
280
     0
102
RTVSPost2010PropOp35
 70
     1
102
RTVSPost2010Prop36
280
     0
102
RTVSPost2010PropOp36
 70
     1
102
RTVSPost2010Prop37
 90
       50
102
RTVSPost2010PropOp37
 70
     1
102
RTVSPost2010Prop38
140
0.0
102
RTVSPost2010PropOp38
 70
     1
102
RTVSPost2010Prop39
140
1.0
102
RTVSPost2010PropOp39
 70
     1
102
RTVSPost2010Prop40
 90
        0
102
RTVSPost2010PropOp40
 70
     1
102
RTVSPost2010Prop41ColorIndex
 90
       18
102
RTVSPost2010Prop41ColorRGB
 90
        0
102
RTVSPost2010PropOp41
 70
     1
102
RTVSPost2010Prop42
 90
       50
102
RTVSPost2010PropOp42
 70
     1
102
RTVSPost2010Prop43
 90
        3
102
RTVSPost2010PropOp43
 70
     1
102
RTVSPost2010Prop44ColorIndex
 90
        5
102
RTVSPost2010Prop44ColorRGB
 90
      255
102
RTVSPost2010PropOp44
 70
     1
102
RTVSPost2010Prop45
280
     0
102
RTVSPost2010PropOp45
 70
     1
102
RTVSPost2010Prop46
 90
       50
102
RTVSPost2010PropOp46
 70
     1
102
RTVSPost2010Prop47
 90
       50
102
RTVSPost2010PropOp47
 70
     1
102
RTVSPost2010Prop48
 90
       50
102
RTVSPost2010PropOp48
 70
     1
102
RTVSPost2010Prop49
280
     0
102
RTVSPost2010PropOp49
 70
     1
102
RTVSPost2010Prop50
 90
       50
102
RTVSPost2010PropOp50
 70
     1
102
RTVSPost2010Prop51ColorIndex
 90
      256
102
RTVSPost2010Prop51ColorRGB
 90
-16777216
102
RTVSPost2010PropOp51
 70
     0
102
RTVSPost2010Prop52
140
1.0
102
RTVSPost2010PropOp52
 70
     0
102
RTVSPost2010Prop53
 90
        2
102
RTVSPost2010PropOp53
 70
     1
102
RTVSPost2010Prop54
  1
strokes_ogs.tif
102
RTVSPost2010PropOp54
 70
     1
102
RTVSPost2010Prop55
280
     0
102
RTVSPost2010PropOp55
 70
     1
102
RTVSPost2010Prop56
140
1.0
102
RTVSPost2010PropOp56
 70
     1
102
RTVSPost2010Prop57
140
1.0
102
RTVSPost2010PropOp57
 70
     1
  0
XRECORD
  5
1888B
102
{ACAD_REACTORS
330
1888A
102
}
330
1888A
100
AcDbXrecord
280
     1
102
RTVSPropertyOp0
 70
     1
102
RTVSPropertyOp1
 70
     1
102
RTVSPropertyOp2
 70
     1
102
RTVSPropertyOp3
 70
     1
102
RTVSPropertyOp4
 70
     1
102
RTVSPropertyOp5
 70
     1
102
RTVSPropertyOp6
 70
     1
102
RTVSPropertyOp7
 70
     1
102
RTVSPropertyOp8
 70
     1
102
RTVSPropertyOp9
 70
     1
102
RTVSPropertyOp10
 70
     1
102
RTVSPropertyOp11
 70
     1
102
RTVSPropertyOp12
 70
     1
102
RTVSPropertyOp13
 70
     1
102
RTVSPropertyOp14
 70
     1
102
RTVSPropertyOp15
 70
     1
102
RTVSPropertyOp16
 70
     1
102
RTVSPropertyOp17
 70
     1
102
RTVSPropertyOp18
 70
     1
102
RTVSPropertyOp19
 70
     1
102
RTVSPropertyOp20
 70
     1
102
RTVSPropertyOp21
 70
     1
102
RTVSPropertyOp22
 70
     1
102
RTVSPropertyOp23
 70
     1
102
RTVSPropertyOp24
 70
     1
102
RTVSPropertyOp25
 70
     1
102
RTVSPropertyOp26
 70
     1
102
RTVSPropertyOp27
 70
     1
102
RTVSPropertyOp28
 70
     1
102
RTVSPropertyOp29
 70
     1
102
RTVSPropertyOp30
 70
     1
102
RTVSPropertyOp31
 70
     1
102
RTVSPropertyOp32
 70
     1
102
RTVSPropertyOp33
 70
     1
102
RTVSPropertyOp34
 70
     1
102
RTVSPropertyOp35
 70
     1
102
RTVSPropertyOp36
 70
     1
102
RTVSPropertyOp37
 70
     1
102
RTVSPropertyOp38
 70
     1
102
RTVSPropertyOp39
 70
     1
102
RTVSPropertyOp40
 70
     1
102
RTVSPropertyOp41
 70
     1
102
RTVSPropertyOp42
 70
     1
102
RTVSPropertyOp43
 70
     1
102
RTVSPropertyOp44
 70
     1
102
RTVSPropertyOp45
 70
     1
102
RTVSPropertyOp46
 70
     1
102
RTVSPropertyOp47
 70
     1
102
RTVSPropertyOp48
 70
     1
102
RTVSPropertyOp49
 70
     1
102
RTVSPropertyOp50
 70
     1
102
RTVSPropertyOp51
 70
     0
102
RTVSPropertyOp52
 70
     0
102
RTVSPropertyOp53
 70
     1
102
RTVSPropertyOp54
 70
     1
102
RTVSPropertyOp55
 70
     1
102
RTVSPropertyOp56
 70
     1
102
RTVSPropertyOp57
 70
     1
102
RTVSPost2010Prop28
280
     0
102
RTVSPost2010PropOp28
 70
     1
102
RTVSPost2010Prop29
280
     1
102
RTVSPost2010PropOp29
 70
     1
102
RTVSPost2010Prop30
280
     1
102
RTVSPost2010PropOp30
 70
     1
102
RTVSPost2010Prop31
280
     0
102
RTVSPost2010PropOp31
 70
     1
102
RTVSPost2010Prop32
280
     0
102
RTVSPost2010PropOp32
 70
     1
102
RTVSPost2010Prop33
280
     0
102
RTVSPost2010PropOp33
 70
     1
102
RTVSPost2010Prop34
280
     0
102
RTVSPost2010PropOp34
 70
     1
102
RTVSPost2010Prop35
280
     0
102
RTVSPost2010PropOp35
 70
     1
102
RTVSPost2010Prop36
280
     0
102
RTVSPost2010PropOp36
 70
     1
102
RTVSPost2010Prop37
 90
       50
102
RTVSPost2010PropOp37
 70
     1
102
RTVSPost2010Prop38
140
0.0
102
RTVSPost2010PropOp38
 70
     1
102
RTVSPost2010Prop39
140
1.0
102
RTVSPost2010PropOp39
 70
     1
102
RTVSPost2010Prop40
 90
        0
102
RTVSPost2010PropOp40
 70
     1
102
RTVSPost2010Prop41ColorIndex
 90
       18
102
RTVSPost2010Prop41ColorRGB
 90
        0
102
RTVSPost2010PropOp41
 70
     1
102
RTVSPost2010Prop42
 90
       50
102
RTVSPost2010PropOp42
 70
     1
102
RTVSPost2010Prop43
 90
        3
102
RTVSPost2010PropOp43
 70
     1
102
RTVSPost2010Prop44ColorIndex
 90
        5
102
RTVSPost2010Prop44ColorRGB
 90
      255
102
RTVSPost2010PropOp44
 70
     1
102
RTVSPost2010Prop45
280
     0
102
RTVSPost2010PropOp45
 70
     1
102
RTVSPost2010Prop46
 90
       50
102
RTVSPost2010PropOp46
 70
     1
102
RTVSPost2010Prop47
 90
       50
102
RTVSPost2010PropOp47
 70
     1
102
RTVSPost2010Prop48
 90
       50
102
RTVSPost2010PropOp48
 70
     1
102
RTVSPost2010Prop49
280
     0
102
RTVSPost2010PropOp49
 70
     1
102
RTVSPost2010Prop50
 90
       50
102
RTVSPost2010PropOp50
 70
     1
102
RTVSPost2010Prop51ColorIndex
 90
      256
102
RTVSPost2010Prop51ColorRGB
 90
-16777216
102
RTVSPost2010PropOp51
 70
     0
102
RTVSPost2010Prop52
140
1.0
102
RTVSPost2010PropOp52
 70
     0
102
RTVSPost2010Prop53
 90
        2
102
RTVSPost2010PropOp53
 70
     1
102
RTVSPost2010Prop54
  1
strokes_ogs.tif
102
RTVSPost2010PropOp54
 70
     1
102
RTVSPost2010Prop55
280
     0
102
RTVSPost2010PropOp55
 70
     1
102
RTVSPost2010Prop56
140
1.0
102
RTVSPost2010PropOp56
 70
     1
102
RTVSPost2010Prop57
140
1.0
102
RTVSPost2010PropOp57
 70
     1
  0
XRECORD
  5
1888D
102
{ACAD_REACTORS
330
1888C
102
}
330
1888C
100
AcDbXrecord
280
     1
102
RTVSPropertyOp0
 70
     1
102
RTVSPropertyOp1
 70
     1
102
RTVSPropertyOp2
 70
     1
102
RTVSPropertyOp3
 70
     1
102
RTVSPropertyOp4
 70
     1
102
RTVSPropertyOp5
 70
     1
102
RTVSPropertyOp6
 70
     1
102
RTVSPropertyOp7
 70
     1
102
RTVSPropertyOp8
 70
     1
102
RTVSPropertyOp9
 70
     1
102
RTVSPropertyOp10
 70
     1
102
RTVSPropertyOp11
 70
     1
102
RTVSPropertyOp12
 70
     1
102
RTVSPropertyOp13
 70
     1
102
RTVSPropertyOp14
 70
     1
102
RTVSPropertyOp15
 70
     1
102
RTVSPropertyOp16
 70
     1
102
RTVSPropertyOp17
 70
     1
102
RTVSPropertyOp18
 70
     1
102
RTVSPropertyOp19
 70
     1
102
RTVSPropertyOp20
 70
     1
102
RTVSPropertyOp21
 70
     1
102
RTVSPropertyOp22
 70
     1
102
RTVSPropertyOp23
 70
     1
102
RTVSPropertyOp24
 70
     1
102
RTVSPropertyOp25
 70
     1
102
RTVSPropertyOp26
 70
     1
102
RTVSPropertyOp27
 70
     1
102
RTVSPropertyOp28
 70
     1
102
RTVSPropertyOp29
 70
     1
102
RTVSPropertyOp30
 70
     1
102
RTVSPropertyOp31
 70
     1
102
RTVSPropertyOp32
 70
     1
102
RTVSPropertyOp33
 70
     1
102
RTVSPropertyOp34
 70
     1
102
RTVSPropertyOp35
 70
     1
102
RTVSPropertyOp36
 70
     1
102
RTVSPropertyOp37
 70
     1
102
RTVSPropertyOp38
 70
     1
102
RTVSPropertyOp39
 70
     1
102
RTVSPropertyOp40
 70
     1
102
RTVSPropertyOp41
 70
     1
102
RTVSPropertyOp42
 70
     1
102
RTVSPropertyOp43
 70
     1
102
RTVSPropertyOp44
 70
     1
102
RTVSPropertyOp45
 70
     1
102
RTVSPropertyOp46
 70
     1
102
RTVSPropertyOp47
 70
     1
102
RTVSPropertyOp48
 70
     1
102
RTVSPropertyOp49
 70
     1
102
RTVSPropertyOp50
 70
     1
102
RTVSPropertyOp51
 70
     0
102
RTVSPropertyOp52
 70
     0
102
RTVSPropertyOp53
 70
     1
102
RTVSPropertyOp54
 70
     1
102
RTVSPropertyOp55
 70
     1
102
RTVSPropertyOp56
 70
     1
102
RTVSPropertyOp57
 70
     1
102
RTVSPost2010Prop28
280
     0
102
RTVSPost2010PropOp28
 70
     1
102
RTVSPost2010Prop29
280
     1
102
RTVSPost2010PropOp29
 70
     1
102
RTVSPost2010Prop30
280
     1
102
RTVSPost2010PropOp30
 70
     1
102
RTVSPost2010Prop31
280
     0
102
RTVSPost2010PropOp31
 70
     1
102
RTVSPost2010Prop32
280
     0
102
RTVSPost2010PropOp32
 70
     1
102
RTVSPost2010Prop33
280
     0
102
RTVSPost2010PropOp33
 70
     1
102
RTVSPost2010Prop34
280
     0
102
RTVSPost2010PropOp34
 70
     1
102
RTVSPost2010Prop35
280
     0
102
RTVSPost2010PropOp35
 70
     1
102
RTVSPost2010Prop36
280
     0
102
RTVSPost2010PropOp36
 70
     1
102
RTVSPost2010Prop37
 90
       50
102
RTVSPost2010PropOp37
 70
     1
102
RTVSPost2010Prop38
140
0.0
102
RTVSPost2010PropOp38
 70
     1
102
RTVSPost2010Prop39
140
1.0
102
RTVSPost2010PropOp39
 70
     1
102
RTVSPost2010Prop40
 90
        0
102
RTVSPost2010PropOp40
 70
     1
102
RTVSPost2010Prop41ColorIndex
 90
       18
102
RTVSPost2010Prop41ColorRGB
 90
        0
102
RTVSPost2010PropOp41
 70
     1
102
RTVSPost2010Prop42
 90
       50
102
RTVSPost2010PropOp42
 70
     1
102
RTVSPost2010Prop43
 90
        3
102
RTVSPost2010PropOp43
 70
     1
102
RTVSPost2010Prop44ColorIndex
 90
        5
102
RTVSPost2010Prop44ColorRGB
 90
      255
102
RTVSPost2010PropOp44
 70
     1
102
RTVSPost2010Prop45
280
     0
102
RTVSPost2010PropOp45
 70
     1
102
RTVSPost2010Prop46
 90
       50
102
RTVSPost2010PropOp46
 70
     1
102
RTVSPost2010Prop47
 90
       50
102
RTVSPost2010PropOp47
 70
     1
102
RTVSPost2010Prop48
 90
       50
102
RTVSPost2010PropOp48
 70
     1
102
RTVSPost2010Prop49
280
     0
102
RTVSPost2010PropOp49
 70
     1
102
RTVSPost2010Prop50
 90
       50
102
RTVSPost2010PropOp50
 70
     1
102
RTVSPost2010Prop51ColorIndex
 90
      256
102
RTVSPost2010Prop51ColorRGB
 90
-16777216
102
RTVSPost2010PropOp51
 70
     0
102
RTVSPost2010Prop52
140
1.0
102
RTVSPost2010PropOp52
 70
     0
102
RTVSPost2010Prop53
 90
        2
102
RTVSPost2010PropOp53
 70
     1
102
RTVSPost2010Prop54
  1
strokes_ogs.tif
102
RTVSPost2010PropOp54
 70
     1
102
RTVSPost2010Prop55
280
     0
102
RTVSPost2010PropOp55
 70
     1
102
RTVSPost2010Prop56
140
1.0
102
RTVSPost2010PropOp56
 70
     1
102
RTVSPost2010Prop57
140
1.0
102
RTVSPost2010PropOp57
 70
     1
  0
XRECORD
  5
1888F
102
{ACAD_REACTORS
330
1888E
102
}
330
1888E
100
AcDbXrecord
280
     1
102
RTVSPropertyOp0
 70
     1
102
RTVSPropertyOp1
 70
     1
102
RTVSPropertyOp2
 70
     1
102
RTVSPropertyOp3
 70
     1
102
RTVSPropertyOp4
 70
     1
102
RTVSPropertyOp5
 70
     1
102
RTVSPropertyOp6
 70
     1
102
RTVSPropertyOp7
 70
     1
102
RTVSPropertyOp8
 70
     1
102
RTVSPropertyOp9
 70
     1
102
RTVSPropertyOp10
 70
     1
102
RTVSPropertyOp11
 70
     1
102
RTVSPropertyOp12
 70
     1
102
RTVSPropertyOp13
 70
     1
102
RTVSPropertyOp14
 70
     1
102
RTVSPropertyOp15
 70
     1
102
RTVSPropertyOp16
 70
     1
102
RTVSPropertyOp17
 70
     1
102
RTVSPropertyOp18
 70
     1
102
RTVSPropertyOp19
 70
     1
102
RTVSPropertyOp20
 70
     1
102
RTVSPropertyOp21
 70
     1
102
RTVSPropertyOp22
 70
     1
102
RTVSPropertyOp23
 70
     1
102
RTVSPropertyOp24
 70
     1
102
RTVSPropertyOp25
 70
     1
102
RTVSPropertyOp26
 70
     1
102
RTVSPropertyOp27
 70
     1
102
RTVSPropertyOp28
 70
     1
102
RTVSPropertyOp29
 70
     1
102
RTVSPropertyOp30
 70
     1
102
RTVSPropertyOp31
 70
     1
102
RTVSPropertyOp32
 70
     1
102
RTVSPropertyOp33
 70
     1
102
RTVSPropertyOp34
 70
     1
102
RTVSPropertyOp35
 70
     1
102
RTVSPropertyOp36
 70
     1
102
RTVSPropertyOp37
 70
     1
102
RTVSPropertyOp38
 70
     1
102
RTVSPropertyOp39
 70
     1
102
RTVSPropertyOp40
 70
     1
102
RTVSPropertyOp41
 70
     1
102
RTVSPropertyOp42
 70
     1
102
RTVSPropertyOp43
 70
     1
102
RTVSPropertyOp44
 70
     1
102
RTVSPropertyOp45
 70
     1
102
RTVSPropertyOp46
 70
     1
102
RTVSPropertyOp47
 70
     1
102
RTVSPropertyOp48
 70
     1
102
RTVSPropertyOp49
 70
     1
102
RTVSPropertyOp50
 70
     1
102
RTVSPropertyOp51
 70
     0
102
RTVSPropertyOp52
 70
     0
102
RTVSPropertyOp53
 70
     1
102
RTVSPropertyOp54
 70
     1
102
RTVSPropertyOp55
 70
     1
102
RTVSPropertyOp56
 70
     1
102
RTVSPropertyOp57
 70
     1
102
RTVSPost2010Prop28
280
     0
102
RTVSPost2010PropOp28
 70
     1
102
RTVSPost2010Prop29
280
     1
102
RTVSPost2010PropOp29
 70
     1
102
RTVSPost2010Prop30
280
     1
102
RTVSPost2010PropOp30
 70
     1
102
RTVSPost2010Prop31
280
     0
102
RTVSPost2010PropOp31
 70
     1
102
RTVSPost2010Prop32
280
     0
102
RTVSPost2010PropOp32
 70
     1
102
RTVSPost2010Prop33
280
     0
102
RTVSPost2010PropOp33
 70
     1
102
RTVSPost2010Prop34
280
     0
102
RTVSPost2010PropOp34
 70
     1
102
RTVSPost2010Prop35
280
     0
102
RTVSPost2010PropOp35
 70
     1
102
RTVSPost2010Prop36
280
     0
102
RTVSPost2010PropOp36
 70
     1
102
RTVSPost2010Prop37
 90
       50
102
RTVSPost2010PropOp37
 70
     1
102
RTVSPost2010Prop38
140
0.0
102
RTVSPost2010PropOp38
 70
     1
102
RTVSPost2010Prop39
140
1.0
102
RTVSPost2010PropOp39
 70
     1
102
RTVSPost2010Prop40
 90
        0
102
RTVSPost2010PropOp40
 70
     1
102
RTVSPost2010Prop41ColorIndex
 90
       18
102
RTVSPost2010Prop41ColorRGB
 90
        0
102
RTVSPost2010PropOp41
 70
     1
102
RTVSPost2010Prop42
 90
       50
102
RTVSPost2010PropOp42
 70
     1
102
RTVSPost2010Prop43
 90
        3
102
RTVSPost2010PropOp43
 70
     1
102
RTVSPost2010Prop44ColorIndex
 90
        5
102
RTVSPost2010Prop44ColorRGB
 90
      255
102
RTVSPost2010PropOp44
 70
     1
102
RTVSPost2010Prop45
280
     0
102
RTVSPost2010PropOp45
 70
     1
102
RTVSPost2010Prop46
 90
       50
102
RTVSPost2010PropOp46
 70
     1
102
RTVSPost2010Prop47
 90
       50
102
RTVSPost2010PropOp47
 70
     1
102
RTVSPost2010Prop48
 90
       50
102
RTVSPost2010PropOp48
 70
     1
102
RTVSPost2010Prop49
280
     0
102
RTVSPost2010PropOp49
 70
     1
102
RTVSPost2010Prop50
 90
       50
102
RTVSPost2010PropOp50
 70
     1
102
RTVSPost2010Prop51ColorIndex
 90
      256
102
RTVSPost2010Prop51ColorRGB
 90
-16777216
102
RTVSPost2010PropOp51
 70
     0
102
RTVSPost2010Prop52
140
1.0
102
RTVSPost2010PropOp52
 70
     0
102
RTVSPost2010Prop53
 90
        2
102
RTVSPost2010PropOp53
 70
     1
102
RTVSPost2010Prop54
  1
strokes_ogs.tif
102
RTVSPost2010PropOp54
 70
     1
102
RTVSPost2010Prop55
280
     0
102
RTVSPost2010PropOp55
 70
     1
102
RTVSPost2010Prop56
140
1.0
102
RTVSPost2010PropOp56
 70
     1
102
RTVSPost2010Prop57
140
1.0
102
RTVSPost2010PropOp57
 70
     1
  0
XRECORD
  5
18891
102
{ACAD_REACTORS
330
18890
102
}
330
18890
100
AcDbXrecord
280
     1
102
RTVSPropertyOp0
 70
     1
102
RTVSPropertyOp1
 70
     1
102
RTVSPropertyOp2
 70
     1
102
RTVSPropertyOp3
 70
     1
102
RTVSPropertyOp4
 70
     1
102
RTVSPropertyOp5
 70
     1
102
RTVSPropertyOp6
 70
     1
102
RTVSPropertyOp7
 70
     1
102
RTVSPropertyOp8
 70
     1
102
RTVSPropertyOp9
 70
     1
102
RTVSPropertyOp10
 70
     1
102
RTVSPropertyOp11
 70
     1
102
RTVSPropertyOp12
 70
     1
102
RTVSPropertyOp13
 70
     1
102
RTVSPropertyOp14
 70
     1
102
RTVSPropertyOp15
 70
     1
102
RTVSPropertyOp16
 70
     1
102
RTVSPropertyOp17
 70
     1
102
RTVSPropertyOp18
 70
     1
102
RTVSPropertyOp19
 70
     1
102
RTVSPropertyOp20
 70
     1
102
RTVSPropertyOp21
 70
     1
102
RTVSPropertyOp22
 70
     1
102
RTVSPropertyOp23
 70
     1
102
RTVSPropertyOp24
 70
     1
102
RTVSPropertyOp25
 70
     1
102
RTVSPropertyOp26
 70
     1
102
RTVSPropertyOp27
 70
     1
102
RTVSPropertyOp28
 70
     1
102
RTVSPropertyOp29
 70
     1
102
RTVSPropertyOp30
 70
     1
102
RTVSPropertyOp31
 70
     1
102
RTVSPropertyOp32
 70
     1
102
RTVSPropertyOp33
 70
     1
102
RTVSPropertyOp34
 70
     1
102
RTVSPropertyOp35
 70
     1
102
RTVSPropertyOp36
 70
     1
102
RTVSPropertyOp37
 70
     1
102
RTVSPropertyOp38
 70
     1
102
RTVSPropertyOp39
 70
     1
102
RTVSPropertyOp40
 70
     1
102
RTVSPropertyOp41
 70
     1
102
RTVSPropertyOp42
 70
     1
102
RTVSPropertyOp43
 70
     1
102
RTVSPropertyOp44
 70
     1
102
RTVSPropertyOp45
 70
     1
102
RTVSPropertyOp46
 70
     1
102
RTVSPropertyOp47
 70
     1
102
RTVSPropertyOp48
 70
     1
102
RTVSPropertyOp49
 70
     1
102
RTVSPropertyOp50
 70
     1
102
RTVSPropertyOp51
 70
     0
102
RTVSPropertyOp52
 70
     0
102
RTVSPropertyOp53
 70
     1
102
RTVSPropertyOp54
 70
     1
102
RTVSPropertyOp55
 70
     1
102
RTVSPropertyOp56
 70
     1
102
RTVSPropertyOp57
 70
     1
102
RTVSPost2010Prop28
280
     0
102
RTVSPost2010PropOp28
 70
     1
102
RTVSPost2010Prop29
280
     1
102
RTVSPost2010PropOp29
 70
     1
102
RTVSPost2010Prop30
280
     1
102
RTVSPost2010PropOp30
 70
     1
102
RTVSPost2010Prop31
280
     0
102
RTVSPost2010PropOp31
 70
     1
102
RTVSPost2010Prop32
280
     0
102
RTVSPost2010PropOp32
 70
     1
102
RTVSPost2010Prop33
280
     0
102
RTVSPost2010PropOp33
 70
     1
102
RTVSPost2010Prop34
280
     0
102
RTVSPost2010PropOp34
 70
     1
102
RTVSPost2010Prop35
280
     0
102
RTVSPost2010PropOp35
 70
     1
102
RTVSPost2010Prop36
280
     0
102
RTVSPost2010PropOp36
 70
     1
102
RTVSPost2010Prop37
 90
       50
102
RTVSPost2010PropOp37
 70
     1
102
RTVSPost2010Prop38
140
0.0
102
RTVSPost2010PropOp38
 70
     1
102
RTVSPost2010Prop39
140
1.0
102
RTVSPost2010PropOp39
 70
     1
102
RTVSPost2010Prop40
 90
        0
102
RTVSPost2010PropOp40
 70
     1
102
RTVSPost2010Prop41ColorIndex
 90
       18
102
RTVSPost2010Prop41ColorRGB
 90
        0
102
RTVSPost2010PropOp41
 70
     1
102
RTVSPost2010Prop42
 90
       50
102
RTVSPost2010PropOp42
 70
     1
102
RTVSPost2010Prop43
 90
        3
102
RTVSPost2010PropOp43
 70
     1
102
RTVSPost2010Prop44ColorIndex
 90
        5
102
RTVSPost2010Prop44ColorRGB
 90
      255
102
RTVSPost2010PropOp44
 70
     1
102
RTVSPost2010Prop45
280
     0
102
RTVSPost2010PropOp45
 70
     1
102
RTVSPost2010Prop46
 90
       50
102
RTVSPost2010PropOp46
 70
     1
102
RTVSPost2010Prop47
 90
       50
102
RTVSPost2010PropOp47
 70
     1
102
RTVSPost2010Prop48
 90
       50
102
RTVSPost2010PropOp48
 70
     1
102
RTVSPost2010Prop49
280
     0
102
RTVSPost2010PropOp49
 70
     1
102
RTVSPost2010Prop50
 90
       50
102
RTVSPost2010PropOp50
 70
     1
102
RTVSPost2010Prop51ColorIndex
 90
      256
102
RTVSPost2010Prop51ColorRGB
 90
-16777216
102
RTVSPost2010PropOp51
 70
     0
102
RTVSPost2010Prop52
140
1.0
102
RTVSPost2010PropOp52
 70
     0
102
RTVSPost2010Prop53
 90
        2
102
RTVSPost2010PropOp53
 70
     1
102
RTVSPost2010Prop54
  1
strokes_ogs.tif
102
RTVSPost2010PropOp54
 70
     1
102
RTVSPost2010Prop55
280
     0
102
RTVSPost2010PropOp55
 70
     1
102
RTVSPost2010Prop56
140
1.0
102
RTVSPost2010PropOp56
 70
     1
102
RTVSPost2010Prop57
140
1.0
102
RTVSPost2010PropOp57
 70
     1
  0
XRECORD
  5
18893
102
{ACAD_REACTORS
330
18892
102
}
330
18892
100
AcDbXrecord
280
     1
102
RTVSPropertyOp0
 70
     0
102
RTVSPropertyOp1
 70
     0
102
RTVSPropertyOp2
 70
     0
102
RTVSPropertyOp3
 70
     0
102
RTVSPropertyOp4
 70
     0
102
RTVSPropertyOp5
 70
     0
102
RTVSPropertyOp6
 70
     0
102
RTVSPropertyOp7
 70
     0
102
RTVSPropertyOp8
 70
     0
102
RTVSPropertyOp9
 70
     0
102
RTVSPropertyOp10
 70
     0
102
RTVSPropertyOp11
 70
     0
102
RTVSPropertyOp12
 70
     0
102
RTVSPropertyOp13
 70
     0
102
RTVSPropertyOp14
 70
     2
102
RTVSPropertyOp15
 70
     0
102
RTVSPropertyOp16
 70
     0
102
RTVSPropertyOp17
 70
     0
102
RTVSPropertyOp18
 70
     0
102
RTVSPropertyOp19
 70
     0
102
RTVSPropertyOp20
 70
     0
102
RTVSPropertyOp21
 70
     0
102
RTVSPropertyOp22
 70
     0
102
RTVSPropertyOp23
 70
     0
102
RTVSPropertyOp24
 70
     0
102
RTVSPropertyOp25
 70
     0
102
RTVSPropertyOp26
 70
     0
102
RTVSPropertyOp27
 70
     0
102
RTVSPropertyOp28
 70
     1
102
RTVSPropertyOp29
 70
     1
102
RTVSPropertyOp30
 70
     1
102
RTVSPropertyOp31
 70
     1
102
RTVSPropertyOp32
 70
     1
102
RTVSPropertyOp33
 70
     1
102
RTVSPropertyOp34
 70
     1
102
RTVSPropertyOp35
 70
     1
102
RTVSPropertyOp36
 70
     1
102
RTVSPropertyOp37
 70
     1
102
RTVSPropertyOp38
 70
     1
102
RTVSPropertyOp39
 70
     1
102
RTVSPropertyOp40
 70
     1
102
RTVSPropertyOp41
 70
     1
102
RTVSPropertyOp42
 70
     1
102
RTVSPropertyOp43
 70
     1
102
RTVSPropertyOp44
 70
     1
102
RTVSPropertyOp45
 70
     1
102
RTVSPropertyOp46
 70
     1
102
RTVSPropertyOp47
 70
     1
102
RTVSPropertyOp48
 70
     1
102
RTVSPropertyOp49
 70
     1
102
RTVSPropertyOp50
 70
     1
102
RTVSPropertyOp51
 70
     0
102
RTVSPropertyOp52
 70
     0
102
RTVSPropertyOp53
 70
     1
102
RTVSPropertyOp54
 70
     1
102
RTVSPropertyOp55
 70
     1
102
RTVSPropertyOp56
 70
     1
102
RTVSPropertyOp57
 70
     1
102
RTVSPost2010Prop28
280
     0
102
RTVSPost2010PropOp28
 70
     1
102
RTVSPost2010Prop29
280
     1
102
RTVSPost2010PropOp29
 70
     1
102
RTVSPost2010Prop30
280
     1
102
RTVSPost2010PropOp30
 70
     1
102
RTVSPost2010Prop31
280
     0
102
RTVSPost2010PropOp31
 70
     1
102
RTVSPost2010Prop32
280
     0
102
RTVSPost2010PropOp32
 70
     1
102
RTVSPost2010Prop33
280
     0
102
RTVSPost2010PropOp33
 70
     1
102
RTVSPost2010Prop34
280
     0
102
RTVSPost2010PropOp34
 70
     1
102
RTVSPost2010Prop35
280
     0
102
RTVSPost2010PropOp35
 70
     1
102
RTVSPost2010Prop36
280
     0
102
RTVSPost2010PropOp36
 70
     1
102
RTVSPost2010Prop37
 90
       50
102
RTVSPost2010PropOp37
 70
     1
102
RTVSPost2010Prop38
140
0.0
102
RTVSPost2010PropOp38
 70
     1
102
RTVSPost2010Prop39
140
1.0
102
RTVSPost2010PropOp39
 70
     1
102
RTVSPost2010Prop40
 90
        0
102
RTVSPost2010PropOp40
 70
     1
102
RTVSPost2010Prop41ColorIndex
 90
       18
102
RTVSPost2010Prop41ColorRGB
 90
        0
102
RTVSPost2010PropOp41
 70
     1
102
RTVSPost2010Prop42
 90
       50
102
RTVSPost2010PropOp42
 70
     1
102
RTVSPost2010Prop43
 90
        3
102
RTVSPost2010PropOp43
 70
     1
102
RTVSPost2010Prop44ColorIndex
 90
        5
102
RTVSPost2010Prop44ColorRGB
 90
      255
102
RTVSPost2010PropOp44
 70
     1
102
RTVSPost2010Prop45
280
     0
102
RTVSPost2010PropOp45
 70
     1
102
RTVSPost2010Prop46
 90
       50
102
RTVSPost2010PropOp46
 70
     1
102
RTVSPost2010Prop47
 90
       50
102
RTVSPost2010PropOp47
 70
     1
102
RTVSPost2010Prop48
 90
       50
102
RTVSPost2010PropOp48
 70
     1
102
RTVSPost2010Prop49
280
     0
102
RTVSPost2010PropOp49
 70
     1
102
RTVSPost2010Prop50
 90
       50
102
RTVSPost2010PropOp50
 70
     1
102
RTVSPost2010Prop51ColorIndex
 90
      256
102
RTVSPost2010Prop51ColorRGB
 90
-16777216
102
RTVSPost2010PropOp51
 70
     0
102
RTVSPost2010Prop52
140
1.0
102
RTVSPost2010PropOp52
 70
     0
102
RTVSPost2010Prop53
 90
        2
102
RTVSPost2010PropOp53
 70
     1
102
RTVSPost2010Prop54
  1
strokes_ogs.tif
102
RTVSPost2010PropOp54
 70
     1
102
RTVSPost2010Prop55
280
     0
102
RTVSPost2010PropOp55
 70
     1
102
RTVSPost2010Prop56
140
1.0
102
RTVSPost2010PropOp56
 70
     1
102
RTVSPost2010Prop57
140
1.0
102
RTVSPost2010PropOp57
 70
     1
  0
XRECORD
  5
18895
102
{ACAD_REACTORS
330
18894
102
}
330
18894
100
AcDbXrecord
280
     1
102
RTVSPropertyOp0
 70
     1
102
RTVSPropertyOp1
 70
     1
102
RTVSPropertyOp2
 70
     1
102
RTVSPropertyOp3
 70
     1
102
RTVSPropertyOp4
 70
     1
102
RTVSPropertyOp5
 70
     1
102
RTVSPropertyOp6
 70
     1
102
RTVSPropertyOp7
 70
     1
102
RTVSPropertyOp8
 70
     1
102
RTVSPropertyOp9
 70
     1
102
RTVSPropertyOp10
 70
     1
102
RTVSPropertyOp11
 70
     1
102
RTVSPropertyOp12
 70
     1
102
RTVSPropertyOp13
 70
     1
102
RTVSPropertyOp14
 70
     1
102
RTVSPropertyOp15
 70
     1
102
RTVSPropertyOp16
 70
     1
102
RTVSPropertyOp17
 70
     1
102
RTVSPropertyOp18
 70
     1
102
RTVSPropertyOp19
 70
     1
102
RTVSPropertyOp20
 70
     1
102
RTVSPropertyOp21
 70
     1
102
RTVSPropertyOp22
 70
     1
102
RTVSPropertyOp23
 70
     1
102
RTVSPropertyOp24
 70
     1
102
RTVSPropertyOp25
 70
     1
102
RTVSPropertyOp26
 70
     1
102
RTVSPropertyOp27
 70
     1
102
RTVSPropertyOp28
 70
     1
102
RTVSPropertyOp29
 70
     1
102
RTVSPropertyOp30
 70
     1
102
RTVSPropertyOp31
 70
     1
102
RTVSPropertyOp32
 70
     1
102
RTVSPropertyOp33
 70
     1
102
RTVSPropertyOp34
 70
     1
102
RTVSPropertyOp35
 70
     1
102
RTVSPropertyOp36
 70
     1
102
RTVSPropertyOp37
 70
     1
102
RTVSPropertyOp38
 70
     1
102
RTVSPropertyOp39
 70
     1
102
RTVSPropertyOp40
 70
     1
102
RTVSPropertyOp41
 70
     1
102
RTVSPropertyOp42
 70
     1
102
RTVSPropertyOp43
 70
     1
102
RTVSPropertyOp44
 70
     1
102
RTVSPropertyOp45
 70
     1
102
RTVSPropertyOp46
 70
     1
102
RTVSPropertyOp47
 70
     1
102
RTVSPropertyOp48
 70
     1
102
RTVSPropertyOp49
 70
     1
102
RTVSPropertyOp50
 70
     1
102
RTVSPropertyOp51
 70
     0
102
RTVSPropertyOp52
 70
     0
102
RTVSPropertyOp53
 70
     1
102
RTVSPropertyOp54
 70
     1
102
RTVSPropertyOp55
 70
     1
102
RTVSPropertyOp56
 70
     1
102
RTVSPropertyOp57
 70
     1
102
RTVSPost2010Prop28
280
     0
102
RTVSPost2010PropOp28
 70
     1
102
RTVSPost2010Prop29
280
     1
102
RTVSPost2010PropOp29
 70
     1
102
RTVSPost2010Prop30
280
     1
102
RTVSPost2010PropOp30
 70
     1
102
RTVSPost2010Prop31
280
     0
102
RTVSPost2010PropOp31
 70
     1
102
RTVSPost2010Prop32
280
     0
102
RTVSPost2010PropOp32
 70
     1
102
RTVSPost2010Prop33
280
     0
102
RTVSPost2010PropOp33
 70
     1
102
RTVSPost2010Prop34
280
     0
102
RTVSPost2010PropOp34
 70
     1
102
RTVSPost2010Prop35
280
     0
102
RTVSPost2010PropOp35
 70
     1
102
RTVSPost2010Prop36
280
     0
102
RTVSPost2010PropOp36
 70
     1
102
RTVSPost2010Prop37
 90
       50
102
RTVSPost2010PropOp37
 70
     1
102
RTVSPost2010Prop38
140
0.0
102
RTVSPost2010PropOp38
 70
     1
102
RTVSPost2010Prop39
140
1.0
102
RTVSPost2010PropOp39
 70
     1
102
RTVSPost2010Prop40
 90
        0
102
RTVSPost2010PropOp40
 70
     1
102
RTVSPost2010Prop41ColorIndex
 90
       18
102
RTVSPost2010Prop41ColorRGB
 90
        0
102
RTVSPost2010PropOp41
 70
     1
102
RTVSPost2010Prop42
 90
       50
102
RTVSPost2010PropOp42
 70
     1
102
RTVSPost2010Prop43
 90
        3
102
RTVSPost2010PropOp43
 70
     1
102
RTVSPost2010Prop44ColorIndex
 90
        5
102
RTVSPost2010Prop44ColorRGB
 90
      255
102
RTVSPost2010PropOp44
 70
     1
102
RTVSPost2010Prop45
280
     0
102
RTVSPost2010PropOp45
 70
     1
102
RTVSPost2010Prop46
 90
       50
102
RTVSPost2010PropOp46
 70
     1
102
RTVSPost2010Prop47
 90
       50
102
RTVSPost2010PropOp47
 70
     1
102
RTVSPost2010Prop48
 90
       50
102
RTVSPost2010PropOp48
 70
     1
102
RTVSPost2010Prop49
280
     0
102
RTVSPost2010PropOp49
 70
     1
102
RTVSPost2010Prop50
 90
       50
102
RTVSPost2010PropOp50
 70
     1
102
RTVSPost2010Prop51ColorIndex
 90
      256
102
RTVSPost2010Prop51ColorRGB
 90
-16777216
102
RTVSPost2010PropOp51
 70
     0
102
RTVSPost2010Prop52
140
1.0
102
RTVSPost2010PropOp52
 70
     0
102
RTVSPost2010Prop53
 90
        2
102
RTVSPost2010PropOp53
 70
     1
102
RTVSPost2010Prop54
  1
strokes_ogs.tif
102
RTVSPost2010PropOp54
 70
     1
102
RTVSPost2010Prop55
280
     0
102
RTVSPost2010PropOp55
 70
     1
102
RTVSPost2010Prop56
140
1.0
102
RTVSPost2010PropOp56
 70
     1
102
RTVSPost2010Prop57
140
1.0
102
RTVSPost2010PropOp57
 70
     1
  0
XRECORD
  5
18897
102
{ACAD_REACTORS
330
18896
102
}
330
18896
100
AcDbXrecord
280
     1
102
RTVSPropertyOp0
 70
     0
102
RTVSPropertyOp1
 70
     0
102
RTVSPropertyOp2
 70
     0
102
RTVSPropertyOp3
 70
     0
102
RTVSPropertyOp4
 70
     0
102
RTVSPropertyOp5
 70
     0
102
RTVSPropertyOp6
 70
     0
102
RTVSPropertyOp7
 70
     0
102
RTVSPropertyOp8
 70
     0
102
RTVSPropertyOp9
 70
     0
102
RTVSPropertyOp10
 70
     0
102
RTVSPropertyOp11
 70
     0
102
RTVSPropertyOp12
 70
     0
102
RTVSPropertyOp13
 70
     0
102
RTVSPropertyOp14
 70
     2
102
RTVSPropertyOp15
 70
     0
102
RTVSPropertyOp16
 70
     0
102
RTVSPropertyOp17
 70
     0
102
RTVSPropertyOp18
 70
     0
102
RTVSPropertyOp19
 70
     0
102
RTVSPropertyOp20
 70
     0
102
RTVSPropertyOp21
 70
     0
102
RTVSPropertyOp22
 70
     0
102
RTVSPropertyOp23
 70
     0
102
RTVSPropertyOp24
 70
     0
102
RTVSPropertyOp25
 70
     0
102
RTVSPropertyOp26
 70
     0
102
RTVSPropertyOp27
 70
     0
102
RTVSPropertyOp28
 70
     1
102
RTVSPropertyOp29
 70
     1
102
RTVSPropertyOp30
 70
     1
102
RTVSPropertyOp31
 70
     1
102
RTVSPropertyOp32
 70
     1
102
RTVSPropertyOp33
 70
     1
102
RTVSPropertyOp34
 70
     1
102
RTVSPropertyOp35
 70
     1
102
RTVSPropertyOp36
 70
     1
102
RTVSPropertyOp37
 70
     1
102
RTVSPropertyOp38
 70
     1
102
RTVSPropertyOp39
 70
     1
102
RTVSPropertyOp40
 70
     1
102
RTVSPropertyOp41
 70
     1
102
RTVSPropertyOp42
 70
     1
102
RTVSPropertyOp43
 70
     1
102
RTVSPropertyOp44
 70
     1
102
RTVSPropertyOp45
 70
     1
102
RTVSPropertyOp46
 70
     1
102
RTVSPropertyOp47
 70
     1
102
RTVSPropertyOp48
 70
     1
102
RTVSPropertyOp49
 70
     1
102
RTVSPropertyOp50
 70
     1
102
RTVSPropertyOp51
 70
     0
102
RTVSPropertyOp52
 70
     0
102
RTVSPropertyOp53
 70
     1
102
RTVSPropertyOp54
 70
     1
102
RTVSPropertyOp55
 70
     1
102
RTVSPropertyOp56
 70
     1
102
RTVSPropertyOp57
 70
     1
102
RTVSPost2010Prop28
280
     0
102
RTVSPost2010PropOp28
 70
     1
102
RTVSPost2010Prop29
280
     1
102
RTVSPost2010PropOp29
 70
     1
102
RTVSPost2010Prop30
280
     1
102
RTVSPost2010PropOp30
 70
     1
102
RTVSPost2010Prop31
280
     0
102
RTVSPost2010PropOp31
 70
     1
102
RTVSPost2010Prop32
280
     0
102
RTVSPost2010PropOp32
 70
     1
102
RTVSPost2010Prop33
280
     0
102
RTVSPost2010PropOp33
 70
     1
102
RTVSPost2010Prop34
280
     0
102
RTVSPost2010PropOp34
 70
     1
102
RTVSPost2010Prop35
280
     0
102
RTVSPost2010PropOp35
 70
     1
102
RTVSPost2010Prop36
280
     0
102
RTVSPost2010PropOp36
 70
     1
102
RTVSPost2010Prop37
 90
       50
102
RTVSPost2010PropOp37
 70
     1
102
RTVSPost2010Prop38
140
0.0
102
RTVSPost2010PropOp38
 70
     1
102
RTVSPost2010Prop39
140
1.0
102
RTVSPost2010PropOp39
 70
     1
102
RTVSPost2010Prop40
 90
        0
102
RTVSPost2010PropOp40
 70
     1
102
RTVSPost2010Prop41ColorIndex
 90
       18
102
RTVSPost2010Prop41ColorRGB
 90
        0
102
RTVSPost2010PropOp41
 70
     1
102
RTVSPost2010Prop42
 90
       50
102
RTVSPost2010PropOp42
 70
     1
102
RTVSPost2010Prop43
 90
        3
102
RTVSPost2010PropOp43
 70
     1
102
RTVSPost2010Prop44ColorIndex
 90
        5
102
RTVSPost2010Prop44ColorRGB
 90
      255
102
RTVSPost2010PropOp44
 70
     1
102
RTVSPost2010Prop45
280
     0
102
RTVSPost2010PropOp45
 70
     1
102
RTVSPost2010Prop46
 90
       50
102
RTVSPost2010PropOp46
 70
     1
102
RTVSPost2010Prop47
 90
       50
102
RTVSPost2010PropOp47
 70
     1
102
RTVSPost2010Prop48
 90
       50
102
RTVSPost2010PropOp48
 70
     1
102
RTVSPost2010Prop49
280
     0
102
RTVSPost2010PropOp49
 70
     1
102
RTVSPost2010Prop50
 90
       50
102
RTVSPost2010PropOp50
 70
     1
102
RTVSPost2010Prop51ColorIndex
 90
      256
102
RTVSPost2010Prop51ColorRGB
 90
-16777216
102
RTVSPost2010PropOp51
 70
     0
102
RTVSPost2010Prop52
140
1.0
102
RTVSPost2010PropOp52
 70
     0
102
RTVSPost2010Prop53
 90
        2
102
RTVSPost2010PropOp53
 70
     1
102
RTVSPost2010Prop54
  1
strokes_ogs.tif
102
RTVSPost2010PropOp54
 70
     1
102
RTVSPost2010Prop55
280
     0
102
RTVSPost2010PropOp55
 70
     1
102
RTVSPost2010Prop56
140
1.0
102
RTVSPost2010PropOp56
 70
     1
102
RTVSPost2010Prop57
140
1.0
102
RTVSPost2010PropOp57
 70
     1
  0
XRECORD
  5
18899
102
{ACAD_REACTORS
330
18898
102
}
330
18898
100
AcDbXrecord
280
     1
102
RTVSPropertyOp0
 70
     1
102
RTVSPropertyOp1
 70
     1
102
RTVSPropertyOp2
 70
     1
102
RTVSPropertyOp3
 70
     1
102
RTVSPropertyOp4
 70
     1
102
RTVSPropertyOp5
 70
     1
102
RTVSPropertyOp6
 70
     1
102
RTVSPropertyOp7
 70
     1
102
RTVSPropertyOp8
 70
     1
102
RTVSPropertyOp9
 70
     1
102
RTVSPropertyOp10
 70
     1
102
RTVSPropertyOp11
 70
     1
102
RTVSPropertyOp12
 70
     1
102
RTVSPropertyOp13
 70
     1
102
RTVSPropertyOp14
 70
     1
102
RTVSPropertyOp15
 70
     1
102
RTVSPropertyOp16
 70
     1
102
RTVSPropertyOp17
 70
     1
102
RTVSPropertyOp18
 70
     1
102
RTVSPropertyOp19
 70
     1
102
RTVSPropertyOp20
 70
     1
102
RTVSPropertyOp21
 70
     1
102
RTVSPropertyOp22
 70
     1
102
RTVSPropertyOp23
 70
     1
102
RTVSPropertyOp24
 70
     1
102
RTVSPropertyOp25
 70
     1
102
RTVSPropertyOp26
 70
     1
102
RTVSPropertyOp27
 70
     1
102
RTVSPropertyOp28
 70
     1
102
RTVSPropertyOp29
 70
     1
102
RTVSPropertyOp30
 70
     1
102
RTVSPropertyOp31
 70
     1
102
RTVSPropertyOp32
 70
     1
102
RTVSPropertyOp33
 70
     1
102
RTVSPropertyOp34
 70
     1
102
RTVSPropertyOp35
 70
     1
102
RTVSPropertyOp36
 70
     1
102
RTVSPropertyOp37
 70
     1
102
RTVSPropertyOp38
 70
     1
102
RTVSPropertyOp39
 70
     1
102
RTVSPropertyOp40
 70
     1
102
RTVSPropertyOp41
 70
     1
102
RTVSPropertyOp42
 70
     1
102
RTVSPropertyOp43
 70
     1
102
RTVSPropertyOp44
 70
     1
102
RTVSPropertyOp45
 70
     1
102
RTVSPropertyOp46
 70
     1
102
RTVSPropertyOp47
 70
     1
102
RTVSPropertyOp48
 70
     1
102
RTVSPropertyOp49
 70
     1
102
RTVSPropertyOp50
 70
     1
102
RTVSPropertyOp51
 70
     0
102
RTVSPropertyOp52
 70
     0
102
RTVSPropertyOp53
 70
     1
102
RTVSPropertyOp54
 70
     1
102
RTVSPropertyOp55
 70
     1
102
RTVSPropertyOp56
 70
     1
102
RTVSPropertyOp57
 70
     1
102
RTVSPost2010Prop28
280
     0
102
RTVSPost2010PropOp28
 70
     1
102
RTVSPost2010Prop29
280
     1
102
RTVSPost2010PropOp29
 70
     1
102
RTVSPost2010Prop30
280
     1
102
RTVSPost2010PropOp30
 70
     1
102
RTVSPost2010Prop31
280
     0
102
RTVSPost2010PropOp31
 70
     1
102
RTVSPost2010Prop32
280
     0
102
RTVSPost2010PropOp32
 70
     1
102
RTVSPost2010Prop33
280
     0
102
RTVSPost2010PropOp33
 70
     1
102
RTVSPost2010Prop34
280
     0
102
RTVSPost2010PropOp34
 70
     1
102
RTVSPost2010Prop35
280
     0
102
RTVSPost2010PropOp35
 70
     1
102
RTVSPost2010Prop36
280
     0
102
RTVSPost2010PropOp36
 70
     1
102
RTVSPost2010Prop37
 90
       50
102
RTVSPost2010PropOp37
 70
     1
102
RTVSPost2010Prop38
140
0.0
102
RTVSPost2010PropOp38
 70
     1
102
RTVSPost2010Prop39
140
1.0
102
RTVSPost2010PropOp39
 70
     1
102
RTVSPost2010Prop40
 90
        0
102
RTVSPost2010PropOp40
 70
     1
102
RTVSPost2010Prop41ColorIndex
 90
       18
102
RTVSPost2010Prop41ColorRGB
 90
        0
102
RTVSPost2010PropOp41
 70
     1
102
RTVSPost2010Prop42
 90
       50
102
RTVSPost2010PropOp42
 70
     1
102
RTVSPost2010Prop43
 90
        3
102
RTVSPost2010PropOp43
 70
     1
102
RTVSPost2010Prop44ColorIndex
 90
        5
102
RTVSPost2010Prop44ColorRGB
 90
      255
102
RTVSPost2010PropOp44
 70
     1
102
RTVSPost2010Prop45
280
     0
102
RTVSPost2010PropOp45
 70
     1
102
RTVSPost2010Prop46
 90
       50
102
RTVSPost2010PropOp46
 70
     1
102
RTVSPost2010Prop47
 90
       50
102
RTVSPost2010PropOp47
 70
     1
102
RTVSPost2010Prop48
 90
       50
102
RTVSPost2010PropOp48
 70
     1
102
RTVSPost2010Prop49
280
     0
102
RTVSPost2010PropOp49
 70
     1
102
RTVSPost2010Prop50
 90
       50
102
RTVSPost2010PropOp50
 70
     1
102
RTVSPost2010Prop51ColorIndex
 90
      256
102
RTVSPost2010Prop51ColorRGB
 90
-16777216
102
RTVSPost2010PropOp51
 70
     0
102
RTVSPost2010Prop52
140
1.0
102
RTVSPost2010PropOp52
 70
     0
102
RTVSPost2010Prop53
 90
        2
102
RTVSPost2010PropOp53
 70
     1
102
RTVSPost2010Prop54
  1
strokes_ogs.tif
102
RTVSPost2010PropOp54
 70
     1
102
RTVSPost2010Prop55
280
     0
102
RTVSPost2010PropOp55
 70
     1
102
RTVSPost2010Prop56
140
1.0
102
RTVSPost2010PropOp56
 70
     1
102
RTVSPost2010Prop57
140
1.0
102
RTVSPost2010PropOp57
 70
     1
  0
XRECORD
  5
1889B
102
{ACAD_REACTORS
330
1889A
102
}
330
1889A
100
AcDbXrecord
280
     1
102
RTVSPropertyOp0
 70
     1
102
RTVSPropertyOp1
 70
     1
102
RTVSPropertyOp2
 70
     1
102
RTVSPropertyOp3
 70
     1
102
RTVSPropertyOp4
 70
     1
102
RTVSPropertyOp5
 70
     1
102
RTVSPropertyOp6
 70
     1
102
RTVSPropertyOp7
 70
     1
102
RTVSPropertyOp8
 70
     1
102
RTVSPropertyOp9
 70
     1
102
RTVSPropertyOp10
 70
     1
102
RTVSPropertyOp11
 70
     1
102
RTVSPropertyOp12
 70
     1
102
RTVSPropertyOp13
 70
     1
102
RTVSPropertyOp14
 70
     1
102
RTVSPropertyOp15
 70
     1
102
RTVSPropertyOp16
 70
     1
102
RTVSPropertyOp17
 70
     1
102
RTVSPropertyOp18
 70
     1
102
RTVSPropertyOp19
 70
     1
102
RTVSPropertyOp20
 70
     1
102
RTVSPropertyOp21
 70
     1
102
RTVSPropertyOp22
 70
     1
102
RTVSPropertyOp23
 70
     1
102
RTVSPropertyOp24
 70
     1
102
RTVSPropertyOp25
 70
     1
102
RTVSPropertyOp26
 70
     1
102
RTVSPropertyOp27
 70
     1
102
RTVSPropertyOp28
 70
     1
102
RTVSPropertyOp29
 70
     1
102
RTVSPropertyOp30
 70
     1
102
RTVSPropertyOp31
 70
     1
102
RTVSPropertyOp32
 70
     1
102
RTVSPropertyOp33
 70
     1
102
RTVSPropertyOp34
 70
     1
102
RTVSPropertyOp35
 70
     1
102
RTVSPropertyOp36
 70
     1
102
RTVSPropertyOp37
 70
     1
102
RTVSPropertyOp38
 70
     1
102
RTVSPropertyOp39
 70
     1
102
RTVSPropertyOp40
 70
     1
102
RTVSPropertyOp41
 70
     1
102
RTVSPropertyOp42
 70
     1
102
RTVSPropertyOp43
 70
     1
102
RTVSPropertyOp44
 70
     1
102
RTVSPropertyOp45
 70
     1
102
RTVSPropertyOp46
 70
     1
102
RTVSPropertyOp47
 70
     1
102
RTVSPropertyOp48
 70
     1
102
RTVSPropertyOp49
 70
     1
102
RTVSPropertyOp50
 70
     1
102
RTVSPropertyOp51
 70
     0
102
RTVSPropertyOp52
 70
     0
102
RTVSPropertyOp53
 70
     1
102
RTVSPropertyOp54
 70
     1
102
RTVSPropertyOp55
 70
     1
102
RTVSPropertyOp56
 70
     1
102
RTVSPropertyOp57
 70
     1
102
RTVSPost2010Prop28
280
     0
102
RTVSPost2010PropOp28
 70
     1
102
RTVSPost2010Prop29
280
     1
102
RTVSPost2010PropOp29
 70
     1
102
RTVSPost2010Prop30
280
     1
102
RTVSPost2010PropOp30
 70
     1
102
RTVSPost2010Prop31
280
     0
102
RTVSPost2010PropOp31
 70
     1
102
RTVSPost2010Prop32
280
     0
102
RTVSPost2010PropOp32
 70
     1
102
RTVSPost2010Prop33
280
     0
102
RTVSPost2010PropOp33
 70
     1
102
RTVSPost2010Prop34
280
     0
102
RTVSPost2010PropOp34
 70
     1
102
RTVSPost2010Prop35
280
     0
102
RTVSPost2010PropOp35
 70
     1
102
RTVSPost2010Prop36
280
     0
102
RTVSPost2010PropOp36
 70
     1
102
RTVSPost2010Prop37
 90
       50
102
RTVSPost2010PropOp37
 70
     1
102
RTVSPost2010Prop38
140
0.0
102
RTVSPost2010PropOp38
 70
     1
102
RTVSPost2010Prop39
140
1.0
102
RTVSPost2010PropOp39
 70
     1
102
RTVSPost2010Prop40
 90
        0
102
RTVSPost2010PropOp40
 70
     1
102
RTVSPost2010Prop41ColorIndex
 90
       18
102
RTVSPost2010Prop41ColorRGB
 90
        0
102
RTVSPost2010PropOp41
 70
     1
102
RTVSPost2010Prop42
 90
       50
102
RTVSPost2010PropOp42
 70
     1
102
RTVSPost2010Prop43
 90
        3
102
RTVSPost2010PropOp43
 70
     1
102
RTVSPost2010Prop44ColorIndex
 90
        5
102
RTVSPost2010Prop44ColorRGB
 90
      255
102
RTVSPost2010PropOp44
 70
     1
102
RTVSPost2010Prop45
280
     0
102
RTVSPost2010PropOp45
 70
     1
102
RTVSPost2010Prop46
 90
       50
102
RTVSPost2010PropOp46
 70
     1
102
RTVSPost2010Prop47
 90
       50
102
RTVSPost2010PropOp47
 70
     1
102
RTVSPost2010Prop48
 90
       50
102
RTVSPost2010PropOp48
 70
     1
102
RTVSPost2010Prop49
280
     0
102
RTVSPost2010PropOp49
 70
     1
102
RTVSPost2010Prop50
 90
       50
102
RTVSPost2010PropOp50
 70
     1
102
RTVSPost2010Prop51ColorIndex
 90
      256
102
RTVSPost2010Prop51ColorRGB
 90
-16777216
102
RTVSPost2010PropOp51
 70
     0
102
RTVSPost2010Prop52
140
1.0
102
RTVSPost2010PropOp52
 70
     0
102
RTVSPost2010Prop53
 90
        2
102
RTVSPost2010PropOp53
 70
     1
102
RTVSPost2010Prop54
  1
strokes_ogs.tif
102
RTVSPost2010PropOp54
 70
     1
102
RTVSPost2010Prop55
280
     0
102
RTVSPost2010PropOp55
 70
     1
102
RTVSPost2010Prop56
140
1.0
102
RTVSPost2010PropOp56
 70
     1
102
RTVSPost2010Prop57
140
1.0
102
RTVSPost2010PropOp57
 70
     1
  0
XRECORD
  5
1889D
102
{ACAD_REACTORS
330
1889C
102
}
330
1889C
100
AcDbXrecord
280
     1
102
RTVSPropertyOp0
 70
     1
102
RTVSPropertyOp1
 70
     1
102
RTVSPropertyOp2
 70
     1
102
RTVSPropertyOp3
 70
     1
102
RTVSPropertyOp4
 70
     1
102
RTVSPropertyOp5
 70
     1
102
RTVSPropertyOp6
 70
     1
102
RTVSPropertyOp7
 70
     1
102
RTVSPropertyOp8
 70
     1
102
RTVSPropertyOp9
 70
     1
102
RTVSPropertyOp10
 70
     1
102
RTVSPropertyOp11
 70
     1
102
RTVSPropertyOp12
 70
     1
102
RTVSPropertyOp13
 70
     1
102
RTVSPropertyOp14
 70
     1
102
RTVSPropertyOp15
 70
     1
102
RTVSPropertyOp16
 70
     1
102
RTVSPropertyOp17
 70
     1
102
RTVSPropertyOp18
 70
     1
102
RTVSPropertyOp19
 70
     1
102
RTVSPropertyOp20
 70
     1
102
RTVSPropertyOp21
 70
     1
102
RTVSPropertyOp22
 70
     1
102
RTVSPropertyOp23
 70
     1
102
RTVSPropertyOp24
 70
     1
102
RTVSPropertyOp25
 70
     1
102
RTVSPropertyOp26
 70
     1
102
RTVSPropertyOp27
 70
     1
102
RTVSPropertyOp28
 70
     1
102
RTVSPropertyOp29
 70
     1
102
RTVSPropertyOp30
 70
     1
102
RTVSPropertyOp31
 70
     1
102
RTVSPropertyOp32
 70
     1
102
RTVSPropertyOp33
 70
     1
102
RTVSPropertyOp34
 70
     1
102
RTVSPropertyOp35
 70
     1
102
RTVSPropertyOp36
 70
     1
102
RTVSPropertyOp37
 70
     1
102
RTVSPropertyOp38
 70
     1
102
RTVSPropertyOp39
 70
     1
102
RTVSPropertyOp40
 70
     1
102
RTVSPropertyOp41
 70
     1
102
RTVSPropertyOp42
 70
     1
102
RTVSPropertyOp43
 70
     1
102
RTVSPropertyOp44
 70
     1
102
RTVSPropertyOp45
 70
     1
102
RTVSPropertyOp46
 70
     1
102
RTVSPropertyOp47
 70
     1
102
RTVSPropertyOp48
 70
     1
102
RTVSPropertyOp49
 70
     1
102
RTVSPropertyOp50
 70
     1
102
RTVSPropertyOp51
 70
     0
102
RTVSPropertyOp52
 70
     0
102
RTVSPropertyOp53
 70
     1
102
RTVSPropertyOp54
 70
     1
102
RTVSPropertyOp55
 70
     1
102
RTVSPropertyOp56
 70
     1
102
RTVSPropertyOp57
 70
     1
102
RTVSPost2010Prop28
280
     0
102
RTVSPost2010PropOp28
 70
     1
102
RTVSPost2010Prop29
280
     1
102
RTVSPost2010PropOp29
 70
     1
102
RTVSPost2010Prop30
280
     1
102
RTVSPost2010PropOp30
 70
     1
102
RTVSPost2010Prop31
280
     0
102
RTVSPost2010PropOp31
 70
     1
102
RTVSPost2010Prop32
280
     0
102
RTVSPost2010PropOp32
 70
     1
102
RTVSPost2010Prop33
280
     0
102
RTVSPost2010PropOp33
 70
     1
102
RTVSPost2010Prop34
280
     0
102
RTVSPost2010PropOp34
 70
     1
102
RTVSPost2010Prop35
280
     0
102
RTVSPost2010PropOp35
 70
     1
102
RTVSPost2010Prop36
280
     0
102
RTVSPost2010PropOp36
 70
     1
102
RTVSPost2010Prop37
 90
       50
102
RTVSPost2010PropOp37
 70
     1
102
RTVSPost2010Prop38
140
0.0
102
RTVSPost2010PropOp38
 70
     1
102
RTVSPost2010Prop39
140
1.0
102
RTVSPost2010PropOp39
 70
     1
102
RTVSPost2010Prop40
 90
        0
102
RTVSPost2010PropOp40
 70
     1
102
RTVSPost2010Prop41ColorIndex
 90
       18
102
RTVSPost2010Prop41ColorRGB
 90
        0
102
RTVSPost2010PropOp41
 70
     1
102
RTVSPost2010Prop42
 90
       50
102
RTVSPost2010PropOp42
 70
     1
102
RTVSPost2010Prop43
 90
        3
102
RTVSPost2010PropOp43
 70
     1
102
RTVSPost2010Prop44ColorIndex
 90
        5
102
RTVSPost2010Prop44ColorRGB
 90
      255
102
RTVSPost2010PropOp44
 70
     1
102
RTVSPost2010Prop45
280
     0
102
RTVSPost2010PropOp45
 70
     1
102
RTVSPost2010Prop46
 90
       50
102
RTVSPost2010PropOp46
 70
     1
102
RTVSPost2010Prop47
 90
       50
102
RTVSPost2010PropOp47
 70
     1
102
RTVSPost2010Prop48
 90
       50
102
RTVSPost2010PropOp48
 70
     1
102
RTVSPost2010Prop49
280
     0
102
RTVSPost2010PropOp49
 70
     1
102
RTVSPost2010Prop50
 90
       50
102
RTVSPost2010PropOp50
 70
     1
102
RTVSPost2010Prop51ColorIndex
 90
      256
102
RTVSPost2010Prop51ColorRGB
 90
-16777216
102
RTVSPost2010PropOp51
 70
     0
102
RTVSPost2010Prop52
140
1.0
102
RTVSPost2010PropOp52
 70
     0
102
RTVSPost2010Prop53
 90
        2
102
RTVSPost2010PropOp53
 70
     1
102
RTVSPost2010Prop54
  1
strokes_ogs.tif
102
RTVSPost2010PropOp54
 70
     1
102
RTVSPost2010Prop55
280
     0
102
RTVSPost2010PropOp55
 70
     1
102
RTVSPost2010Prop56
140
1.0
102
RTVSPost2010PropOp56
 70
     1
102
RTVSPost2010Prop57
140
1.0
102
RTVSPost2010PropOp57
 70
     1
  0
XRECORD
  5
1889F
102
{ACAD_REACTORS
330
1889E
102
}
330
1889E
100
AcDbXrecord
280
     1
102
RTVSPropertyOp0
 70
     1
102
RTVSPropertyOp1
 70
     1
102
RTVSPropertyOp2
 70
     1
102
RTVSPropertyOp3
 70
     1
102
RTVSPropertyOp4
 70
     1
102
RTVSPropertyOp5
 70
     1
102
RTVSPropertyOp6
 70
     1
102
RTVSPropertyOp7
 70
     1
102
RTVSPropertyOp8
 70
     1
102
RTVSPropertyOp9
 70
     1
102
RTVSPropertyOp10
 70
     1
102
RTVSPropertyOp11
 70
     1
102
RTVSPropertyOp12
 70
     1
102
RTVSPropertyOp13
 70
     1
102
RTVSPropertyOp14
 70
     1
102
RTVSPropertyOp15
 70
     1
102
RTVSPropertyOp16
 70
     1
102
RTVSPropertyOp17
 70
     1
102
RTVSPropertyOp18
 70
     1
102
RTVSPropertyOp19
 70
     1
102
RTVSPropertyOp20
 70
     1
102
RTVSPropertyOp21
 70
     1
102
RTVSPropertyOp22
 70
     1
102
RTVSPropertyOp23
 70
     1
102
RTVSPropertyOp24
 70
     1
102
RTVSPropertyOp25
 70
     1
102
RTVSPropertyOp26
 70
     1
102
RTVSPropertyOp27
 70
     1
102
RTVSPropertyOp28
 70
     1
102
RTVSPropertyOp29
 70
     1
102
RTVSPropertyOp30
 70
     1
102
RTVSPropertyOp31
 70
     1
102
RTVSPropertyOp32
 70
     1
102
RTVSPropertyOp33
 70
     1
102
RTVSPropertyOp34
 70
     1
102
RTVSPropertyOp35
 70
     1
102
RTVSPropertyOp36
 70
     1
102
RTVSPropertyOp37
 70
     1
102
RTVSPropertyOp38
 70
     1
102
RTVSPropertyOp39
 70
     1
102
RTVSPropertyOp40
 70
     1
102
RTVSPropertyOp41
 70
     1
102
RTVSPropertyOp42
 70
     1
102
RTVSPropertyOp43
 70
     1
102
RTVSPropertyOp44
 70
     1
102
RTVSPropertyOp45
 70
     1
102
RTVSPropertyOp46
 70
     1
102
RTVSPropertyOp47
 70
     1
102
RTVSPropertyOp48
 70
     1
102
RTVSPropertyOp49
 70
     1
102
RTVSPropertyOp50
 70
     1
102
RTVSPropertyOp51
 70
     0
102
RTVSPropertyOp52
 70
     0
102
RTVSPropertyOp53
 70
     1
102
RTVSPropertyOp54
 70
     1
102
RTVSPropertyOp55
 70
     1
102
RTVSPropertyOp56
 70
     1
102
RTVSPropertyOp57
 70
     1
102
RTVSPost2010Prop28
280
     0
102
RTVSPost2010PropOp28
 70
     1
102
RTVSPost2010Prop29
280
     1
102
RTVSPost2010PropOp29
 70
     1
102
RTVSPost2010Prop30
280
     1
102
RTVSPost2010PropOp30
 70
     1
102
RTVSPost2010Prop31
280
     0
102
RTVSPost2010PropOp31
 70
     1
102
RTVSPost2010Prop32
280
     0
102
RTVSPost2010PropOp32
 70
     1
102
RTVSPost2010Prop33
280
     0
102
RTVSPost2010PropOp33
 70
     1
102
RTVSPost2010Prop34
280
     0
102
RTVSPost2010PropOp34
 70
     1
102
RTVSPost2010Prop35
280
     0
102
RTVSPost2010PropOp35
 70
     1
102
RTVSPost2010Prop36
280
     0
102
RTVSPost2010PropOp36
 70
     1
102
RTVSPost2010Prop37
 90
       50
102
RTVSPost2010PropOp37
 70
     1
102
RTVSPost2010Prop38
140
0.0
102
RTVSPost2010PropOp38
 70
     1
102
RTVSPost2010Prop39
140
1.0
102
RTVSPost2010PropOp39
 70
     1
102
RTVSPost2010Prop40
 90
        0
102
RTVSPost2010PropOp40
 70
     1
102
RTVSPost2010Prop41ColorIndex
 90
       18
102
RTVSPost2010Prop41ColorRGB
 90
        0
102
RTVSPost2010PropOp41
 70
     1
102
RTVSPost2010Prop42
 90
       50
102
RTVSPost2010PropOp42
 70
     1
102
RTVSPost2010Prop43
 90
        3
102
RTVSPost2010PropOp43
 70
     1
102
RTVSPost2010Prop44ColorIndex
 90
        5
102
RTVSPost2010Prop44ColorRGB
 90
      255
102
RTVSPost2010PropOp44
 70
     1
102
RTVSPost2010Prop45
280
     0
102
RTVSPost2010PropOp45
 70
     1
102
RTVSPost2010Prop46
 90
       50
102
RTVSPost2010PropOp46
 70
     1
102
RTVSPost2010Prop47
 90
       50
102
RTVSPost2010PropOp47
 70
     1
102
RTVSPost2010Prop48
 90
       50
102
RTVSPost2010PropOp48
 70
     1
102
RTVSPost2010Prop49
280
     0
102
RTVSPost2010PropOp49
 70
     1
102
RTVSPost2010Prop50
 90
       50
102
RTVSPost2010PropOp50
 70
     1
102
RTVSPost2010Prop51ColorIndex
 90
      256
102
RTVSPost2010Prop51ColorRGB
 90
-16777216
102
RTVSPost2010PropOp51
 70
     0
102
RTVSPost2010Prop52
140
1.0
102
RTVSPost2010PropOp52
 70
     0
102
RTVSPost2010Prop53
 90
        2
102
RTVSPost2010PropOp53
 70
     1
102
RTVSPost2010Prop54
  1
strokes_ogs.tif
102
RTVSPost2010PropOp54
 70
     1
102
RTVSPost2010Prop55
280
     0
102
RTVSPost2010PropOp55
 70
     1
102
RTVSPost2010Prop56
140
1.0
102
RTVSPost2010PropOp56
 70
     1
102
RTVSPost2010Prop57
140
1.0
102
RTVSPost2010PropOp57
 70
     1
  0
XRECORD
  5
188A1
102
{ACAD_REACTORS
330
188A0
102
}
330
188A0
100
AcDbXrecord
280
     1
102
RTVSPropertyOp0
 70
     1
102
RTVSPropertyOp1
 70
     1
102
RTVSPropertyOp2
 70
     1
102
RTVSPropertyOp3
 70
     1
102
RTVSPropertyOp4
 70
     1
102
RTVSPropertyOp5
 70
     1
102
RTVSPropertyOp6
 70
     1
102
RTVSPropertyOp7
 70
     1
102
RTVSPropertyOp8
 70
     1
102
RTVSPropertyOp9
 70
     1
102
RTVSPropertyOp10
 70
     1
102
RTVSPropertyOp11
 70
     1
102
RTVSPropertyOp12
 70
     1
102
RTVSPropertyOp13
 70
     1
102
RTVSPropertyOp14
 70
     1
102
RTVSPropertyOp15
 70
     1
102
RTVSPropertyOp16
 70
     1
102
RTVSPropertyOp17
 70
     1
102
RTVSPropertyOp18
 70
     1
102
RTVSPropertyOp19
 70
     1
102
RTVSPropertyOp20
 70
     1
102
RTVSPropertyOp21
 70
     1
102
RTVSPropertyOp22
 70
     1
102
RTVSPropertyOp23
 70
     1
102
RTVSPropertyOp24
 70
     1
102
RTVSPropertyOp25
 70
     1
102
RTVSPropertyOp26
 70
     1
102
RTVSPropertyOp27
 70
     1
102
RTVSPropertyOp28
 70
     1
102
RTVSPropertyOp29
 70
     1
102
RTVSPropertyOp30
 70
     1
102
RTVSPropertyOp31
 70
     1
102
RTVSPropertyOp32
 70
     1
102
RTVSPropertyOp33
 70
     1
102
RTVSPropertyOp34
 70
     1
102
RTVSPropertyOp35
 70
     1
102
RTVSPropertyOp36
 70
     1
102
RTVSPropertyOp37
 70
     1
102
RTVSPropertyOp38
 70
     1
102
RTVSPropertyOp39
 70
     1
102
RTVSPropertyOp40
 70
     1
102
RTVSPropertyOp41
 70
     1
102
RTVSPropertyOp42
 70
     1
102
RTVSPropertyOp43
 70
     1
102
RTVSPropertyOp44
 70
     1
102
RTVSPropertyOp45
 70
     1
102
RTVSPropertyOp46
 70
     1
102
RTVSPropertyOp47
 70
     1
102
RTVSPropertyOp48
 70
     1
102
RTVSPropertyOp49
 70
     1
102
RTVSPropertyOp50
 70
     1
102
RTVSPropertyOp51
 70
     0
102
RTVSPropertyOp52
 70
     0
102
RTVSPropertyOp53
 70
     1
102
RTVSPropertyOp54
 70
     1
102
RTVSPropertyOp55
 70
     1
102
RTVSPropertyOp56
 70
     1
102
RTVSPropertyOp57
 70
     1
102
RTVSPost2010Prop28
280
     0
102
RTVSPost2010PropOp28
 70
     1
102
RTVSPost2010Prop29
280
     1
102
RTVSPost2010PropOp29
 70
     1
102
RTVSPost2010Prop30
280
     1
102
RTVSPost2010PropOp30
 70
     1
102
RTVSPost2010Prop31
280
     0
102
RTVSPost2010PropOp31
 70
     1
102
RTVSPost2010Prop32
280
     0
102
RTVSPost2010PropOp32
 70
     1
102
RTVSPost2010Prop33
280
     0
102
RTVSPost2010PropOp33
 70
     1
102
RTVSPost2010Prop34
280
     0
102
RTVSPost2010PropOp34
 70
     1
102
RTVSPost2010Prop35
280
     0
102
RTVSPost2010PropOp35
 70
     1
102
RTVSPost2010Prop36
280
     0
102
RTVSPost2010PropOp36
 70
     1
102
RTVSPost2010Prop37
 90
       50
102
RTVSPost2010PropOp37
 70
     1
102
RTVSPost2010Prop38
140
0.0
102
RTVSPost2010PropOp38
 70
     1
102
RTVSPost2010Prop39
140
1.0
102
RTVSPost2010PropOp39
 70
     1
102
RTVSPost2010Prop40
 90
        0
102
RTVSPost2010PropOp40
 70
     1
102
RTVSPost2010Prop41ColorIndex
 90
       18
102
RTVSPost2010Prop41ColorRGB
 90
        0
102
RTVSPost2010PropOp41
 70
     1
102
RTVSPost2010Prop42
 90
       50
102
RTVSPost2010PropOp42
 70
     1
102
RTVSPost2010Prop43
 90
        3
102
RTVSPost2010PropOp43
 70
     1
102
RTVSPost2010Prop44ColorIndex
 90
        5
102
RTVSPost2010Prop44ColorRGB
 90
      255
102
RTVSPost2010PropOp44
 70
     1
102
RTVSPost2010Prop45
280
     0
102
RTVSPost2010PropOp45
 70
     1
102
RTVSPost2010Prop46
 90
       50
102
RTVSPost2010PropOp46
 70
     1
102
RTVSPost2010Prop47
 90
       50
102
RTVSPost2010PropOp47
 70
     1
102
RTVSPost2010Prop48
 90
       50
102
RTVSPost2010PropOp48
 70
     1
102
RTVSPost2010Prop49
280
     0
102
RTVSPost2010PropOp49
 70
     1
102
RTVSPost2010Prop50
 90
       50
102
RTVSPost2010PropOp50
 70
     1
102
RTVSPost2010Prop51ColorIndex
 90
      256
102
RTVSPost2010Prop51ColorRGB
 90
-16777216
102
RTVSPost2010PropOp51
 70
     0
102
RTVSPost2010Prop52
140
1.0
102
RTVSPost2010PropOp52
 70
     0
102
RTVSPost2010Prop53
 90
        2
102
RTVSPost2010PropOp53
 70
     1
102
RTVSPost2010Prop54
  1
strokes_ogs.tif
102
RTVSPost2010PropOp54
 70
     1
102
RTVSPost2010Prop55
280
     0
102
RTVSPost2010PropOp55
 70
     1
102
RTVSPost2010Prop56
140
1.0
102
RTVSPost2010PropOp56
 70
     1
102
RTVSPost2010Prop57
140
1.0
102
RTVSPost2010PropOp57
 70
     1
  0
XRECORD
  5
188A3
102
{ACAD_REACTORS
330
188A2
102
}
330
188A2
100
AcDbXrecord
280
     1
102
RTVSPropertyOp0
 70
     1
102
RTVSPropertyOp1
 70
     1
102
RTVSPropertyOp2
 70
     1
102
RTVSPropertyOp3
 70
     1
102
RTVSPropertyOp4
 70
     1
102
RTVSPropertyOp5
 70
     1
102
RTVSPropertyOp6
 70
     1
102
RTVSPropertyOp7
 70
     1
102
RTVSPropertyOp8
 70
     1
102
RTVSPropertyOp9
 70
     1
102
RTVSPropertyOp10
 70
     1
102
RTVSPropertyOp11
 70
     1
102
RTVSPropertyOp12
 70
     1
102
RTVSPropertyOp13
 70
     1
102
RTVSPropertyOp14
 70
     1
102
RTVSPropertyOp15
 70
     1
102
RTVSPropertyOp16
 70
     1
102
RTVSPropertyOp17
 70
     1
102
RTVSPropertyOp18
 70
     1
102
RTVSPropertyOp19
 70
     1
102
RTVSPropertyOp20
 70
     1
102
RTVSPropertyOp21
 70
     1
102
RTVSPropertyOp22
 70
     1
102
RTVSPropertyOp23
 70
     1
102
RTVSPropertyOp24
 70
     1
102
RTVSPropertyOp25
 70
     1
102
RTVSPropertyOp26
 70
     1
102
RTVSPropertyOp27
 70
     1
102
RTVSPropertyOp28
 70
     1
102
RTVSPropertyOp29
 70
     1
102
RTVSPropertyOp30
 70
     1
102
RTVSPropertyOp31
 70
     1
102
RTVSPropertyOp32
 70
     1
102
RTVSPropertyOp33
 70
     1
102
RTVSPropertyOp34
 70
     1
102
RTVSPropertyOp35
 70
     1
102
RTVSPropertyOp36
 70
     1
102
RTVSPropertyOp37
 70
     1
102
RTVSPropertyOp38
 70
     1
102
RTVSPropertyOp39
 70
     1
102
RTVSPropertyOp40
 70
     1
102
RTVSPropertyOp41
 70
     1
102
RTVSPropertyOp42
 70
     1
102
RTVSPropertyOp43
 70
     1
102
RTVSPropertyOp44
 70
     1
102
RTVSPropertyOp45
 70
     1
102
RTVSPropertyOp46
 70
     1
102
RTVSPropertyOp47
 70
     1
102
RTVSPropertyOp48
 70
     1
102
RTVSPropertyOp49
 70
     1
102
RTVSPropertyOp50
 70
     1
102
RTVSPropertyOp51
 70
     0
102
RTVSPropertyOp52
 70
     0
102
RTVSPropertyOp53
 70
     1
102
RTVSPropertyOp54
 70
     1
102
RTVSPropertyOp55
 70
     1
102
RTVSPropertyOp56
 70
     1
102
RTVSPropertyOp57
 70
     1
102
RTVSPost2010Prop28
280
     0
102
RTVSPost2010PropOp28
 70
     1
102
RTVSPost2010Prop29
280
     1
102
RTVSPost2010PropOp29
 70
     1
102
RTVSPost2010Prop30
280
     1
102
RTVSPost2010PropOp30
 70
     1
102
RTVSPost2010Prop31
280
     0
102
RTVSPost2010PropOp31
 70
     1
102
RTVSPost2010Prop32
280
     0
102
RTVSPost2010PropOp32
 70
     1
102
RTVSPost2010Prop33
280
     0
102
RTVSPost2010PropOp33
 70
     1
102
RTVSPost2010Prop34
280
     0
102
RTVSPost2010PropOp34
 70
     1
102
RTVSPost2010Prop35
280
     0
102
RTVSPost2010PropOp35
 70
     1
102
RTVSPost2010Prop36
280
     0
102
RTVSPost2010PropOp36
 70
     1
102
RTVSPost2010Prop37
 90
       50
102
RTVSPost2010PropOp37
 70
     1
102
RTVSPost2010Prop38
140
0.0
102
RTVSPost2010PropOp38
 70
     1
102
RTVSPost2010Prop39
140
1.0
102
RTVSPost2010PropOp39
 70
     1
102
RTVSPost2010Prop40
 90
        0
102
RTVSPost2010PropOp40
 70
     1
102
RTVSPost2010Prop41ColorIndex
 90
       18
102
RTVSPost2010Prop41ColorRGB
 90
        0
102
RTVSPost2010PropOp41
 70
     1
102
RTVSPost2010Prop42
 90
       50
102
RTVSPost2010PropOp42
 70
     1
102
RTVSPost2010Prop43
 90
        3
102
RTVSPost2010PropOp43
 70
     1
102
RTVSPost2010Prop44ColorIndex
 90
        5
102
RTVSPost2010Prop44ColorRGB
 90
      255
102
RTVSPost2010PropOp44
 70
     1
102
RTVSPost2010Prop45
280
     0
102
RTVSPost2010PropOp45
 70
     1
102
RTVSPost2010Prop46
 90
       50
102
RTVSPost2010PropOp46
 70
     1
102
RTVSPost2010Prop47
 90
       50
102
RTVSPost2010PropOp47
 70
     1
102
RTVSPost2010Prop48
 90
       50
102
RTVSPost2010PropOp48
 70
     1
102
RTVSPost2010Prop49
280
     0
102
RTVSPost2010PropOp49
 70
     1
102
RTVSPost2010Prop50
 90
       50
102
RTVSPost2010PropOp50
 70
     1
102
RTVSPost2010Prop51ColorIndex
 90
      256
102
RTVSPost2010Prop51ColorRGB
 90
-16777216
102
RTVSPost2010PropOp51
 70
     0
102
RTVSPost2010Prop52
140
1.0
102
RTVSPost2010PropOp52
 70
     0
102
RTVSPost2010Prop53
 90
        2
102
RTVSPost2010PropOp53
 70
     1
102
RTVSPost2010Prop54
  1
strokes_ogs.tif
102
RTVSPost2010PropOp54
 70
     1
102
RTVSPost2010Prop55
280
     0
102
RTVSPost2010PropOp55
 70
     1
102
RTVSPost2010Prop56
140
1.0
102
RTVSPost2010PropOp56
 70
     1
102
RTVSPost2010Prop57
140
1.0
102
RTVSPost2010PropOp57
 70
     1
  0
XRECORD
  5
188A5
102
{ACAD_REACTORS
330
188A4
102
}
330
188A4
100
AcDbXrecord
280
     1
102
RTVSPropertyOp0
 70
     1
102
RTVSPropertyOp1
 70
     1
102
RTVSPropertyOp2
 70
     1
102
RTVSPropertyOp3
 70
     1
102
RTVSPropertyOp4
 70
     1
102
RTVSPropertyOp5
 70
     1
102
RTVSPropertyOp6
 70
     1
102
RTVSPropertyOp7
 70
     1
102
RTVSPropertyOp8
 70
     1
102
RTVSPropertyOp9
 70
     1
102
RTVSPropertyOp10
 70
     1
102
RTVSPropertyOp11
 70
     1
102
RTVSPropertyOp12
 70
     1
102
RTVSPropertyOp13
 70
     1
102
RTVSPropertyOp14
 70
     1
102
RTVSPropertyOp15
 70
     1
102
RTVSPropertyOp16
 70
     1
102
RTVSPropertyOp17
 70
     1
102
RTVSPropertyOp18
 70
     1
102
RTVSPropertyOp19
 70
     1
102
RTVSPropertyOp20
 70
     1
102
RTVSPropertyOp21
 70
     1
102
RTVSPropertyOp22
 70
     1
102
RTVSPropertyOp23
 70
     1
102
RTVSPropertyOp24
 70
     1
102
RTVSPropertyOp25
 70
     1
102
RTVSPropertyOp26
 70
     1
102
RTVSPropertyOp27
 70
     1
102
RTVSPropertyOp28
 70
     1
102
RTVSPropertyOp29
 70
     1
102
RTVSPropertyOp30
 70
     1
102
RTVSPropertyOp31
 70
     1
102
RTVSPropertyOp32
 70
     1
102
RTVSPropertyOp33
 70
     1
102
RTVSPropertyOp34
 70
     1
102
RTVSPropertyOp35
 70
     1
102
RTVSPropertyOp36
 70
     1
102
RTVSPropertyOp37
 70
     1
102
RTVSPropertyOp38
 70
     1
102
RTVSPropertyOp39
 70
     1
102
RTVSPropertyOp40
 70
     1
102
RTVSPropertyOp41
 70
     1
102
RTVSPropertyOp42
 70
     1
102
RTVSPropertyOp43
 70
     1
102
RTVSPropertyOp44
 70
     1
102
RTVSPropertyOp45
 70
     1
102
RTVSPropertyOp46
 70
     1
102
RTVSPropertyOp47
 70
     1
102
RTVSPropertyOp48
 70
     1
102
RTVSPropertyOp49
 70
     1
102
RTVSPropertyOp50
 70
     1
102
RTVSPropertyOp51
 70
     0
102
RTVSPropertyOp52
 70
     0
102
RTVSPropertyOp53
 70
     1
102
RTVSPropertyOp54
 70
     1
102
RTVSPropertyOp55
 70
     1
102
RTVSPropertyOp56
 70
     1
102
RTVSPropertyOp57
 70
     1
102
RTVSPost2010Prop28
280
     0
102
RTVSPost2010PropOp28
 70
     1
102
RTVSPost2010Prop29
280
     1
102
RTVSPost2010PropOp29
 70
     1
102
RTVSPost2010Prop30
280
     1
102
RTVSPost2010PropOp30
 70
     1
102
RTVSPost2010Prop31
280
     0
102
RTVSPost2010PropOp31
 70
     1
102
RTVSPost2010Prop32
280
     0
102
RTVSPost2010PropOp32
 70
     1
102
RTVSPost2010Prop33
280
     0
102
RTVSPost2010PropOp33
 70
     1
102
RTVSPost2010Prop34
280
     0
102
RTVSPost2010PropOp34
 70
     1
102
RTVSPost2010Prop35
280
     0
102
RTVSPost2010PropOp35
 70
     1
102
RTVSPost2010Prop36
280
     0
102
RTVSPost2010PropOp36
 70
     1
102
RTVSPost2010Prop37
 90
       50
102
RTVSPost2010PropOp37
 70
     1
102
RTVSPost2010Prop38
140
0.0
102
RTVSPost2010PropOp38
 70
     1
102
RTVSPost2010Prop39
140
1.0
102
RTVSPost2010PropOp39
 70
     1
102
RTVSPost2010Prop40
 90
        0
102
RTVSPost2010PropOp40
 70
     1
102
RTVSPost2010Prop41ColorIndex
 90
       18
102
RTVSPost2010Prop41ColorRGB
 90
        0
102
RTVSPost2010PropOp41
 70
     1
102
RTVSPost2010Prop42
 90
       50
102
RTVSPost2010PropOp42
 70
     1
102
RTVSPost2010Prop43
 90
        3
102
RTVSPost2010PropOp43
 70
     1
102
RTVSPost2010Prop44ColorIndex
 90
        5
102
RTVSPost2010Prop44ColorRGB
 90
      255
102
RTVSPost2010PropOp44
 70
     1
102
RTVSPost2010Prop45
280
     0
102
RTVSPost2010PropOp45
 70
     1
102
RTVSPost2010Prop46
 90
       50
102
RTVSPost2010PropOp46
 70
     1
102
RTVSPost2010Prop47
 90
       50
102
RTVSPost2010PropOp47
 70
     1
102
RTVSPost2010Prop48
 90
       50
102
RTVSPost2010PropOp48
 70
     1
102
RTVSPost2010Prop49
280
     0
102
RTVSPost2010PropOp49
 70
     1
102
RTVSPost2010Prop50
 90
       50
102
RTVSPost2010PropOp50
 70
     1
102
RTVSPost2010Prop51ColorIndex
 90
      256
102
RTVSPost2010Prop51ColorRGB
 90
-16777216
102
RTVSPost2010PropOp51
 70
     0
102
RTVSPost2010Prop52
140
1.0
102
RTVSPost2010PropOp52
 70
     0
102
RTVSPost2010Prop53
 90
        2
102
RTVSPost2010PropOp53
 70
     1
102
RTVSPost2010Prop54
  1
strokes_ogs.tif
102
RTVSPost2010PropOp54
 70
     1
102
RTVSPost2010Prop55
280
     0
102
RTVSPost2010PropOp55
 70
     1
102
RTVSPost2010Prop56
140
1.0
102
RTVSPost2010PropOp56
 70
     1
102
RTVSPost2010Prop57
140
1.0
102
RTVSPost2010PropOp57
 70
     1
  0
XRECORD
  5
188A7
102
{ACAD_REACTORS
330
188A6
102
}
330
188A6
100
AcDbXrecord
280
     1
102
RTVSPropertyOp0
 70
     1
102
RTVSPropertyOp1
 70
     1
102
RTVSPropertyOp2
 70
     1
102
RTVSPropertyOp3
 70
     1
102
RTVSPropertyOp4
 70
     1
102
RTVSPropertyOp5
 70
     1
102
RTVSPropertyOp6
 70
     1
102
RTVSPropertyOp7
 70
     1
102
RTVSPropertyOp8
 70
     1
102
RTVSPropertyOp9
 70
     1
102
RTVSPropertyOp10
 70
     1
102
RTVSPropertyOp11
 70
     1
102
RTVSPropertyOp12
 70
     1
102
RTVSPropertyOp13
 70
     1
102
RTVSPropertyOp14
 70
     1
102
RTVSPropertyOp15
 70
     1
102
RTVSPropertyOp16
 70
     1
102
RTVSPropertyOp17
 70
     1
102
RTVSPropertyOp18
 70
     1
102
RTVSPropertyOp19
 70
     1
102
RTVSPropertyOp20
 70
     1
102
RTVSPropertyOp21
 70
     1
102
RTVSPropertyOp22
 70
     1
102
RTVSPropertyOp23
 70
     1
102
RTVSPropertyOp24
 70
     1
102
RTVSPropertyOp25
 70
     1
102
RTVSPropertyOp26
 70
     1
102
RTVSPropertyOp27
 70
     1
102
RTVSPropertyOp28
 70
     1
102
RTVSPropertyOp29
 70
     1
102
RTVSPropertyOp30
 70
     1
102
RTVSPropertyOp31
 70
     1
102
RTVSPropertyOp32
 70
     1
102
RTVSPropertyOp33
 70
     1
102
RTVSPropertyOp34
 70
     1
102
RTVSPropertyOp35
 70
     1
102
RTVSPropertyOp36
 70
     1
102
RTVSPropertyOp37
 70
     1
102
RTVSPropertyOp38
 70
     1
102
RTVSPropertyOp39
 70
     1
102
RTVSPropertyOp40
 70
     1
102
RTVSPropertyOp41
 70
     1
102
RTVSPropertyOp42
 70
     1
102
RTVSPropertyOp43
 70
     1
102
RTVSPropertyOp44
 70
     1
102
RTVSPropertyOp45
 70
     1
102
RTVSPropertyOp46
 70
     1
102
RTVSPropertyOp47
 70
     1
102
RTVSPropertyOp48
 70
     1
102
RTVSPropertyOp49
 70
     1
102
RTVSPropertyOp50
 70
     1
102
RTVSPropertyOp51
 70
     0
102
RTVSPropertyOp52
 70
     0
102
RTVSPropertyOp53
 70
     1
102
RTVSPropertyOp54
 70
     1
102
RTVSPropertyOp55
 70
     1
102
RTVSPropertyOp56
 70
     1
102
RTVSPropertyOp57
 70
     1
102
RTVSPost2010Prop28
280
     0
102
RTVSPost2010PropOp28
 70
     1
102
RTVSPost2010Prop29
280
     1
102
RTVSPost2010PropOp29
 70
     1
102
RTVSPost2010Prop30
280
     1
102
RTVSPost2010PropOp30
 70
     1
102
RTVSPost2010Prop31
280
     0
102
RTVSPost2010PropOp31
 70
     1
102
RTVSPost2010Prop32
280
     0
102
RTVSPost2010PropOp32
 70
     1
102
RTVSPost2010Prop33
280
     0
102
RTVSPost2010PropOp33
 70
     1
102
RTVSPost2010Prop34
280
     0
102
RTVSPost2010PropOp34
 70
     1
102
RTVSPost2010Prop35
280
     0
102
RTVSPost2010PropOp35
 70
     1
102
RTVSPost2010Prop36
280
     0
102
RTVSPost2010PropOp36
 70
     1
102
RTVSPost2010Prop37
 90
       50
102
RTVSPost2010PropOp37
 70
     1
102
RTVSPost2010Prop38
140
0.0
102
RTVSPost2010PropOp38
 70
     1
102
RTVSPost2010Prop39
140
1.0
102
RTVSPost2010PropOp39
 70
     1
102
RTVSPost2010Prop40
 90
        0
102
RTVSPost2010PropOp40
 70
     1
102
RTVSPost2010Prop41ColorIndex
 90
       18
102
RTVSPost2010Prop41ColorRGB
 90
        0
102
RTVSPost2010PropOp41
 70
     1
102
RTVSPost2010Prop42
 90
       50
102
RTVSPost2010PropOp42
 70
     1
102
RTVSPost2010Prop43
 90
        3
102
RTVSPost2010PropOp43
 70
     1
102
RTVSPost2010Prop44ColorIndex
 90
        5
102
RTVSPost2010Prop44ColorRGB
 90
      255
102
RTVSPost2010PropOp44
 70
     1
102
RTVSPost2010Prop45
280
     0
102
RTVSPost2010PropOp45
 70
     1
102
RTVSPost2010Prop46
 90
       50
102
RTVSPost2010PropOp46
 70
     1
102
RTVSPost2010Prop47
 90
       50
102
RTVSPost2010PropOp47
 70
     1
102
RTVSPost2010Prop48
 90
       50
102
RTVSPost2010PropOp48
 70
     1
102
RTVSPost2010Prop49
280
     0
102
RTVSPost2010PropOp49
 70
     1
102
RTVSPost2010Prop50
 90
       50
102
RTVSPost2010PropOp50
 70
     1
102
RTVSPost2010Prop51ColorIndex
 90
      256
102
RTVSPost2010Prop51ColorRGB
 90
-16777216
102
RTVSPost2010PropOp51
 70
     0
102
RTVSPost2010Prop52
140
1.0
102
RTVSPost2010PropOp52
 70
     0
102
RTVSPost2010Prop53
 90
        2
102
RTVSPost2010PropOp53
 70
     1
102
RTVSPost2010Prop54
  1
strokes_ogs.tif
102
RTVSPost2010PropOp54
 70
     1
102
RTVSPost2010Prop55
280
     0
102
RTVSPost2010PropOp55
 70
     1
102
RTVSPost2010Prop56
140
1.0
102
RTVSPost2010PropOp56
 70
     1
102
RTVSPost2010Prop57
140
1.0
102
RTVSPost2010PropOp57
 70
     1
  0
ENDSEC
  0
EOF
