  0
SECTION
  2
HEADER
  9
$ACADVER
  1
AC1015
  9
$ACADMAINTVER
 70
     6
  9
$DWGCODEPAGE
  3
ANSI_1252
  9
$INSBASE
 10
0.0
 20
0.0
 30
0.0
  9
$EXTMIN
 10
84363.76092456665
 20
-2884.134840098937
 30
-0.0063458448353231
  9
$EXTMAX
 10
98291.50917797885
 20
6860.996462416893
 30
0.0485849576632518
  9
$LIMMIN
 10
0.0
 20
0.0
  9
$LIMMAX
 10
420.0
 20
297.0
  9
$ORTHOMODE
 70
     0
  9
$REGENMODE
 70
     1
  9
$FILLMODE
 70
     1
  9
$QTEXTMODE
 70
     0
  9
$MIRRTEXT
 70
     0
  9
$LTSCALE
 40
1.0
  9
$ATTMODE
 70
     1
  9
$TEXTSIZE
 40
2.5
  9
$TRACEWID
 40
1.0
  9
$TEXTSTYLE
  7
Standard
  9
$CLAYER
  8
0
  9
$CELTYPE
  6
ByLayer
  9
$CECOLOR
 62
   256
  9
$CELTSCALE
 40
1.0
  9
$DISPSILH
 70
     0
  9
$DIMSCALE
 40
1.0
  9
$DIMASZ
 40
2.5
  9
$DIMEXO
 40
0.625
  9
$DIMDLI
 40
3.75
  9
$DIMRND
 40
0.0
  9
$DIMDLE
 40
0.0
  9
$DIMEXE
 40
1.25
  9
$DIMTP
 40
0.0
  9
$DIMTM
 40
0.0
  9
$DIMTXT
 40
2.5
  9
$DIMCEN
 40
2.5
  9
$DIMTSZ
 40
0.0
  9
$DIMTOL
 70
     0
  9
$DIMLIM
 70
     0
  9
$DIMTIH
 70
     0
  9
$DIMTOH
 70
     0
  9
$DIMSE1
 70
     0
  9
$DIMSE2
 70
     0
  9
$DIMTAD
 70
     1
  9
$DIMZIN
 70
     8
  9
$DIMBLK
  1

  9
$DIMASO
 70
     1
  9
$DIMSHO
 70
     1
  9
$DIMPOST
  1

  9
$DIMAPOST
  1

  9
$DIMALT
 70
     0
  9
$DIMALTD
 70
     3
  9
$DIMALTF
 40
0.03937007874016
  9
$DIMLFAC
 40
1.0
  9
$DIMTOFL
 70
     1
  9
$DIMTVP
 40
0.0
  9
$DIMTIX
 70
     0
  9
$DIMSOXD
 70
     0
  9
$DIMSAH
 70
     0
  9
$DIMBLK1
  1

  9
$DIMBLK2
  1

  9
$DIMSTYLE
  2
ISO-25
  9
$DIMCLRD
 70
     0
  9
$DIMCLRE
 70
     0
  9
$DIMCLRT
 70
     0
  9
$DIMTFAC
 40
1.0
  9
$DIMGAP
 40
0.625
  9
$DIMJUST
 70
     0
  9
$DIMSD1
 70
     0
  9
$DIMSD2
 70
     0
  9
$DIMTOLJ
 70
     0
  9
$DIMTZIN
 70
     8
  9
$DIMALTZ
 70
     0
  9
$DIMALTTZ
 70
     0
  9
$DIMUPT
 70
     0
  9
$DIMDEC
 70
     2
  9
$DIMTDEC
 70
     2
  9
$DIMALTU
 70
     2
  9
$DIMALTTD
 70
     3
  9
$DIMTXSTY
  7
Standard
  9
$DIMAUNIT
 70
     0
  9
$DIMADEC
 70
     0
  9
$DIMALTRND
 40
0.0
  9
$DIMAZIN
 70
     0
  9
$DIMDSEP
 70
    44
  9
$DIMATFIT
 70
     3
  9
$DIMFRAC
 70
     0
  9
$DIMLDRBLK
  1

  9
$DIMLUNIT
 70
     2
  9
$DIMLWD
 70
    -2
  9
$DIMLWE
 70
    -2
  9
$DIMTMOVE
 70
     0
  9
$LUNITS
 70
     2
  9
$LUPREC
 70
     4
  9
$SKETCHINC
 40
1.0
  9
$FILLETRAD
 40
0.0
  9
$AUNITS
 70
     0
  9
$AUPREC
 70
     0
  9
$MENU
  1
.
  9
$ELEVATION
 40
0.0
  9
$PELEVATION
 40
0.0
  9
$THICKNESS
 40
0.0
  9
$LIMCHECK
 70
     0
  9
$CHAMFERA
 40
0.0
  9
$CHAMFERB
 40
0.0
  9
$CHAMFERC
 40
0.0
  9
$CHAMFERD
 40
0.0
  9
$SKPOLY
 70
     0
  9
$TDCREATE
 40
2455812.417308796
  9
$TDUCREATE
 40
2455812.37564213
  9
$TDUPDATE
 40
2460301.587269977
  9
$TDUUPDATE
 40
2460301.54560331
  9
$TDINDWG
 40
0.0148133796
  9
$TDUSRTIMER
 40
0.0148133565
  9
$USRTIMER
 70
     1
  9
$ANGBASE
 50
0.0
  9
$ANGDIR
 70
     0
  9
$PDMODE
 70
     0
  9
$PDSIZE
 40
0.0
  9
$PLINEWID
 40
0.0
  9
$SPLFRAME
 70
     0
  9
$SPLINETYPE
 70
     6
  9
$SPLINESEGS
 70
     8
  9
$HANDSEED
  5
18880
  9
$SURFTAB1
 70
     6
  9
$SURFTAB2
 70
     6
  9
$SURFTYPE
 70
     6
  9
$SURFU
 70
     6
  9
$SURFV
 70
     6
  9
$UCSBASE
  2

  9
$UCSNAME
  2

  9
$UCSORG
 10
0.0
 20
0.0
 30
0.0
  9
$UCSXDIR
 10
1.0
 20
0.0
 30
0.0
  9
$UCSYDIR
 10
0.0
 20
1.0
 30
0.0
  9
$UCSORTHOREF
  2

  9
$UCSORTHOVIEW
 70
     0
  9
$UCSORGTOP
 10
0.0
 20
0.0
 30
0.0
  9
$UCSORGBOTTOM
 10
0.0
 20
0.0
 30
0.0
  9
$UCSORGLEFT
 10
0.0
 20
0.0
 30
0.0
  9
$UCSORGRIGHT
 10
0.0
 20
0.0
 30
0.0
  9
$UCSORGFRONT
 10
0.0
 20
0.0
 30
0.0
  9
$UCSORGBACK
 10
0.0
 20
0.0
 30
0.0
  9
$PUCSBASE
  2

  9
$PUCSNAME
  2

  9
$PUCSORG
 10
0.0
 20
0.0
 30
0.0
  9
$PUCSXDIR
 10
1.0
 20
0.0
 30
0.0
  9
$PUCSYDIR
 10
0.0
 20
1.0
 30
0.0
  9
$PUCSORTHOREF
  2

  9
$PUCSORTHOVIEW
 70
     0
  9
$PUCSORGTOP
 10
0.0
 20
0.0
 30
0.0
  9
$PUCSORGBOTTOM
 10
0.0
 20
0.0
 30
0.0
  9
$PUCSORGLEFT
 10
0.0
 20
0.0
 30
0.0
  9
$PUCSORGRIGHT
 10
0.0
 20
0.0
 30
0.0
  9
$PUCSORGFRONT
 10
0.0
 20
0.0
 30
0.0
  9
$PUCSORGBACK
 10
0.0
 20
0.0
 30
0.0
  9
$USERI1
 70
     0
  9
$USERI2
 70
     0
  9
$USERI3
 70
     0
  9
$USERI4
 70
     0
  9
$USERI5
 70
     0
  9
$USERR1
 40
0.0
  9
$USERR2
 40
0.0
  9
$USERR3
 40
0.0
  9
$USERR4
 40
0.0
  9
$USERR5
 40
0.0
  9
$WORLDVIEW
 70
     1
  9
$SHADEDGE
 70
     3
  9
$SHADEDIF
 70
    70
  9
$TILEMODE
 70
     1
  9
$MAXACTVP
 70
    64
  9
$PINSBASE
 10
0.0
 20
0.0
 30
0.0
  9
$PLIMCHECK
 70
     0
  9
$PEXTMIN
 10
0.0
 20
0.0
 30
0.0
  9
$PEXTMAX
 10
0.0
 20
0.0
 30
0.0
  9
$PLIMMIN
 10
0.0
 20
0.0
  9
$PLIMMAX
 10
12.0
 20
9.0
  9
$UNITMODE
 70
     0
  9
$VISRETAIN
 70
     1
  9
$PLINEGEN
 70
     0
  9
$PSLTSCALE
 70
     1
  9
$TREEDEPTH
 70
  3020
  9
$CMLSTYLE
  2
Standard
  9
$CMLJUST
 70
     0
  9
$CMLSCALE
 40
20.0
  9
$PROXYGRAPHICS
 70
     1
  9
$MEASUREMENT
 70
     1
  9
$CELWEIGHT
370
    -1
  9
$ENDCAPS
280
     0
  9
$JOINSTYLE
280
     0
  9
$LWDISPLAY
290
     0
  9
$INSUNITS
 70
     4
  9
$HYPERLINKBASE
  1

  9
$STYLESHEET
  1

  9
$XEDIT
290
     1
  9
$CEPSNTYPE
380
     0
  9
$PSTYLEMODE
290
     1
  9
$FINGERPRINTGUID
  2
{8E1AFF58-C7D7-4C05-8724-365683C47649}
  9
$VERSIONGUID
  2
{D923B47A-2CA0-4302-AA34-B527E020977A}
  9
$EXTNAMES
290
     1
  9
$PSVPSCALE
 40
0.0
  9
$OLESTARTUP
290
     0
  0
ENDSEC
  0
SECTION
  2
CLASSES
  0
CLASS
  1
ACDBDICTIONARYWDFLT
  2
AcDbDictionaryWithDefault
  3
ObjectDBX Classes
 90
        0
280
     0
281
     0
  0
CLASS
  1
ACDBPLACEHOLDER
  2
AcDbPlaceHolder
  3
ObjectDBX Classes
 90
        0
280
     0
281
     0
  0
CLASS
  1
LAYOUT
  2
AcDbLayout
  3
ObjectDBX Classes
 90
        0
280
     0
281
     0
  0
CLASS
  1
DICTIONARYVAR
  2
AcDbDictionaryVar
  3
ObjectDBX Classes
 90
        0
280
     0
281
     0
  0
CLASS
  1
TABLESTYLE
  2
AcDbTableStyle
  3
ObjectDBX Classes
 90
     4095
280
     0
281
     0
  0
CLASS
  1
MATERIAL
  2
AcDbMaterial
  3
ObjectDBX Classes
 90
     1153
280
     0
281
     0
  0
CLASS
  1
VISUALSTYLE
  2
AcDbVisualStyle
  3
ObjectDBX Classes
 90
     4095
280
     0
281
     0
  0
CLASS
  1
SCALE
  2
AcDbScale
  3
ObjectDBX Classes
 90
     1153
280
     0
281
     0
  0
CLASS
  1
MLEADERSTYLE
  2
AcDbMLeaderStyle
  3
ACDB_MLEADERSTYLE_CLASS
 90
     4095
280
     0
281
     0
  0
CLASS
  1
CELLSTYLEMAP
  2
AcDbCellStyleMap
  3
ObjectDBX Classes
 90
     1152
280
     0
281
     0
  0
CLASS
  1
EXACXREFPANELOBJECT
  2
ExAcXREFPanelObject
  3
EXAC_ESW
 90
     1025
280
     1
281
     0
  0
CLASS
  1
NPOCOLLECTION
  2
AcDbImpNonPersistentObjectsCollection
  3
ObjectDBX Classes
 90
     1153
280
     1
281
     0
  0
CLASS
  1
LAYER_INDEX
  2
AcDbLayerIndex
  3
ObjectDBX Classes
 90
        0
280
     0
281
     0
  0
CLASS
  1
SPATIAL_INDEX
  2
AcDbSpatialIndex
  3
AutoCAD 2000
 90
        0
280
     0
281
     0
  0
CLASS
  1
IDBUFFER
  2
AcDbIdBuffer
  3
ObjectDBX Classes
 90
        0
280
     0
281
     0
  0
CLASS
  1
SORTENTSTABLE
  2
AcDbSortentsTable
  3
ObjectDBX Classes
 90
        0
280
     0
281
     0
  0
CLASS
  1
ACAD_EVALUATION_GRAPH
  2
AcDbEvalGraph
  3
ObjectDBX Classes
 90
     1153
280
     1
281
     0
  0
CLASS
  1
BLOCKBASEPOINTPARAMETER
  2
AcDbBlockBasepointParameter
  3
ObjectDBX Classes
 90
     1153
280
     1
281
     0
  0
CLASS
  1
ACDB_DYNAMICBLOCKPURGEPREVENTER_VERSION
  2
AcDbDynamicBlockPurgePreventer
  3
ObjectDBX Classes
 90
     1153
280
     1
281
     0
  0
CLASS
  1
DIMASSOC
  2
AcDbDimAssoc
  3
"AcDbDimAssoc|Product Desc:     AcDim ARX App For Dimension|Company:          Autodesk, Inc.|WEB Address:      www.autodesk.com"
 90
        0
280
     0
281
     0
  0
CLASS
  1
ACAECUSTOBJ
  2
AcAeEditorObj
  3
AcAeEditorObj
 90
     1024
280
     1
281
     0
  0
CLASS
  1
BASEPOINTPARAMETERENTITY
  2
AcDbBlockBasepointParameterEntity
  3
ObjectDBX Classes
 90
     1025
280
     1
281
     1
  0
CLASS
  1
ACAEEEMGROBJ
  2
AcAeEEMgrObj
  3
AcAeEEMgrObj
 90
     1024
280
     1
281
     0
  0
CLASS
  1
ACDB_BLOCKREPRESENTATION_DATA
  2
AcDbBlockRepresentationData
  3
ObjectDBX Classes
 90
     1153
280
     1
281
     0
  0
CLASS
  1
AEC_REFEDIT_STATUS_TRACKER
  2
AecDbRefEditStatusTracker
  3
AecArchBase70|Product Desc: Autodesk Architectural Desktop 2007 |Company: Autodesk,Inc. |WEB Address: www.autodesk.com
 90
      129
280
     1
281
     0
  0
CLASS
  1
ACDBSECTIONVIEWSTYLE
  2
AcDbSectionViewStyle
  3
ObjectDBX Classes
 90
     1025
280
     0
281
     0
  0
CLASS
  1
ACDBDETAILVIEWSTYLE
  2
AcDbDetailViewStyle
  3
ObjectDBX Classes
 90
     1025
280
     0
281
     0
  0
ENDSEC
  0
SECTION
  2
TABLES
  0
TABLE
  2
VPORT
  5
8
102
{ACAD_XDICTIONARY
360
18833
102
}
330
0
100
AcDbSymbolTable
 70
     1
  0
VPORT
  5
EA
330
8
100
AcDbSymbolTableRecord
100
AcDbViewportTableRecord
  2
*Active
 70
     0
 10
0.0
 20
0.0
 11
1.0
 21
1.0
 12
91327.63505127275
 22
1988.430811158978
 13
0.0
 23
0.0
 14
10.0
 24
10.0
 15
10.0
 25
10.0
 16
0.0
 26
0.0
 36
1.0
 17
0.0
 27
0.0
 37
0.0
 40
10295.13332519865
 41
1.35981308411215
 42
50.0
 43
0.0
 44
0.0
 50
0.0
 51
0.0
 71
     0
 72
  1000
 73
     1
 74
     2
 75
     0
 76
     0
 77
     0
 78
     0
281
     0
 65
     1
110
0.0
120
0.0
130
0.0
111
1.0
121
0.0
131
0.0
112
0.0
122
1.0
132
0.0
 79
     0
146
0.0
1001
ACAD_NAV_VCDISPLAY
1070
     3
  0
ENDTAB
  0
TABLE
  2
LTYPE
  5
5
330
0
100
AcDbSymbolTable
 70
     1
  0
LTYPE
  5
14
330
5
100
AcDbSymbolTableRecord
100
AcDbLinetypeTableRecord
  2
ByBlock
 70
     0
  3

 72
    65
 73
     0
 40
0.0
  0
LTYPE
  5
15
330
5
100
AcDbSymbolTableRecord
100
AcDbLinetypeTableRecord
  2
ByLayer
 70
     0
  3

 72
    65
 73
     0
 40
0.0
  0
LTYPE
  5
16
330
5
100
AcDbSymbolTableRecord
100
AcDbLinetypeTableRecord
  2
Continuous
 70
     0
  3
Solid line
 72
    65
 73
     0
 40
0.0
  0
ENDTAB
  0
TABLE
  2
LAYER
  5
2
102
{ACAD_XDICTIONARY
360
22C8
102
}
330
0
100
AcDbSymbolTable
 70
     6
  0
LAYER
  5
10
330
2
100
AcDbSymbolTableRecord
100
AcDbLayerTableRecord
  2
0
 70
     0
 62
     7
  6
Continuous
370
    -3
390
F
  0
LAYER
  5
22AF
330
2
100
AcDbSymbolTableRecord
100
AcDbLayerTableRecord
  2
Cornice_Testi
 70
     0
 62
     7
  6
Continuous
370
    -3
390
F
  0
LAYER
  5
22B1
330
2
100
AcDbSymbolTableRecord
100
AcDbLayerTableRecord
  2
Cornice_Quote
 70
     0
 62
   150
  6
Continuous
370
     9
390
F
  0
LAYER
  5
22B3
330
2
100
AcDbSymbolTableRecord
100
AcDbLayerTableRecord
  2
Cornice_linee
 70
     0
 62
     7
  6
Continuous
370
     5
390
F
  0
LAYER
  5
22B7
330
2
100
AcDbSymbolTableRecord
100
AcDbLayerTableRecord
  2
DEFPOINTS
 70
     0
 62
     7
  6
Continuous
290
     0
370
    -3
390
F
  0
LAYER
  5
8B2F
330
2
100
AcDbSymbolTableRecord
100
AcDbLayerTableRecord
  2
Cornice_Tratteggi
 70
     0
 62
     7
  6
Continuous
370
     5
390
F
  0
ENDTAB
  0
TABLE
  2
STYLE
  5
3
330
0
100
AcDbSymbolTable
 70
     3
  0
STYLE
  5
11
330
3
100
AcDbSymbolTableRecord
100
AcDbTextStyleTableRecord
  2
Standard
 70
     0
 40
0.0
 41
1.0
 50
0.0
 71
     0
 42
2.5
  3
arial.ttf
  4

1001
ACAD
1000
Arial
1071
       34
  0
STYLE
  5
22C0
330
3
100
AcDbSymbolTableRecord
100
AcDbTextStyleTableRecord
  2
CKSTANDARD
 70
     0
 40
0.0
 41
0.75
 50
0.0
 71
     0
 42
2.5
  3
isocp2.shx
  4

  0
STYLE
  5
29DE
330
3
100
AcDbSymbolTableRecord
100
AcDbTextStyleTableRecord
  2
style1
 70
     0
 40
0.0
 41
1.0
 50
0.0
 71
     0
 42
266.0222813740838
  3
verdana.ttf
  4

1001
ACAD
1000
Verdana
1071
       34
  0
ENDTAB
  0
TABLE
  2
VIEW
  5
6
330
0
100
AcDbSymbolTable
 70
     0
  0
ENDTAB
  0
TABLE
  2
UCS
  5
7
330
0
100
AcDbSymbolTable
 70
     0
  0
ENDTAB
  0
TABLE
  2
APPID
  5
9
330
0
100
AcDbSymbolTable
 70
    19
  0
APPID
  5
12
330
9
100
AcDbSymbolTableRecord
100
AcDbRegAppTableRecord
  2
ACAD
 70
     0
  0
APPID
  5
9E
330
9
100
AcDbSymbolTableRecord
100
AcDbRegAppTableRecord
  2
ACAD_PSEXT
 70
     0
  0
APPID
  5
133
330
9
100
AcDbSymbolTableRecord
100
AcDbRegAppTableRecord
  2
AcadAnnoPO
 70
     0
  0
APPID
  5
134
330
9
100
AcDbSymbolTableRecord
100
AcDbRegAppTableRecord
  2
AcadAnnotative
 70
     0
  0
APPID
  5
135
330
9
100
AcDbSymbolTableRecord
100
AcDbRegAppTableRecord
  2
ACAD_DSTYLE_DIMJAG
 70
     0
  0
APPID
  5
136
330
9
100
AcDbSymbolTableRecord
100
AcDbRegAppTableRecord
  2
ACAD_DSTYLE_DIMTALN
 70
     0
  0
APPID
  5
165
330
9
100
AcDbSymbolTableRecord
100
AcDbRegAppTableRecord
  2
ACAD_MLEADERVER
 70
     0
  0
APPID
  5
22C4
330
9
100
AcDbSymbolTableRecord
100
AcDbRegAppTableRecord
  2
AcAecLayerStandard
 70
     0
  0
APPID
  5
22C5
330
9
100
AcDbSymbolTableRecord
100
AcDbRegAppTableRecord
  2
AcDbBlockRepETag
 70
     0
  0
APPID
  5
22C6
330
9
100
AcDbSymbolTableRecord
100
AcDbRegAppTableRecord
  2
AcDbDynamicBlockTrueName
 70
     0
  0
APPID
  5
22C7
330
9
100
AcDbSymbolTableRecord
100
AcDbRegAppTableRecord
  2
AcDbDynamicBlockGUID
 70
     0
  0
APPID
  5
2A06
330
9
100
AcDbSymbolTableRecord
100
AcDbRegAppTableRecord
  2
ACAUTHENVIRON
 70
     0
  0
APPID
  5
2A34
330
9
100
AcDbSymbolTableRecord
100
AcDbRegAppTableRecord
  2
ACAD_EXEMPT_FROM_CAD_STANDARDS
 70
     0
  0
APPID
  5
2A49
330
9
100
AcDbSymbolTableRecord
100
AcDbRegAppTableRecord
  2
AcDbBlockRepBTag
 70
     0
  0
APPID
  5
8B33
330
9
100
AcDbSymbolTableRecord
100
AcDbRegAppTableRecord
  2
RAK
 70
     0
  0
APPID
  5
15F25
330
9
100
AcDbSymbolTableRecord
100
AcDbRegAppTableRecord
  2
GradientColor1ACI
 70
     0
  0
APPID
  5
15F26
330
9
100
AcDbSymbolTableRecord
100
AcDbRegAppTableRecord
  2
GradientColor2ACI
 70
     0
  0
APPID
  5
185A4
330
9
100
AcDbSymbolTableRecord
100
AcDbRegAppTableRecord
  2
AcCmTransparency
 70
     0
  0
APPID
  5
185A5
330
9
100
AcDbSymbolTableRecord
100
AcDbRegAppTableRecord
  2
ACAD_NAV_VCDISPLAY
 70
     0
  0
ENDTAB
  0
TABLE
  2
DIMSTYLE
  5
A
330
0
100
AcDbSymbolTable
 70
     2
100
AcDbDimStyleTable
  0
DIMSTYLE
105
27
330
A
100
AcDbSymbolTableRecord
100
AcDbDimStyleTableRecord
  2
ISO-25
 70
     0
 41
2.5
 42
0.625
 43
3.75
 44
1.25
 73
     0
 74
     0
 77
     1
 78
     8
140
2.5
141
2.5
143
0.03937007874016
147
0.625
171
     3
172
     1
178
     0
271
     2
272
     2
274
     3
278
    44
283
     0
284
     8
340
11
  0
DIMSTYLE
105
185A3
330
A
100
AcDbSymbolTableRecord
100
AcDbDimStyleTableRecord
  2
STANDARD
 70
     0
178
     0
340
11
  0
ENDTAB
  0
TABLE
  2
BLOCK_RECORD
  5
1
330
0
100
AcDbSymbolTable
 70
     2
  0
BLOCK_RECORD
  5
1F
330
1
100
AcDbSymbolTableRecord
100
AcDbBlockTableRecord
  2
*Model_Space
340
22
  0
BLOCK_RECORD
  5
D2
330
1
100
AcDbSymbolTableRecord
100
AcDbBlockTableRecord
  2
*Paper_Space
340
D3
  0
BLOCK_RECORD
  5
D6
330
1
100
AcDbSymbolTableRecord
100
AcDbBlockTableRecord
  2
*Paper_Space0
340
D7
  0
BLOCK_RECORD
  5
18624
330
1
100
AcDbSymbolTableRecord
100
AcDbBlockTableRecord
  2
Sez Silentium sp 2013
340
0
102
{BLKREFS
331
187AD
102
}
1001
AcDbDynamicBlockGUID
1000
{876C1B01-8823-4F94-B0C1-014E39A523B9}
1001
ACAD
1000
DesignCenter Data
1002
{
1070
     1
1070
     4
1002
}
  0
ENDTAB
  0
ENDSEC
  0
SECTION
  2
BLOCKS
  0
BLOCK
  5
20
330
1F
100
AcDbEntity
  8
0
100
AcDbBlockBegin
  2
*Model_Space
 70
     0
 10
0.0
 20
0.0
 30
0.0
  3
*Model_Space
  1

  0
ENDBLK
  5
21
330
1F
100
AcDbEntity
  8
0
100
AcDbBlockEnd
  0
BLOCK
  5
D4
330
D2
100
AcDbEntity
 67
     1
  8
0
100
AcDbBlockBegin
  2
*Paper_Space
 70
     0
 10
0.0
 20
0.0
 30
0.0
  3
*Paper_Space
  1

  0
ENDBLK
  5
D5
330
D2
100
AcDbEntity
 67
     1
  8
0
100
AcDbBlockEnd
  0
BLOCK
  5
D8
330
D6
100
AcDbEntity
  8
0
100
AcDbBlockBegin
  2
*Paper_Space0
 70
     0
 10
0.0
 20
0.0
 30
0.0
  3
*Paper_Space0
  1

  0
ENDBLK
  5
D9
330
D6
100
AcDbEntity
  8
0
100
AcDbBlockEnd
  0
BLOCK
  5
18626
330
18624
100
AcDbEntity
  8
0
100
AcDbBlockBegin
  2
Sez Silentium sp 2013
 70
     0
 10
0.0
 20
0.0
 30
0.0
  3
Sez Silentium sp 2013
  1

  0
TEXT
  5
18627
330
18624
100
AcDbEntity
  8
Cornice_Testi
  6
Continuous
100
AcDbText
 10
1553.833377896488
 20
5982.264574993409
 30
0.0
 40
158.6952945378852
  1
16-18-20 mm
  7
style1
100
AcDbText
1001
AcDbBlockRepETag
1070
     1
1071
       60
1005
0
  0
MTEXT
  5
18628
330
18624
100
AcDbEntity
  8
0
  6
Continuous
 62
     1
100
AcDbMText
 10
-5359.950823131483
 20
11065.08561090658
 30
0.0
 40
397.2255845644607
 41
9641.189356637504
 71
     1
 72
     5
  1
{\fSwis721 BlkOul BT|b0|i0|c0|p82;\C7;SECCIÓN SISTEMA EUROPLUS-SILENTIUM}
  7
CKSTANDARD
 73
     1
 44
1.0
  0
TEXT
  5
1862A
330
18624
100
AcDbEntity
  8
0
  6
Continuous
100
AcDbText
 10
1651.112370890478
 20
6588.934912715988
 30
0.0
 40
152.779070986331
  1
ESPESOR.
  7
style1
100
AcDbText
  0
TEXT
  5
1862B
330
18624
100
AcDbEntity
  8
0
  6
Continuous
100
AcDbText
 10
1557.844287931133
 20
6334.303127738771
 30
0.0
 40
152.779070986331
  1
MIN 45 mm
  7
style1
100
AcDbText
  0
TEXT
  5
1862C
330
18624
100
AcDbEntity
  8
0
  6
Continuous
100
AcDbText
 10
3327.817176165554
 20
6360.882581477003
 30
0.0
 40
152.779070986331
  1
MORTERO CON
  7
style1
100
AcDbText
  0
TEXT
  5
1862D
330
18624
100
AcDbEntity
  8
0
  6
Continuous
100
AcDbText
 10
3345.670472573634
 20
6103.070036794881
 30
0.0
 40
152.779070986331
  1
ADITIVO
  7
style1
100
AcDbText
  0
HATCH
  5
1862E
330
18624
100
AcDbEntity
  8
0
100
AcDbHatch
 10
0.0
 20
0.0
 30
0.0
210
0.0
220
0.0
230
1.0
  2
GRAVEL
 70
     0
 71
     0
 91
        3
 92
        7
 72
     1
 73
     1
 93
        4
 10
-557.7786438327457
 20
5000.217252122879
 42
0.0
 10
-300.3198427698517
 20
4271.754107690205
 42
0.1150166779679909
 10
715.9133123804058
 20
4961.911272415098
 42
0.0
 10
696.296535511181
 20
5000.217252122879
 42
0.0
 97
        0
 92
        7
 72
     1
 73
     1
 93
       17
 10
-300.3198427698517
 20
4271.754107690205
 42
0.0
 10
-557.7786438327457
 20
5000.217252122879
 42
0.0
 10
-571.8122455703269
 20
5000.217252122879
 42
0.0
 10
-596.1783723063709
 20
4989.745293160486
 42
0.0
 10
-596.7499857868243
 20
5000.217252122879
 42
0.0
 10
-1555.021654083888
 20
5000.217252122879
 42
0.0
 10
-1566.579902821366
 20
4974.140020981249
 42
0.0
 10
-1587.907352576469
 20
5000.217252122879
 42
0.0
 10
-1592.215060344926
 20
5000.217252122879
 42
0.0
 10
-2188.623571720585
 20
4250.890495696789
 42
0.0429124533857715
 10
-1740.63088062816
 20
4131.864794897599
 42
0.0
 10
-1556.10794385898
 20
4374.158372194783
 42
0.0
 10
-1582.185175000603
 20
4395.102290119561
 42
0.0
 10
-1493.481522613292
 20
4436.784793440456
 42
0.0
 10
-1530.0307127173
 20
4353.214454269983
 42
0.0
 10
-1556.10794385898
 20
4374.158372194783
 42
0.0
 10
-1740.63088062816
 20
4131.864794897599
 42
0.1362007926809742
 97
        0
 92
        7
 72
     1
 73
     1
 93
        3
 10
-3295.549806781608
 20
5000.217252122879
 42
0.1254642884717374
 10
-2188.623571720585
 20
4250.890495696789
 42
0.0
 10
-1592.215060344926
 20
5000.217252122879
 42
0.0
 97
        0
 75
     0
 76
     1
 52
0.0
 41
480.0
 77
     0
 78
    41
 53
228.0128
 43
16929.68609220334
 44
463.6919646456518
 45
-3839.999151435917
 46
-4320.000643971476
 79
     2
 49
64.57727999999996
 49
-6393.162239999999
 53
184.9697
 43
16886.48609220333
 44
415.6919646456518
 45
5760.000504728465
 46
479.9958273633847
 79
     2
 49
110.81664
 49
-10970.844
 53
132.5104
 43
16776.08609220336
 44
406.0919646456459
 45
4799.995544806469
 46
-5280.004163458173
 79
     2
 49
78.13823999999997
 49
-7735.695359999998
 53
267.2737
 43
16588.88609220335
 44
286.0919646456459
 45
479.9980885090513
 46
9600.000141587261
 79
     2
 49
100.9142399999999
 49
-9990.507839999995
 53
292.8337
 43
16584.08609220336
 44
185.2919646456503
 45
-2400.004754609827
 46
5759.998277653331
 79
     2
 49
98.95439999999998
 49
-9796.499039999999
 53
357.2737
 43
16622.48609220333
 44
94.09196464564593
 45
-9600.000141587265
 46
479.9980885090517
 79
     2
 49
100.91424
 49
-9990.507839999998
 53
37.6942
 43
16723.28609220337
 44
89.2919646456503
 45
-6240.003525896628
 46
-4799.995394477052
 79
     2
 49
133.4539199999999
 49
-13211.92752
 53
72.2553
 43
16828.88609220335
 44
170.8919646456488
 45
3360.005166098596
 46
10559.99819099481
 79
     2
 49
125.9942399999999
 49
-12473.43407999999
 53
121.4296
 43
16867.28609220337
 44
290.8919646456488
 45
-3840.003952404655
 46
6239.997617516429
 79
     2
 49
101.256
 49
-10024.35504
 53
175.2364
 43
16814.48609220333
 44
377.2919646456503
 45
5280.000454233401
 46
-479.9959356774049
 79
     2
 49
115.5993599999998
 49
-5664.36623999999
 53
222.3974
 43
16699.28609220337
 44
386.8919646456488
 45
-5760.003528515153
 46
-5279.996199366775
 79
     2
 49
149.49504
 49
-14800.02
 53
138.8141
 43
17064.08609220336
 44
281.2919646456503
 45
-3360.001414466743
 46
2879.998710404522
 79
     2
 49
51.02447999999999
 49
-5051.44512
 53
171.4692
 43
17025.68609220334
 44
314.8919646456488
 45
6239.999176711261
 46
-960.0037968190991
 79
     2
 49
97.07375999999987
 49
-9610.325279999985
 53
225.0
 43
16929.68609220334
 44
329.2919646456503
 45
-0.0000000000000533
 46
-480.0001485354969
 79
     2
 49
67.88207999999999
 49
-610.9401599999999
 53
203.1985999999999
 43
16896.08609220336
 44
386.8919646456488
 45
2399.999870720196
 46
960.0006361271295
 79
     2
 49
36.55584
 49
-3619.0152
 53
291.8014
 43
16862.48609220333
 44
372.4919646456474
 45
-479.9999570403114
 46
1440.000131045169
 79
     2
 49
51.69743999999998
 49
-2533.181759999999
 53
30.9638
 43
16881.68609220334
 44
324.4919646456474
 45
1439.999050698239
 46
960.0011920995513
 79
     2
 49
83.96591999999994
 49
-2714.891039999999
 53
161.5651
 43
16953.68609220334
 44
367.6919646456518
 45
960.0002086046217
 46
-479.9992335468995
 79
     2
 49
60.71568000000001
 49
-1457.17776
 53
16.38950000000001
 43
16584.08609220336
 44
372.4919646456474
 45
4800.00105523774
 46
1439.996500712625
 79
     2
 49
85.056
 49
-8420.5656
 53
70.3462
 43
16665.68609220334
 44
396.4919646456474
 45
-1919.997718738438
 46
-5280.001025090985
 79
     2
 49
71.35727999999997
 49
-7064.355839999998
 53
293.1986
 43
16953.68609220334
 44
463.6919646456518
 45
-960.0006361271297
 46
2399.999870720195
 79
     2
 49
73.11119999999997
 49
-3582.459839999999
 53
343.6105
 43
16982.48609220333
 44
396.4919646456474
 45
-4800.00105523774
 46
1439.996500712627
 79
     2
 49
85.05599999999986
 49
-8420.565599999984
 53
339.4440000000001
 43
16584.08609220336
 44
74.89196464564884
 45
-2400.000885380363
 46
959.9980782823602
 79
     2
 49
82.02239999999999
 49
-4019.099519999999
 53
294.7751
 43
16660.88609220335
 44
46.09196464564593
 45
-2399.996250837682
 46
5280.001642482775
 79
     2
 49
68.72543999999986
 49
-6803.828639999989
 53
66.80140000000002
 43
16958.48609220333
 44
-16.30803535434825
 45
960.0006361271303
 46
2399.999870720195
 79
     2
 49
73.11119999999997
 49
-3582.459839999999
 53
17.35400000000001
 43
16987.28609220337
 44
50.89196464564884
 45
-6240.000969166479
 46
-1919.997361084376
 79
     2
 49
80.46287999999997
 49
-7965.803519999997
 53
69.444
 43
16723.28609220337
 44
-16.30803535434825
 45
-959.9980782823616
 46
-2400.000885380362
 79
     2
 49
41.0112
 49
-4060.110719999999
 53
101.3099
 43
16929.68609220334
 44
-16.30803535434825
 45
-479.9988634375705
 46
1920.000361070856
 79
     2
 49
24.47519999999997
 49
-2423.053919999996
 53
165.9638
 43
16924.88609220335
 44
7.691964645651751
 45
1440.000262075075
 46
-479.9990675333978
 79
     2
 49
98.9544
 49
-1880.136
 53
186.009
 43
16828.88609220335
 44
31.69196464565175
 45
4799.999880434899
 46
479.9996723912837
 79
     2
 49
91.70400000000002
 49
-9078.683040000002
 53
303.6901
 43
16881.68609220334
 44
281.2919646456503
 45
-480.0006405634516
 46
959.9997877301566
 79
     2
 49
69.22655999999996
 49
-1661.437919999999
 53
353.1572
 43
16920.08609220336
 44
223.6919646456518
 45
8159.999695429702
 46
-960.003839003885
 79
     2
 49
120.86112
 49
-11965.23024
 53
60.94540000000001
 43
17040.08609220336
 44
209.2919646456503
 45
-1920.000013055654
 46
-3360.000184593448
 79
     2
 49
49.41887999999997
 49
-4892.483519999998
 53
90.0
 43
17064.08609220336
 44
252.4919646456474
 45
-479.9999999999999
 46
479.9999999999998
 79
     2
 49
28.79999999999999
 49
-451.1999999999998
 53
120.2564
 43
16819.28609220337
 44
46.09196464564593
 45
1919.997545665293
 46
-3360.001178810271
 79
     2
 49
66.68351999999997
 49
-6601.689599999999
 53
48.01279999999997
 43
16785.68609220334
 44
103.6919646456518
 45
3839.999151435917
 46
4320.000643971478
 79
     2
 49
129.1545599999998
 49
-6328.584959999993
 53
0.0
 43
16872.08609220336
 44
199.6919646456518
 45
480.0
 46
479.9999999999998
 79
     2
 49
124.8
 49
-355.2
 53
325.3048
 43
16996.88609220335
 44
199.6919646456518
 45
-4799.997244314012
 46
3360.004132605338
 79
     2
 49
75.89471999999999
 49
-7513.571519999999
 53
254.0546
 43
17059.28609220337
 44
156.4919646456474
 45
-479.9999468622629
 46
-1920.000060793032
 79
     2
 49
69.88895999999998
 49
-3424.563839999999
 53
207.646
 43
17040.08609220336
 44
89.2919646456503
 45
-9119.997987446204
 46
-4800.003702321203
 79
     2
 49
113.7912
 49
-11265.34752
 53
175.4261
 43
16939.28609220337
 44
36.49196464564739
 45
-6240.000267989823
 46
479.9975045573202
 79
     2
 49
120.3835199999999
 49
-11917.95551999998
 47
8.339697819319136
 98
        3
 10
89.45255272553186
 20
4790.866603967421
 10
-931.7771435130562
 20
4550.683073964909
 10
-2263.379745570681
 20
4710.805427299914
1001
ACAD
1010
0.0
1020
0.0
1030
0.0
1001
AcDbBlockRepETag
1070
     1
1071
        1
1005
0
  0
HATCH
  5
1862F
330
18624
100
AcDbEntity
  8
0
100
AcDbHatch
 10
0.0
 20
0.0
 30
0.0
210
0.0
220
0.0
230
1.0
  2
AR-B816C
 70
     0
 71
     0
 91
        1
 92
        7
 72
     1
 73
     1
 93
        4
 10
-3295.549806781608
 20
5000.217252122879
 42
0.0
 10
-3189.117544406123
 20
5000.217252122879
 42
0.0
 10
-3189.117544406123
 20
8705.923488522647
 42
0.1984229688999
 10
-3977.923526228959
 20
6796.493915940024
 42
0.1835424472498091
 97
        0
 75
     0
 76
     1
 52
0.0
 41
48.0
 77
     0
 78
     4
 53
0.0
 43
16584.08609220336
 44
-16.30803535434825
 45
384.0
 46
383.9999999999998
 79
     2
 49
750.0
 49
-18.0
 53
0.0
 43
16200.08609220336
 44
1.691964645651751
 45
384.0
 46
383.9999999999998
 79
     2
 49
750.0
 49
-18.0
 53
90.0
 43
16584.08609220336
 44
-16.30803535434825
 45
-383.9999999999999
 46
383.9999999999998
 79
     2
 49
-401.9999999999998
 49
365.9999999999999
 53
90.0
 43
16566.08609220336
 44
-16.30803535434825
 45
-383.9999999999999
 46
383.9999999999998
 79
     2
 49
-401.9999999999998
 49
365.9999999999999
 47
11.7861632973193
 98
        1
 10
-3591.638179625763
 20
6279.20791032166
1001
ACAD
1010
0.0
1020
0.0
1030
0.0
1001
AcDbBlockRepETag
1070
     1
1071
        2
1005
0
  0
CIRCLE
  5
18630
330
18624
100
AcDbEntity
  8
Cornice_linee
100
AcDbCircle
 10
-1272.482474838063
 20
6796.493915940038
 30
0.0
 40
2705.441051390902
1001
AcDbBlockRepETag
1070
     1
1071
        3
1005
0
  0
POLYLINE
  5
18631
330
18624
100
AcDbEntity
  8
Cornice_linee
100
AcDb3dPolyline
 66
     1
 10
0.0
 20
0.0
 30
0.0
 70
     8
1001
AcDbBlockRepETag
1070
     1
1071
        5
1005
0
  0
VERTEX
  5
18632
330
18631
100
AcDbEntity
  8
Cornice_linee
100
AcDbVertex
100
AcDb3dPolylineVertex
 10
-3295.549806781608
 20
5000.2172521229
 30
0.0
 70
    32
  0
VERTEX
  5
18633
330
18631
100
AcDbEntity
  8
Cornice_linee
100
AcDbVertex
100
AcDb3dPolylineVertex
 10
750.584857105423
 20
5000.2172521229
 30
0.0
 70
    32
  0
SEQEND
  5
18634
330
18631
100
AcDbEntity
  8
Cornice_linee
  0
POLYLINE
  5
18635
330
18624
100
AcDbEntity
  8
Cornice_linee
100
AcDb3dPolyline
 66
     1
 10
0.0
 20
0.0
 30
0.0
 70
     8
1001
AcDbBlockRepETag
1070
     1
1071
        6
1005
0
  0
VERTEX
  5
18636
330
18635
100
AcDbEntity
  8
Cornice_linee
100
AcDbVertex
100
AcDb3dPolylineVertex
 10
-2719.727383856516
 20
6894.204496615152
 30
0.0
 70
    32
  0
VERTEX
  5
18637
330
18635
100
AcDbEntity
  8
Cornice_linee
100
AcDbVertex
100
AcDb3dPolylineVertex
 10
1431.193527380965
 20
6894.204496615152
 30
0.0
 70
    32
  0
SEQEND
  5
18638
330
18635
100
AcDbEntity
  8
Cornice_linee
  0
LINE
  5
18639
330
18624
100
AcDbEntity
  8
Cornice_linee
100
AcDbLine
 10
-2787.487118319114
 20
5861.176544854461
 30
0.0
 11
-1652.283025493816
 21
5861.176544854468
 31
0.0
1001
AcDbBlockRepETag
1070
     1
1071
        7
1005
0
  0
LINE
  5
1863A
330
18624
100
AcDbEntity
  8
Cornice_linee
100
AcDbLine
 10
-2787.487118319114
 20
5396.919697521749
 30
0.0
 11
1042.81519278264
 21
5396.919697521749
 31
0.0
1001
AcDbBlockRepETag
1070
     1
1071
        8
1005
0
  0
ARC
  5
1863B
330
18624
100
AcDbEntity
  8
Cornice_linee
100
AcDbCircle
 10
-1752.430226384633
 20
5492.450463144422
 30
0.0
 40
95.53076562267525
100
AcDbArc
 50
167.5879537736461
 51
12.41204622635392
1001
AcDbBlockRepETag
1070
     1
1071
        9
1005
0
  0
LINE
  5
1863C
330
18624
100
AcDbEntity
  8
Cornice_linee
100
AcDbLine
 10
-1760.316695848858
 20
5745.112333021301
 30
0.0
 11
-1845.728161877167
 21
5512.983909354938
 31
0.0
1001
AcDbBlockRepETag
1070
     1
1071
       10
1005
0
  0
ARC
  5
1863D
330
18624
100
AcDbEntity
  8
Cornice_linee
100
AcDbCircle
 10
-1853.614631341392
 20
5765.645779231803
 30
0.0
 40
95.53076562267525
100
AcDbArc
 50
347.5879537736461
 51
192.4120462263539
1001
AcDbBlockRepETag
1070
     1
1071
       11
1005
0
  0
POLYLINE
  5
1863E
330
18624
100
AcDbEntity
  8
Cornice_linee
100
AcDb3dPolyline
 66
     1
 10
0.0
 20
0.0
 30
0.0
 70
     8
1001
AcDbBlockRepETag
1070
     1
1071
       13
1005
0
  0
VERTEX
  5
1863F
330
1863E
100
AcDbEntity
  8
Cornice_linee
100
AcDbVertex
100
AcDb3dPolylineVertex
 10
-246.4970759739226
 20
7462.975601043108
 30
0.0
 70
    32
  0
VERTEX
  5
18640
330
1863E
100
AcDbEntity
  8
Cornice_linee
100
AcDbVertex
100
AcDb3dPolylineVertex
 10
-1931.866471333051
 20
7462.975601043108
 30
0.0
 70
    32
  0
SEQEND
  5
18641
330
1863E
100
AcDbEntity
  8
Cornice_linee
  0
POLYLINE
  5
18642
330
18624
100
AcDbEntity
  8
Cornice_linee
100
AcDb3dPolyline
 66
     1
 10
0.0
 20
0.0
 30
0.0
 70
     8
1001
AcDbBlockRepETag
1070
     1
1071
       15
1005
0
  0
VERTEX
  5
18643
330
18642
100
AcDbEntity
  8
Cornice_linee
100
AcDbVertex
100
AcDb3dPolylineVertex
 10
-2820.467238706857
 20
8622.55048678605
 30
0.0
 70
    32
  0
VERTEX
  5
18644
330
18642
100
AcDbEntity
  8
Cornice_linee
100
AcDbVertex
100
AcDb3dPolylineVertex
 10
-622.255603447993
 20
9419.589266781033
 30
0.0
 70
    32
  0
SEQEND
  5
18645
330
18642
100
AcDbEntity
  8
Cornice_linee
  0
POLYLINE
  5
18646
330
18624
100
AcDbEntity
  8
Cornice_linee
100
AcDb3dPolyline
 66
     1
 10
0.0
 20
0.0
 30
0.0
 70
     8
1001
AcDbBlockRepETag
1070
     1
1071
       16
1005
0
  0
VERTEX
  5
18647
330
18646
100
AcDbEntity
  8
Cornice_linee
100
AcDbVertex
100
AcDb3dPolylineVertex
 10
-2620.55177250682
 20
7097.689032531431
 30
0.0
 70
    32
  0
VERTEX
  5
18648
330
18646
100
AcDbEntity
  8
Cornice_linee
100
AcDbVertex
100
AcDb3dPolylineVertex
 10
191.6825402171526
 20
8600.31247737036
 30
0.0
 70
    32
  0
SEQEND
  5
18649
330
18646
100
AcDbEntity
  8
Cornice_linee
  0
POLYLINE
  5
1864A
330
18624
100
AcDbEntity
  8
Cornice_linee
100
AcDb3dPolyline
 66
     1
 10
0.0
 20
0.0
 30
0.0
 70
     8
1001
AcDbBlockRepETag
1070
     1
1071
       17
1005
0
  0
VERTEX
  5
1864B
330
1864A
100
AcDbEntity
  8
Cornice_linee
100
AcDbVertex
100
AcDb3dPolylineVertex
 10
-2844.774893819209
 20
7097.689032531431
 30
0.0
 70
    32
  0
VERTEX
  5
1864C
330
1864A
100
AcDbEntity
  8
Cornice_linee
100
AcDbVertex
100
AcDb3dPolylineVertex
 10
1416.140366746899
 20
7097.689032531431
 30
0.0
 70
    32
  0
SEQEND
  5
1864D
330
1864A
100
AcDbEntity
  8
Cornice_linee
  0
HATCH
  5
1864E
330
18624
100
AcDbEntity
  8
Cornice_Tratteggi
100
AcDbHatch
 10
0.0
 20
0.0
 30
0.0
210
0.0
220
0.0
230
1.0
  2
AR-CONC
 70
     0
 71
     0
 91
        1
 92
        7
 72
     1
 73
     1
 93
       32
 10
1432.958576552832
 20
6796.493915940024
 42
0.0090312901367524
 10
1431.193527380965
 20
6894.20449661513
 42
0.0
 10
-2519.466145901562
 20
6894.20449661513
 42
0.0
 10
-2675.272891398548
 20
6810.736823709012
 42
0.0
 10
-2657.100962610828
 20
6779.423613086175
 42
0.0
 10
-2718.327846581786
 20
6775.880390634149
 42
0.0
 10
-2718.327846581786
 20
6004.459728342968
 42
0.3497543245684667
 10
-2629.89620970239
 20
5920.889389172502
 42
0.0
 10
-2165.434029841068
 20
5920.889389172502
 42
0.0
 10
-2165.434029841068
 20
5861.176544854454
 42
0.0
 10
-1652.283025493816
 20
5861.176544854454
 42
0.0
 10
-1652.283025493816
 20
5969.93857157509
 42
0.0
 10
-1728.633901006164
 20
6000.599159379257
 42
-1.0
 10
-1728.633901006164
 20
6026.049451216699
 42
0.0
 10
-1652.170512492274
 20
6026.049451216699
 42
-0.967278709760076
 10
-1245.583510536206
 20
6026.049451216699
 42
0.0
 10
-1169.120122022316
 20
6026.049451216699
 42
-1.0
 10
-1169.120122022316
 20
6000.599159379257
 42
0.0
 10
-1245.470997534663
 20
5969.93857157509
 42
0.0
 10
-1245.470997534663
 20
5861.176544854454
 42
0.0
 10
-33.33254618526553
 20
5861.176544854454
 42
0.0
 10
-33.33254618526553
 20
5969.93857157509
 42
0.0
 10
-109.6834216975549
 20
6000.599159379257
 42
-1.0
 10
-109.6834216975549
 20
6026.049451216699
 42
0.0
 10
-33.22003318372299
 20
6026.049451216699
 42
-0.967278709760076
 10
373.366968772345
 20
6026.049451216699
 42
0.0
 10
449.8303572862351
 20
6026.049451216699
 42
-1.0
 10
449.8303572862351
 20
6000.599159379257
 42
0.0
 10
373.4794817738875
 20
5969.93857157509
 42
0.0
 10
373.4794817738875
 20
5861.176544854454
 42
0.0
 10
1262.572968738648
 20
5861.176544854461
 42
0.0
 10
1266.137760229962
 20
5861.176544854461
 42
0.0884805591521053
 97
        0
 75
     0
 76
     1
 52
0.0
 41
0.9600000000000011
 77
     0
 78
    13
 53
49.99999999999999
 43
-20141.66574266434
 44
-21323.86978127863
 45
174.897282236164
 46
-15.30152211734696
 79
     2
 49
18.28800000000001
 49
-201.1680000000002
 53
355.0
 43
-20141.66574266434
 44
-21323.86978127863
 45
-33.83311293664033
 46
183.4143771668929
 79
     2
 49
14.63040000000002
 49
-160.9344000000002
 53
100.4509999999999
 43
-20127.0910226643
 44
-21325.14490127863
 45
141.0648015993211
 46
168.1120203074803
 79
     2
 49
15.54240000000001
 49
-170.9664000000001
 53
46.1842
 43
-20141.66574266434
 44
-21275.10178127863
 45
260.2358792564449
 46
-40.36063481541809
 79
     2
 49
27.43200000000001
 49
-301.7520000000001
 53
96.63559999999997
 43
-20119.9794386643
 44
-21278.46514127863
 45
227.9080650875879
 46
237.5285336544474
 79
     2
 49
23.31359999999996
 49
-256.4495999999994
 53
351.184
 43
-20141.66574266434
 44
-21275.10178127863
 45
227.9084215813768
 46
237.528113146174
 79
     2
 49
21.94560000000002
 49
-241.4016000000003
 53
21.0
 43
-20117.28174266437
 44
-21287.29378127864
 45
145.5502846419681
 46
-98.17489777609204
 79
     2
 49
18.28799999999999
 49
-201.168
 53
326.0000000000001
 43
-20117.28174266437
 44
-21287.29378127864
 45
59.32994721374126
 46
176.8204474774266
 79
     2
 49
14.63040000000001
 49
-160.9344000000001
 53
71.4514
 43
-20105.15262266432
 44
-21295.47499727862
 45
204.8798311393197
 46
78.64594340741519
 79
     2
 49
15.54240000000001
 49
-170.9664000000001
 53
37.49999999999999
 43
-20141.66574266434
 44
-21323.86978127863
 45
2.965059120568146
 46
81.17283731822704
 79
     6
 49
0.0
 49
-158.9836800000002
 49
0.0
 49
-163.3728000000002
 49
0.0
 49
-161.5440000000002
 53
7.499999999999998
 43
-20141.66574266434
 44
-21323.86978127863
 45
64.14687600989357
 46
96.17335182539479
 79
     6
 49
0.0
 49
-93.1468800000001
 49
0.0
 49
-155.3260800000002
 49
0.0
 49
-61.56960000000007
 53
327.5
 43
-20196.04206266438
 44
-21323.86978127863
 45
130.1669713601967
 46
-5.499594232966525
 79
     6
 49
0.0
 49
-60.96000000000007
 49
0.0
 49
-190.1952000000002
 49
0.0
 49
-252.3744000000002
 53
317.5
 43
-20220.42606266434
 44
-21323.86978127863
 45
142.2040141305775
 46
24.40943139199971
 79
     6
 49
0.0
 49
-79.24800000000006
 49
0.0
 49
-126.3091200000001
 49
0.0
 49
-179.2224000000001
 47
0.0733094293105996
 98
        1
 10
-811.2197225700074
 20
6535.229895676566
1001
AcDbBlockRepETag
1070
     1
1071
       18
1005
0
  0
ARC
  5
1864F
330
18624
100
AcDbEntity
  8
Cornice_linee
100
AcDbCircle
 10
-2663.651056131377
 20
7259.446135249796
 30
0.0
 40
181.4237236811121
100
AcDbArc
 50
183.2947959507741
 51
243.0747940696918
1001
AcDbBlockRepETag
1070
     1
1071
       23
1005
0
  0
HATCH
  5
18650
330
18624
100
AcDbEntity
  8
Cornice_Tratteggi
100
AcDbHatch
 10
0.0
 20
0.0
 30
0.0
210
0.0
220
0.0
230
1.0
  2
ANSI33
 70
     0
 71
     0
 91
        1
 92
        7
 72
     1
 73
     1
 93
       15
 10
-2844.774893819209
 20
7249.019106164349
 42
0.2669205968463505
 10
-2745.804614998138
 20
7097.689032531416
 42
0.0
 10
-2620.55177250682
 20
7097.689032531416
 42
0.0
 10
-2620.55177250682
 20
7195.067820371602
 42
0.2068350824836941
 10
-2650.766843279795
 20
7264.984507125169
 42
-0.1556857392474244
 10
-2688.311506969359
 20
7332.589445334881
 42
0.0
 10
-2688.311506969301
 20
8154.06585567732
 42
0.0
 10
-2716.955394719465
 20
8133.38630716483
 42
0.0
 10
-2703.916779148596
 20
8104.639753150455
 42
0.0
 10
-2803.09239049835
 20
8089.034480971204
 42
0.0
 10
-2729.994010290276
 20
8162.132861179263
 42
0.0
 10
-2716.955394719465
 20
8133.38630716483
 42
0.0
 10
-2688.311506969301
 20
8154.065855677341
 42
0.0
 10
-2688.311506969301
 20
8485.531593841246
 42
0.3351749916051918
 10
-2844.774893819209
 20
8626.38970851199
 42
0.0
 97
        0
 75
     0
 76
     1
 52
0.0
 41
19.20000000000002
 77
     0
 78
     2
 53
45.0
 43
-20141.66574266434
 44
-21323.86978127863
 45
-86.21045876226395
 46
86.21045876226394
 79
     0
 53
45.0
 43
-20055.45524666432
 44
-21323.86978127863
 45
-86.21045876226395
 46
86.21045876226394
 79
     2
 49
60.96000000000004
 49
-30.48000000000002
 47
0.0287281042308676
 98
        1
 10
-2771.387850043684
 20
7883.604922758299
1001
AcDbBlockRepETag
1070
     1
1071
       24
1005
0
  0
POLYLINE
  5
18651
330
18624
100
AcDbEntity
  8
Cornice_linee
100
AcDb3dPolyline
 66
     1
 10
0.0
 20
0.0
 30
0.0
 70
     8
1001
AcDbBlockRepETag
1070
     1
1071
       25
1005
0
  0
VERTEX
  5
18652
330
18651
100
AcDbEntity
  8
Cornice_linee
100
AcDbVertex
100
AcDb3dPolylineVertex
 10
-3189.117544406123
 20
5000.2172521229
 30
0.0
 70
    32
  0
VERTEX
  5
18653
330
18651
100
AcDbEntity
  8
Cornice_linee
100
AcDbVertex
100
AcDb3dPolylineVertex
 10
-3189.117544406123
 20
8709.960047682463
 30
0.0
 70
    32
  0
SEQEND
  5
18654
330
18651
100
AcDbEntity
  8
Cornice_linee
  0
LINE
  5
18655
330
18624
100
AcDbEntity
  8
Cornice_linee
100
AcDbLine
 10
-2844.774893819209
 20
5000.2172521229
 30
0.0
 11
-2844.774893819209
 21
8998.154160338716
 31
0.0
1001
AcDbBlockRepETag
1070
     1
1071
       26
1005
0
  0
LWPOLYLINE
  5
18656
330
18624
100
AcDbEntity
  8
Cornice_linee
100
AcDbPolyline
 90
        6
 70
     0
 43
0.0
 10
-2620.55177250682
 20
7097.689032531431
 10
-2620.55177250682
 20
7195.0678203715
 42
0.2068350824838339
 10
-2650.766843279736
 20
7264.984507125133
 42
-0.1556857392475686
 10
-2688.311506969359
 20
7332.589445334888
 10
-2688.311506969301
 20
8485.531593841406
 42
0.3351749916050233
 10
-2844.774893819209
 20
8626.389708512004
1001
AcDbBlockRepETag
1070
     1
1071
       27
1005
0
  0
LINE
  5
18657
330
18624
100
AcDbEntity
  8
Cornice_linee
100
AcDbLine
 10
-2165.434029841068
 20
5920.889389172517
 30
0.0
 11
-2165.434029841068
 21
5858.262967926836
 31
0.0
1001
AcDbBlockRepETag
1070
     1
1071
       28
1005
0
  0
ARC
  5
18658
330
18624
100
AcDbEntity
  8
Cornice_linee
100
AcDbCircle
 10
-2697.747737267899
 20
5948.065335530242
 30
0.0
 40
89.95551506066624
100
AcDbArc
 50
183.9725766188739
 51
266.6562002395435
1001
AcDbBlockRepETag
1070
     1
1071
       29
1005
0
  0
LWPOLYLINE
  5
18659
330
18624
100
AcDbEntity
  8
Cornice_linee
100
AcDbPolyline
 90
        4
 70
     1
 43
0.0
 10
-2839.641580602358
 20
5000.2172521229
 10
-2787.487118319114
 20
5000.2172521229
 10
-2787.487118319114
 20
7097.689032531431
 10
-2839.641580602358
 20
7097.689032531431
1001
AcDbBlockRepETag
1070
     1
1071
       30
1005
0
  0
POLYLINE
  5
1865A
330
18624
100
AcDbEntity
  8
Cornice_linee
100
AcDb3dPolyline
 66
     1
 10
0.0
 20
0.0
 30
0.0
 70
     8
1001
AcDbBlockRepETag
1070
     1
1071
       31
1005
0
  0
VERTEX
  5
1865B
330
1865A
100
AcDbEntity
  8
Cornice_linee
100
AcDbVertex
100
AcDb3dPolylineVertex
 10
-2787.487118319114
 20
7097.689032531431
 30
0.0
 70
    32
  0
VERTEX
  5
1865C
330
1865A
100
AcDbEntity
  8
Cornice_linee
100
AcDbVertex
100
AcDb3dPolylineVertex
 10
-2787.487118319114
 20
5266.328209284868
 30
0.0
 70
    32
  0
SEQEND
  5
1865D
330
1865A
100
AcDbEntity
  8
Cornice_linee
  0
LINE
  5
1865E
330
18624
100
AcDbEntity
  8
Cornice_linee
100
AcDbLine
 10
-2165.434029841068
 20
5858.262967926836
 30
0.0
 11
-2702.994589910522
 21
5858.262967926836
 31
0.0
1001
AcDbBlockRepETag
1070
     1
1071
       32
1005
0
  0
ARC
  5
1865F
330
18624
100
AcDbEntity
  8
Cornice_linee
100
AcDbCircle
 10
-2258.352251168544
 20
5765.645779231803
 30
0.0
 40
95.53076562267525
100
AcDbArc
 50
347.5879537736461
 51
192.4120462263539
1001
AcDbBlockRepETag
1070
     1
1071
       33
1005
0
  0
ARC
  5
18660
330
18624
100
AcDbEntity
  8
Cornice_linee
100
AcDbCircle
 10
-2359.536656125303
 20
5492.450463144422
 30
0.0
 40
95.53076562267525
100
AcDbArc
 50
167.5879537736461
 51
12.41204622635392
1001
AcDbBlockRepETag
1070
     1
1071
       34
1005
0
  0
LINE
  5
18661
330
18624
100
AcDbEntity
  8
Cornice_linee
100
AcDbLine
 10
-2351.650186661078
 20
5745.112333021294
 30
0.0
 11
-2266.238720632711
 21
5512.983909354938
 31
0.0
1001
AcDbBlockRepETag
1070
     1
1071
       35
1005
0
  0
ARC
  5
18662
330
18624
100
AcDbEntity
  8
Cornice_linee
100
AcDbCircle
 10
-2663.089870995638
 20
5765.645779231803
 30
0.0
 40
95.53076562267525
100
AcDbArc
 50
347.5879537736461
 51
192.4120462263539
1001
AcDbBlockRepETag
1070
     1
1071
       36
1005
0
  0
ARC
  5
18663
330
18624
100
AcDbEntity
  8
Cornice_linee
100
AcDbCircle
 10
-2460.721061082062
 20
5765.645779231803
 30
0.0
 40
95.53076562267525
100
AcDbArc
 50
347.5879537736461
 51
192.4120462263539
1001
AcDbBlockRepETag
1070
     1
1071
       37
1005
0
  0
ARC
  5
18664
330
18624
100
AcDbEntity
  8
Cornice_linee
100
AcDbCircle
 10
-2764.274275952455
 20
5492.450463144422
 30
0.0
 40
95.53076562267525
100
AcDbArc
 50
255.937030251888
 51
12.41204622635392
1001
AcDbBlockRepETag
1070
     1
1071
       38
1005
0
  0
ARC
  5
18665
330
18624
100
AcDbEntity
  8
Cornice_linee
100
AcDbCircle
 10
-2561.905466038879
 20
5492.450463144422
 30
0.0
 40
95.53076562267525
100
AcDbArc
 50
167.5879537736461
 51
12.41204622635392
1001
AcDbBlockRepETag
1070
     1
1071
       39
1005
0
  0
LINE
  5
18666
330
18624
100
AcDbEntity
  8
Cornice_linee
100
AcDbLine
 10
-2756.38780648823
 20
5745.112333021294
 30
0.0
 11
-2670.976340459863
 21
5512.983909354938
 31
0.0
1001
AcDbBlockRepETag
1070
     1
1071
       40
1005
0
  0
LINE
  5
18667
330
18624
100
AcDbEntity
  8
Cornice_linee
100
AcDbLine
 10
-2569.791935503046
 20
5745.112333021301
 30
0.0
 11
-2655.203401531471
 21
5512.983909354938
 31
0.0
1001
AcDbBlockRepETag
1070
     1
1071
       41
1005
0
  0
LINE
  5
18668
330
18624
100
AcDbEntity
  8
Cornice_linee
100
AcDbLine
 10
-2554.018996574654
 20
5745.112333021294
 30
0.0
 11
-2468.607530546287
 21
5512.983909354938
 31
0.0
1001
AcDbBlockRepETag
1070
     1
1071
       42
1005
0
  0
LINE
  5
18669
330
18624
100
AcDbEntity
  8
Cornice_linee
100
AcDbLine
 10
-2367.423125589528
 20
5745.112333021301
 30
0.0
 11
-2452.834591617837
 21
5512.983909354938
 31
0.0
1001
AcDbBlockRepETag
1070
     1
1071
       43
1005
0
  0
ARC
  5
1866A
330
18624
100
AcDbEntity
  8
Cornice_linee
100
AcDbCircle
 10
-2055.983441254968
 20
5765.645779231803
 30
0.0
 40
95.53076562267525
100
AcDbArc
 50
347.5879537736461
 51
192.4120462263539
1001
AcDbBlockRepETag
1070
     1
1071
       44
1005
0
  0
ARC
  5
1866B
330
18624
100
AcDbEntity
  8
Cornice_linee
100
AcDbCircle
 10
-2157.167846211727
 20
5492.450463144422
 30
0.0
 40
95.53076562267525
100
AcDbArc
 50
167.5879537736461
 51
12.41204622635392
1001
AcDbBlockRepETag
1070
     1
1071
       45
1005
0
  0
ARC
  5
1866C
330
18624
100
AcDbEntity
  8
Cornice_linee
100
AcDbCircle
 10
-1954.799036298151
 20
5492.450463144422
 30
0.0
 40
95.53076562267525
100
AcDbArc
 50
167.5879537736461
 51
12.41204622635392
1001
AcDbBlockRepETag
1070
     1
1071
       46
1005
0
  0
LINE
  5
1866D
330
18624
100
AcDbEntity
  8
Cornice_linee
100
AcDbLine
 10
-2165.054315675952
 20
5745.112333021301
 30
0.0
 11
-2250.465781704261
 21
5512.983909354938
 31
0.0
1001
AcDbBlockRepETag
1070
     1
1071
       47
1005
0
  0
LINE
  5
1866E
330
18624
100
AcDbEntity
  8
Cornice_linee
100
AcDbLine
 10
-2149.281376747502
 20
5745.112333021294
 30
0.0
 11
-2063.869910719135
 21
5512.983909354938
 31
0.0
1001
AcDbBlockRepETag
1070
     1
1071
       48
1005
0
  0
LINE
  5
1866F
330
18624
100
AcDbEntity
  8
Cornice_linee
100
AcDbLine
 10
-1962.685505762376
 20
5745.112333021301
 30
0.0
 11
-2048.096971790743
 21
5512.983909354938
 31
0.0
1001
AcDbBlockRepETag
1070
     1
1071
       49
1005
0
  0
LINE
  5
18670
330
18624
100
AcDbEntity
  8
Cornice_linee
100
AcDbLine
 10
-1946.912566833926
 20
5745.112333021294
 30
0.0
 11
-1861.501100805617
 21
5512.983909354938
 31
0.0
1001
AcDbBlockRepETag
1070
     1
1071
       50
1005
0
  0
LINE
  5
18671
330
18624
100
AcDbEntity
  8
Cornice_linee
100
AcDbLine
 10
-2629.89620970239
 20
5920.889389172517
 30
0.0
 11
-2165.434029841068
 21
5920.889389172517
 31
0.0
1001
AcDbBlockRepETag
1070
     1
1071
       51
1005
0
  0
ARC
  5
18672
330
18624
100
AcDbEntity
  8
Cornice_linee
100
AcDbCircle
 10
-2621.684270819853
 20
6018.152045673974
 30
0.0
 40
97.60871011304343
100
AcDbArc
 50
188.0639111056786
 51
265.1739320860435
1001
AcDbBlockRepETag
1070
     1
1071
       53
1005
0
  0
LINE
  5
18673
330
18624
100
AcDbEntity
  8
Cornice_linee
100
AcDbLine
 10
-2718.327846581786
 20
7097.689032531431
 30
0.0
 11
-2718.327846581786
 21
6004.459728342983
 31
0.0
1001
AcDbBlockRepETag
1070
     1
1071
       54
1005
0
  0
POLYLINE
  5
18674
330
18624
100
AcDbEntity
  8
Cornice_linee
100
AcDb3dPolyline
 66
     1
 10
0.0
 20
0.0
 30
0.0
 70
     8
1001
AcDbBlockRepETag
1070
     1
1071
       55
1005
0
  0
VERTEX
  5
18675
330
18674
100
AcDbEntity
  8
Cornice_linee
100
AcDbVertex
100
AcDb3dPolylineVertex
 10
-2787.487118319114
 20
7097.689032531431
 30
0.0
 70
    32
  0
VERTEX
  5
18676
330
18674
100
AcDbEntity
  8
Cornice_linee
100
AcDbVertex
100
AcDb3dPolylineVertex
 10
-2787.487118319114
 20
5902.859048175364
 30
0.0
 70
    32
  0
SEQEND
  5
18677
330
18674
100
AcDbEntity
  8
Cornice_linee
  0
LINE
  5
18678
330
18624
100
AcDbEntity
  8
Cornice_Quote
100
AcDbLine
 10
1262.572968738648
 20
5861.176544854476
 30
0.0
 11
3687.468840898044
 21
5861.176544854468
 31
0.0
1001
AcDbBlockRepETag
1070
     1
1071
       57
1005
0
  0
POLYLINE
  5
18679
330
18624
100
AcDbEntity
  8
Cornice_Quote
100
AcDb3dPolyline
 66
     1
 10
0.0
 20
0.0
 30
0.0
 70
     8
1001
AcDbBlockRepETag
1070
     1
1071
       59
1005
0
  0
VERTEX
  5
1867A
330
18679
100
AcDbEntity
  8
Cornice_Quote
100
AcDbVertex
100
AcDb3dPolylineVertex
 10
1574.391788310226
 20
6883.732537652751
 30
0.0
 70
    32
  0
VERTEX
  5
1867B
330
18679
100
AcDbEntity
  8
Cornice_Quote
100
AcDbVertex
100
AcDb3dPolylineVertex
 10
3687.468840898044
 20
6883.732537652751
 30
0.0
 70
    32
  0
SEQEND
  5
1867C
330
18679
100
AcDbEntity
  8
Cornice_Quote
  0
MTEXT
  5
1867D
330
18624
100
AcDbEntity
  8
Cornice_Testi
100
AcDbMText
 10
1269.844318957737
 20
7627.684747106097
 30
0.0
 40
157.3837631780679
 41
2081.2192767
 71
     1
 72
     5
  1
PAVIMENTACIÓN
  7
style1
 73
     1
 44
1.0
1001
AcDbBlockRepETag
1070
     1
1071
       60
1005
0
  0
MTEXT
  5
1867F
330
18624
100
AcDbEntity
  8
Cornice_Testi
100
AcDbMText
 10
1606.992928954453
 20
5270.633061505832
 30
0.0
 40
157.3837631780679
 41
3378.386045568508
 71
     1
 72
     5
  1
PLANCHA AISLANTE TERMICO Y ACUSTICO EUROPLUS SILENTIUM 32 mm
  7
style1
 73
     1
 44
1.0
1001
AcDbBlockRepETag
1070
     1
1071
       61
1005
0
  0
POLYLINE
  5
18680
330
18624
100
AcDbEntity
  8
Cornice_Quote
100
AcDb3dPolyline
 66
     1
 10
0.0
 20
0.0
 30
0.0
 70
     8
1001
AcDbBlockRepETag
1070
     1
1071
       63
1005
0
  0
VERTEX
  5
18681
330
18680
100
AcDbEntity
  8
Cornice_Quote
100
AcDbVertex
100
AcDb3dPolylineVertex
 10
475.1441072823654
 20
6254.851336679021
 30
0.0
 70
    32
  0
VERTEX
  5
18682
330
18680
100
AcDbEntity
  8
Cornice_Quote
100
AcDbVertex
100
AcDb3dPolylineVertex
 10
2845.878834478353
 20
6254.851336679021
 30
0.0
 70
    32
  0
SEQEND
  5
18683
330
18680
100
AcDbEntity
  8
Cornice_Quote
  0
MTEXT
  5
18684
330
18624
100
AcDbEntity
  8
Cornice_Testi
100
AcDbMText
 10
-115.0171398198872
 20
8382.064024600179
 30
0.0
 40
157.3837631780679
 41
4999.559910042763
 71
     1
 72
     5
  1
CINTA PERIMETRAL DOBLE CARA ADHESIVO
  7
style1
 73
     1
 44
1.0
1001
AcDbBlockRepETag
1070
     1
1071
       64
1005
0
  0
MTEXT
  5
18685
330
18624
100
AcDbEntity
  8
Cornice_Testi
100
AcDbMText
 10
1324.833306818939
 20
4249.264758685342
 30
0.0
 40
157.3837631780679
 41
2045.918211674154
 71
     1
 72
     5
  1
TUBO EUROTHERM
  7
style1
 73
     1
 44
1.0
1001
AcDbBlockRepETag
1070
     1
1071
       65
1005
0
  0
MTEXT
  5
18686
330
18624
100
AcDbEntity
  8
Cornice_Testi
100
AcDbMText
 10
37.6590198961494
 20
3687.193266386603
 30
0.0
 40
157.3837631780679
 41
3583.872232392
 71
     1
 72
     5
  1
MORTERO DE NIVELACIÓN
  7
style1
 73
     1
 44
1.0
1001
AcDbBlockRepETag
1070
     1
1071
       66
1005
0
  0
POLYLINE
  5
18688
330
18624
100
AcDbEntity
  8
Cornice_Quote
100
AcDb3dPolyline
 66
     1
 10
0.0
 20
0.0
 30
0.0
 70
     8
1001
AcDbBlockRepETag
1070
     1
1071
       67
1005
0
  0
VERTEX
  5
18689
330
18688
100
AcDbEntity
  8
Cornice_Quote
100
AcDbVertex
100
AcDb3dPolylineVertex
 10
3374.813828439364
 20
4008.871803683112
 30
0.0
 70
    32
  0
VERTEX
  5
1868A
330
18688
100
AcDbEntity
  8
Cornice_Quote
100
AcDbVertex
100
AcDb3dPolylineVertex
 10
1203.97190658169
 20
4008.871803683112
 30
0.0
 70
    32
  0
VERTEX
  5
1868B
330
18688
100
AcDbEntity
  8
Cornice_Quote
100
AcDbVertex
100
AcDb3dPolylineVertex
 10
170.073467794311
 20
6019.284912565759
 30
0.0
 70
    32
  0
SEQEND
  5
1868C
330
18688
100
AcDbEntity
  8
Cornice_Quote
  0
POLYLINE
  5
1868D
330
18624
100
AcDbEntity
  8
Cornice_Quote
100
AcDb3dPolyline
 66
     1
 10
0.0
 20
0.0
 30
0.0
 70
     8
1001
AcDbBlockRepETag
1070
     1
1071
       68
1005
0
  0
VERTEX
  5
1868E
330
1868D
100
AcDbEntity
  8
Cornice_Quote
100
AcDbVertex
100
AcDb3dPolylineVertex
 10
2936.191464426869
 20
3440.306031783839
 30
0.0
 70
    32
  0
VERTEX
  5
1868F
330
1868D
100
AcDbEntity
  8
Cornice_Quote
100
AcDbVertex
100
AcDb3dPolylineVertex
 10
-6.46334995367215
 20
3440.306031783839
 30
0.0
 70
    32
  0
VERTEX
  5
18690
330
1868D
100
AcDbEntity
  8
Cornice_Quote
100
AcDbVertex
100
AcDb3dPolylineVertex
 10
-561.4052613717213
 20
5120.268749382201
 30
0.0
 70
    32
  0
SEQEND
  5
18691
330
1868D
100
AcDbEntity
  8
Cornice_Quote
  0
POLYLINE
  5
18692
330
18624
100
AcDbEntity
  8
Cornice_Quote
100
AcDb3dPolyline
 66
     1
 10
0.0
 20
0.0
 30
0.0
 70
     8
1001
AcDbBlockRepETag
1070
     1
1071
       69
1005
0
  0
VERTEX
  5
18693
330
18692
100
AcDbEntity
  8
Cornice_Quote
100
AcDbVertex
100
AcDb3dPolylineVertex
 10
3838.491917924519
 20
4535.960404790188
 30
0.0
 70
    32
  0
VERTEX
  5
18694
330
18692
100
AcDbEntity
  8
Cornice_Quote
100
AcDbVertex
100
AcDb3dPolylineVertex
 10
1522.237326026923
 20
4535.960404790188
 30
0.0
 70
    32
  0
VERTEX
  5
18695
330
18692
100
AcDbEntity
  8
Cornice_Quote
100
AcDbVertex
100
AcDb3dPolylineVertex
 10
922.2556772405223
 20
5537.777812192369
 30
0.0
 70
    32
  0
SEQEND
  5
18696
330
18692
100
AcDbEntity
  8
Cornice_Quote
  0
LINE
  5
18697
330
18624
100
AcDbEntity
  8
Cornice_linee
100
AcDbLine
 10
328.1818355056166
 20
5644.094677656401
 30
0.0
 11
274.1903730768536
 21
5717.179144614449
 31
0.0
1001
AcDbBlockRepETag
1070
     1
1071
       71
1005
0
  0
ARC
  5
18698
330
18624
100
AcDbEntity
  8
Cornice_linee
100
AcDbCircle
 10
278.8232605186349
 20
5720.601710019429
 30
0.0
 40
5.760000000000006
100
AcDbArc
 50
39.37875693268391
 51
216.4552939963899
1001
AcDbBlockRepETag
1070
     1
1071
       72
1005
0
  0
ARC
  5
18699
330
18624
100
AcDbEntity
  8
Cornice_linee
100
AcDbCircle
 10
271.25787275107
 20
5492.450463144422
 30
0.0
 40
95.53076562267525
100
AcDbArc
 50
167.5879537736461
 51
12.41204622635392
1001
AcDbBlockRepETag
1070
     1
1071
       73
1005
0
  0
POLYLINE
  5
1869A
330
18624
100
AcDbEntity
  8
Cornice_linee
100
AcDb3dPolyline
 66
     1
 10
0.0
 20
0.0
 30
0.0
 70
     8
1001
AcDbBlockRepETag
1070
     1
1071
       74
1005
0
  0
VERTEX
  5
1869B
330
1869A
100
AcDbEntity
  8
Cornice_linee
100
AcDbVertex
100
AcDb3dPolylineVertex
 10
744.8483724658436
 20
8600.31247737036
 30
0.0
 70
    32
  0
VERTEX
  5
1869C
330
1869A
100
AcDbEntity
  8
Cornice_linee
100
AcDbVertex
100
AcDb3dPolylineVertex
 10
191.6825402171526
 20
8600.31247737036
 30
0.0
 70
    32
  0
SEQEND
  5
1869D
330
1869A
100
AcDbEntity
  8
Cornice_linee
  0
POLYLINE
  5
1869E
330
18624
100
AcDbEntity
  8
Cornice_linee
100
AcDb3dPolyline
 66
     1
 10
0.0
 20
0.0
 30
0.0
 70
     8
1001
AcDbBlockRepETag
1070
     1
1071
       75
1005
0
  0
VERTEX
  5
1869F
330
1869E
100
AcDbEntity
  8
Cornice_linee
100
AcDbVertex
100
AcDb3dPolylineVertex
 10
-877.8946016475384
 20
7097.689032531431
 30
0.0
 70
    32
  0
VERTEX
  5
186A0
330
1869E
100
AcDbEntity
  8
Cornice_linee
100
AcDbVertex
100
AcDb3dPolylineVertex
 10
838.6853380700632
 20
8078.562522008826
 30
0.0
 70
    32
  0
SEQEND
  5
186A1
330
1869E
100
AcDbEntity
  8
Cornice_linee
  0
ARC
  5
186A2
330
18624
100
AcDbEntity
  8
Cornice_linee
100
AcDbCircle
 10
170.073467794311
 20
6019.284912565759
 30
0.0
 40
203.4060139795895
100
AcDbArc
 50
1.905799075414227
 51
178.0942009245858
1001
AcDbBlockRepETag
1070
     1
1071
       76
1005
0
  0
CIRCLE
  5
186A3
330
18624
100
AcDbEntity
  8
Cornice_linee
100
AcDbCircle
 10
170.073467794311
 20
6019.284912565759
 30
0.0
 40
158.1083677112858
1001
AcDbBlockRepETag
1070
     1
1071
       77
1005
0
  0
CIRCLE
  5
186A4
330
18624
100
AcDbEntity
  8
Cornice_linee
100
AcDbCircle
 10
170.073467794311
 20
6019.284912565759
 30
0.0
 40
124.6227559429908
1001
AcDbBlockRepETag
1070
     1
1071
       78
1005
0
  0
LINE
  5
186A5
330
18624
100
AcDbEntity
  8
Cornice_linee
100
AcDbLine
 10
11.96510008300538
 20
5861.176544854468
 30
0.0
 11
328.1818355056166
 21
5861.176544854468
 31
0.0
1001
AcDbBlockRepETag
1070
     1
1071
       79
1005
0
  0
ARC
  5
186A6
330
18624
100
AcDbEntity
  8
Cornice_linee
100
AcDbCircle
 10
372.4422777078871
 20
5765.645779231803
 30
0.0
 40
95.53076562267525
100
AcDbArc
 50
117.6009591712785
 51
192.4120462263539
1001
AcDbBlockRepETag
1070
     1
1071
       80
1005
0
  0
ARC
  5
186A7
330
18624
100
AcDbEntity
  8
Cornice_linee
100
AcDbCircle
 10
-740.5861768167524
 20
5492.450463144422
 30
0.0
 40
95.53076562267525
100
AcDbArc
 50
167.5879537736461
 51
12.41204622635392
1001
AcDbBlockRepETag
1070
     1
1071
       81
1005
0
  0
LINE
  5
186A8
330
18624
100
AcDbEntity
  8
Cornice_linee
100
AcDbLine
 10
-748.4726462809776
 20
5745.112333021301
 30
0.0
 11
-833.8841123093443
 21
5512.983909354938
 31
0.0
1001
AcDbBlockRepETag
1070
     1
1071
       82
1005
0
  0
ARC
  5
186A9
330
18624
100
AcDbEntity
  8
Cornice_linee
100
AcDbCircle
 10
-841.7705817735114
 20
5765.645779231803
 30
0.0
 40
95.53076562267525
100
AcDbArc
 50
347.5879537736461
 51
192.4120462263539
1001
AcDbBlockRepETag
1070
     1
1071
       83
1005
0
  0
LINE
  5
186AA
330
18624
100
AcDbEntity
  8
Cornice_linee
100
AcDbLine
 10
-1245.470997534663
 20
5861.176544854468
 30
0.0
 11
-33.33254618526553
 21
5861.176544854468
 31
0.0
1001
AcDbBlockRepETag
1070
     1
1071
       84
1005
0
  0
POLYLINE
  5
186AB
330
18624
100
AcDbEntity
  8
Cornice_linee
100
AcDb3dPolyline
 66
     1
 10
0.0
 20
0.0
 30
0.0
 70
     8
1001
AcDbBlockRepETag
1070
     1
1071
       85
1005
0
  0
VERTEX
  5
186AC
330
186AB
100
AcDbEntity
  8
Cornice_linee
100
AcDbVertex
100
AcDb3dPolylineVertex
 10
-1245.470997534663
 20
5969.938571575105
 30
0.0
 70
    32
  0
VERTEX
  5
186AD
330
186AB
100
AcDbEntity
  8
Cornice_linee
100
AcDbVertex
100
AcDb3dPolylineVertex
 10
-1245.470997534663
 20
5669.544969493836
 30
0.0
 70
    32
  0
SEQEND
  5
186AE
330
186AB
100
AcDbEntity
  8
Cornice_linee
  0
LINE
  5
186AF
330
18624
100
AcDbEntity
  8
Cornice_linee
100
AcDbLine
 10
-1290.768643802992
 20
6019.284912565759
 30
0.0
 11
-1290.768643802992
 21
5669.544969493836
 31
0.0
1001
AcDbBlockRepETag
1070
     1
1071
       86
1005
0
  0
POLYLINE
  5
186B0
330
18624
100
AcDbEntity
  8
Cornice_linee
100
AcDb3dPolyline
 66
     1
 10
0.0
 20
0.0
 30
0.0
 70
     8
1001
AcDbBlockRepETag
1070
     1
1071
       87
1005
0
  0
VERTEX
  5
186B1
330
186B0
100
AcDbEntity
  8
Cornice_linee
100
AcDbVertex
100
AcDb3dPolylineVertex
 10
-1652.283025493816
 20
5969.938571575105
 30
0.0
 70
    32
  0
VERTEX
  5
186B2
330
186B0
100
AcDbEntity
  8
Cornice_linee
100
AcDbVertex
100
AcDb3dPolylineVertex
 10
-1652.283025493816
 20
5669.544969493836
 30
0.0
 70
    32
  0
SEQEND
  5
186B3
330
186B0
100
AcDbEntity
  8
Cornice_linee
  0
LINE
  5
186B4
330
18624
100
AcDbEntity
  8
Cornice_linee
100
AcDbLine
 10
-1606.985379225545
 20
6019.284912565759
 30
0.0
 11
-1606.985379225545
 21
5669.544969493836
 31
0.0
1001
AcDbBlockRepETag
1070
     1
1071
       88
1005
0
  0
CIRCLE
  5
186B5
330
18624
100
AcDbEntity
  8
Cornice_linee
100
AcDbCircle
 10
-1448.87701151424
 20
6019.284912565759
 30
0.0
 40
124.6227559429908
1001
AcDbBlockRepETag
1070
     1
1071
       89
1005
0
  0
CIRCLE
  5
186B6
330
18624
100
AcDbEntity
  8
Cornice_linee
100
AcDbCircle
 10
-1448.87701151424
 20
6019.284912565759
 30
0.0
 40
158.1083677112858
1001
AcDbBlockRepETag
1070
     1
1071
       90
1005
0
  0
LINE
  5
186B7
330
18624
100
AcDbEntity
  8
Cornice_linee
100
AcDbLine
 10
-1335.674918190896
 20
5724.256107285248
 30
0.0
 11
-1290.768643802992
 21
5669.544969493836
 31
0.0
1001
AcDbBlockRepETag
1070
     1
1071
       91
1005
0
  0
LINE
  5
186B8
330
18624
100
AcDbEntity
  8
Cornice_linee
100
AcDbLine
 10
-1290.768643802992
 20
5644.094677656401
 30
0.0
 11
-1344.760106231697
 21
5717.179144614449
 31
0.0
1001
AcDbBlockRepETag
1070
     1
1071
       92
1005
0
  0
LINE
  5
186B9
330
18624
100
AcDbEntity
  8
Cornice_linee
100
AcDbLine
 10
-1321.821873047011
 20
5644.094677656401
 30
0.0
 11
-1290.768643802992
 21
5644.094677656401
 31
0.0
1001
AcDbBlockRepETag
1070
     1
1071
       93
1005
0
  0
ARC
  5
186BA
330
18624
100
AcDbEntity
  8
Cornice_linee
100
AcDbCircle
 10
-1246.508201600664
 20
5765.645779231803
 30
0.0
 40
95.53076562267525
100
AcDbArc
 50
117.6009591712785
 51
192.4120462263539
1001
AcDbBlockRepETag
1070
     1
1071
       94
1005
0
  0
LINE
  5
186BB
330
18624
100
AcDbEntity
  8
Cornice_linee
100
AcDbLine
 10
-1606.985379225487
 20
5861.176544854468
 30
0.0
 11
-1290.768643802992
 21
5861.176544854468
 31
0.0
1001
AcDbBlockRepETag
1070
     1
1071
       95
1005
0
  0
ARC
  5
186BC
330
18624
100
AcDbEntity
  8
Cornice_linee
100
AcDbCircle
 10
-1347.692606557423
 20
5492.450463144422
 30
0.0
 40
95.53076562267525
100
AcDbArc
 50
167.5879537736461
 51
12.41204622635392
1001
AcDbBlockRepETag
1070
     1
1071
       96
1005
0
  0
POLYLINE
  5
186BD
330
18624
100
AcDbEntity
  8
Cornice_linee
100
AcDb3dPolyline
 66
     1
 10
0.0
 20
0.0
 30
0.0
 70
     8
1001
AcDbBlockRepETag
1070
     1
1071
       97
1005
0
  0
VERTEX
  5
186BE
330
186BD
100
AcDbEntity
  8
Cornice_linee
100
AcDbVertex
100
AcDb3dPolylineVertex
 10
-1268.119820668799
 20
5552.313310242636
 30
0.0
 70
    32
  0
VERTEX
  5
186BF
330
186BD
100
AcDbEntity
  8
Cornice_linee
100
AcDbVertex
100
AcDb3dPolylineVertex
 10
-1321.821873047011
 20
5644.094677656401
 30
0.0
 70
    32
  0
SEQEND
  5
186C0
330
186BD
100
AcDbEntity
  8
Cornice_linee
  0
ARC
  5
186C1
330
18624
100
AcDbEntity
  8
Cornice_linee
100
AcDbCircle
 10
-1651.245821427816
 20
5765.645779231803
 30
0.0
 40
95.53076562267525
100
AcDbArc
 50
347.5879537736461
 51
62.39904082872148
1001
AcDbBlockRepETag
1070
     1
1071
       98
1005
0
  0
LINE
  5
186C2
330
18624
100
AcDbEntity
  8
Cornice_linee
100
AcDbLine
 10
-1339.806137093256
 20
5745.112333021294
 30
0.0
 11
-1329.253435706574
 21
5716.432554389474
 31
0.0
1001
AcDbBlockRepETag
1070
     1
1071
       99
1005
0
  0
ARC
  5
186C3
330
18624
100
AcDbEntity
  8
Cornice_linee
100
AcDbCircle
 10
-1448.87701151424
 20
5765.645779231803
 30
0.0
 40
95.53076562267525
100
AcDbArc
 50
347.5879537736461
 51
192.4120462263539
1001
AcDbBlockRepETag
1070
     1
1071
      100
1005
0
  0
LINE
  5
186C4
330
18624
100
AcDbEntity
  8
Cornice_linee
100
AcDbLine
 10
-1557.947885935224
 20
5745.112333021301
 30
0.0
 11
-1568.500587321963
 21
5716.432554389459
 31
0.0
1001
AcDbBlockRepETag
1070
     1
1071
      101
1005
0
  0
LINE
  5
186C5
330
18624
100
AcDbEntity
  8
Cornice_linee
100
AcDbLine
 10
-1575.932149981527
 20
5644.094677656401
 30
0.0
 11
-1606.985379225545
 21
5644.094677656401
 31
0.0
1001
AcDbBlockRepETag
1070
     1
1071
      102
1005
0
  0
LINE
  5
186C6
330
18624
100
AcDbEntity
  8
Cornice_linee
100
AcDbLine
 10
-1606.985379225545
 20
5644.094677656401
 30
0.0
 11
-1552.993916796782
 21
5717.179144614449
 31
0.0
1001
AcDbBlockRepETag
1070
     1
1071
      103
1005
0
  0
LINE
  5
186C7
330
18624
100
AcDbEntity
  8
Cornice_linee
100
AcDbLine
 10
-1562.079104837583
 20
5724.256107285248
 30
0.0
 11
-1606.985379225545
 21
5669.544969493836
 31
0.0
1001
AcDbBlockRepETag
1070
     1
1071
      104
1005
0
  0
LINE
  5
186C8
330
18624
100
AcDbEntity
  8
Cornice_linee
100
AcDbLine
 10
-1697.189299881778
 20
5724.256107285248
 30
0.0
 11
-1652.283025493816
 21
5669.544969493836
 31
0.0
1001
AcDbBlockRepETag
1070
     1
1071
      105
1005
0
  0
LINE
  5
186C9
330
18624
100
AcDbEntity
  8
Cornice_linee
100
AcDbLine
 10
-1652.283025493816
 20
5644.094677656401
 30
0.0
 11
-1706.274487922579
 21
5717.179144614449
 31
0.0
1001
AcDbBlockRepETag
1070
     1
1071
      106
1005
0
  0
ARC
  5
186CA
330
18624
100
AcDbEntity
  8
Cornice_linee
100
AcDbCircle
 10
-1701.64160048074
 20
5720.601710019429
 30
0.0
 40
5.760000000000006
100
AcDbArc
 50
39.37875693268391
 51
216.4552939963899
1001
AcDbBlockRepETag
1070
     1
1071
      107
1005
0
  0
LINE
  5
186CB
330
18624
100
AcDbEntity
  8
Cornice_linee
100
AcDbLine
 10
-1683.336254737835
 20
5644.094677656401
 30
0.0
 11
-1652.283025493816
 21
5644.094677656401
 31
0.0
1001
AcDbBlockRepETag
1070
     1
1071
      108
1005
0
  0
ARC
  5
186CC
330
18624
100
AcDbEntity
  8
Cornice_linee
100
AcDbCircle
 10
-1340.127218789858
 20
5720.601710019429
 30
0.0
 40
5.760000000000006
100
AcDbArc
 50
39.37875693268391
 51
216.4552939963899
1001
AcDbBlockRepETag
1070
     1
1071
      109
1005
0
  0
ARC
  5
186CD
330
18624
100
AcDbEntity
  8
Cornice_linee
100
AcDbCircle
 10
-1557.626804238622
 20
5720.601710019429
 30
0.0
 40
5.760000000000006
100
AcDbArc
 50
323.5447060036101
 51
140.6212430673161
1001
AcDbBlockRepETag
1070
     1
1071
      110
1005
0
  0
LINE
  5
186CE
330
18624
100
AcDbEntity
  8
Cornice_linee
100
AcDbLine
 10
-1583.340528789005
 20
5676.101058160311
 30
0.0
 11
-1595.117250648065
 21
5644.094677656401
 31
0.0
1001
AcDbBlockRepETag
1070
     1
1071
      111
1005
0
  0
ARC
  5
186CF
330
18624
100
AcDbEntity
  8
Cornice_linee
100
AcDbCircle
 10
-1651.245821427816
 20
5765.645779231803
 30
0.0
 40
95.53076562267525
100
AcDbArc
 50
90.62208841970411
 51
192.4120462263539
1001
AcDbBlockRepETag
1070
     1
1071
      112
1005
0
  0
LINE
  5
186D0
330
18624
100
AcDbEntity
  8
Cornice_linee
100
AcDbLine
 10
-1314.413494239532
 20
5676.101058160311
 30
0.0
 11
-1302.636772380472
 21
5644.094677656401
 31
0.0
1001
AcDbBlockRepETag
1070
     1
1071
      113
1005
0
  0
ARC
  5
186D1
330
18624
100
AcDbEntity
  8
Cornice_linee
100
AcDbCircle
 10
-1550.061416471057
 20
5492.450463144422
 30
0.0
 40
95.53076562267525
100
AcDbArc
 50
167.5879537736461
 51
12.41204622635392
1001
AcDbBlockRepETag
1070
     1
1071
      115
1005
0
  0
CIRCLE
  5
186D2
330
18624
100
AcDbEntity
  8
Cornice_linee
100
AcDbCircle
 10
-1503.948434752674
 20
5109.930233218947
 30
0.0
 40
96.21078637730226
1001
AcDbBlockRepETag
1070
     1
1071
      116
1005
0
  0
LINE
  5
186D3
330
18624
100
AcDbEntity
  8
Cornice_linee
100
AcDbLine
 10
-1627.624005451245
 20
5555.748907447152
 30
0.0
 11
-1643.359351963591
 21
5512.983909354938
 31
0.0
1001
AcDbBlockRepETag
1070
     1
1071
      117
1005
0
  0
LINE
  5
186D4
330
18624
100
AcDbEntity
  8
Cornice_linee
100
AcDbLine
 10
-1744.54375692035
 20
5745.112333021294
 30
0.0
 11
-1659.132290891983
 21
5512.983909354938
 31
0.0
1001
AcDbBlockRepETag
1070
     1
1071
      118
1005
0
  0
LINE
  5
186D5
330
18624
100
AcDbEntity
  8
Cornice_linee
100
AcDbLine
 10
-1542.174947006832
 20
5745.112333021294
 30
0.0
 11
-1456.763480978407
 21
5512.983909354938
 31
0.0
1001
AcDbBlockRepETag
1070
     1
1071
      119
1005
0
  0
LINE
  5
186D6
330
18624
100
AcDbEntity
  8
Cornice_linee
100
AcDbLine
 10
-1355.579076021706
 20
5745.112333021301
 30
0.0
 11
-1440.990542050014
 21
5512.983909354938
 31
0.0
1001
AcDbBlockRepETag
1070
     1
1071
      120
1005
0
  0
POLYLINE
  5
186D7
330
18624
100
AcDbEntity
  8
Cornice_linee
100
AcDb3dPolyline
 66
     1
 10
0.0
 20
0.0
 30
0.0
 70
     8
1001
AcDbBlockRepETag
1070
     1
1071
      121
1005
0
  0
VERTEX
  5
186D8
330
186D7
100
AcDbEntity
  8
Cornice_linee
100
AcDbVertex
100
AcDb3dPolylineVertex
 10
-1629.634202359681
 20
5552.313310242636
 30
0.0
 70
    32
  0
VERTEX
  5
186D9
330
186D7
100
AcDbEntity
  8
Cornice_linee
100
AcDbVertex
100
AcDb3dPolylineVertex
 10
-1575.932149981527
 20
5644.094677656401
 30
0.0
 70
    32
  0
SEQEND
  5
186DA
330
186D7
100
AcDbEntity
  8
Cornice_linee
  0
POLYLINE
  5
186DB
330
18624
100
AcDbEntity
  8
Cornice_linee
100
AcDb3dPolyline
 66
     1
 10
0.0
 20
0.0
 30
0.0
 70
     8
1001
AcDbBlockRepETag
1070
     1
1071
      122
1005
0
  0
VERTEX
  5
186DC
330
186DB
100
AcDbEntity
  8
Cornice_linee
100
AcDbVertex
100
AcDb3dPolylineVertex
 10
-1629.634202359681
 20
5552.313310242636
 30
0.0
 70
    32
  0
VERTEX
  5
186DD
330
186DB
100
AcDbEntity
  8
Cornice_linee
100
AcDbVertex
100
AcDb3dPolylineVertex
 10
-1683.336254737835
 20
5644.094677656401
 30
0.0
 70
    32
  0
SEQEND
  5
186DE
330
186DB
100
AcDbEntity
  8
Cornice_linee
  0
ARC
  5
186DF
330
18624
100
AcDbEntity
  8
Cornice_linee
100
AcDbCircle
 10
-1246.508201600664
 20
5765.645779231803
 30
0.0
 40
95.53076562267525
100
AcDbArc
 50
347.5879537736461
 51
89.37791158029589
1001
AcDbBlockRepETag
1070
     1
1071
      123
1005
0
  0
ARC
  5
186E0
330
18624
100
AcDbEntity
  8
Cornice_linee
100
AcDbCircle
 10
-1044.139391687087
 20
5765.645779231803
 30
0.0
 40
95.53076562267525
100
AcDbArc
 50
347.5879537736461
 51
192.4120462263539
1001
AcDbBlockRepETag
1070
     1
1071
      124
1005
0
  0
LINE
  5
186E1
330
18624
100
AcDbEntity
  8
Cornice_linee
100
AcDbLine
 10
-1214.417768290645
 20
5644.094677656401
 30
0.0
 11
-1245.470997534663
 21
5644.094677656401
 31
0.0
1001
AcDbBlockRepETag
1070
     1
1071
      125
1005
0
  0
ARC
  5
186E2
330
18624
100
AcDbEntity
  8
Cornice_linee
100
AcDbCircle
 10
-1196.11242254774
 20
5720.601710019429
 30
0.0
 40
5.760000000000006
100
AcDbArc
 50
323.5447060036101
 51
140.6212430673161
1001
AcDbBlockRepETag
1070
     1
1071
      126
1005
0
  0
LINE
  5
186E3
330
18624
100
AcDbEntity
  8
Cornice_linee
100
AcDbLine
 10
-1245.470997534663
 20
5644.094677656401
 30
0.0
 11
-1191.4795351059
 21
5717.179144614449
 31
0.0
1001
AcDbBlockRepETag
1070
     1
1071
      127
1005
0
  0
LINE
  5
186E4
330
18624
100
AcDbEntity
  8
Cornice_linee
100
AcDbLine
 10
-1200.564723146701
 20
5724.256107285248
 30
0.0
 11
-1245.470997534663
 21
5669.544969493836
 31
0.0
1001
AcDbBlockRepETag
1070
     1
1071
      128
1005
0
  0
ARC
  5
186E5
330
18624
100
AcDbEntity
  8
Cornice_linee
100
AcDbCircle
 10
-942.9549867303285
 20
5492.450463144422
 30
0.0
 40
95.53076562267525
100
AcDbArc
 50
167.5879537736461
 51
12.41204622635392
1001
AcDbBlockRepETag
1070
     1
1071
      129
1005
0
  0
ARC
  5
186E6
330
18624
100
AcDbEntity
  8
Cornice_linee
100
AcDbCircle
 10
-1145.323796643905
 20
5492.450463144422
 30
0.0
 40
95.53076562267525
100
AcDbArc
 50
167.5879537736461
 51
12.41204622635392
1001
AcDbBlockRepETag
1070
     1
1071
      130
1005
0
  0
CIRCLE
  5
186E7
330
18624
100
AcDbEntity
  8
Cornice_linee
100
AcDbCircle
 10
-879.9844437979918
 20
5112.534145307778
 30
0.0
 40
96.29531075509657
1001
AcDbBlockRepETag
1070
     1
1071
      131
1005
0
  0
LINE
  5
186E8
330
18624
100
AcDbEntity
  8
Cornice_linee
100
AcDbLine
 10
-1270.130017577292
 20
5555.74890744716
 30
0.0
 11
-1254.394671064889
 21
5512.983909354938
 31
0.0
1001
AcDbBlockRepETag
1070
     1
1071
      132
1005
0
  0
LINE
  5
186E9
330
18624
100
AcDbEntity
  8
Cornice_linee
100
AcDbLine
 10
-1153.21026610813
 20
5745.112333021301
 30
0.0
 11
-1238.621732136438
 21
5512.983909354938
 31
0.0
1001
AcDbBlockRepETag
1070
     1
1071
      133
1005
0
  0
LINE
  5
186EA
330
18624
100
AcDbEntity
  8
Cornice_linee
100
AcDbLine
 10
-1137.437327179679
 20
5745.112333021294
 30
0.0
 11
-1052.025861151313
 21
5512.983909354938
 31
0.0
1001
AcDbBlockRepETag
1070
     1
1071
      134
1005
0
  0
LINE
  5
186EB
330
18624
100
AcDbEntity
  8
Cornice_linee
100
AcDbLine
 10
-950.8414561945538
 20
5745.112333021301
 30
0.0
 11
-1036.25292222292
 21
5512.983909354938
 31
0.0
1001
AcDbBlockRepETag
1070
     1
1071
      135
1005
0
  0
LINE
  5
186EC
330
18624
100
AcDbEntity
  8
Cornice_linee
100
AcDbLine
 10
-935.0685172661033
 20
5745.112333021294
 30
0.0
 11
-849.6570512377366
 21
5512.983909354938
 31
0.0
1001
AcDbBlockRepETag
1070
     1
1071
      136
1005
0
  0
POLYLINE
  5
186ED
330
18624
100
AcDbEntity
  8
Cornice_linee
100
AcDb3dPolyline
 66
     1
 10
0.0
 20
0.0
 30
0.0
 70
     8
1001
AcDbBlockRepETag
1070
     1
1071
      137
1005
0
  0
VERTEX
  5
186EE
330
186ED
100
AcDbEntity
  8
Cornice_linee
100
AcDbVertex
100
AcDb3dPolylineVertex
 10
-1268.119820668799
 20
5552.313310242636
 30
0.0
 70
    32
  0
VERTEX
  5
186EF
330
186ED
100
AcDbEntity
  8
Cornice_linee
100
AcDbVertex
100
AcDb3dPolylineVertex
 10
-1214.417768290645
 20
5644.094677656401
 30
0.0
 70
    32
  0
SEQEND
  5
186F0
330
186ED
100
AcDbEntity
  8
Cornice_linee
  0
ARC
  5
186F1
330
18624
100
AcDbEntity
  8
Cornice_linee
100
AcDbCircle
 10
-1448.87701151424
 20
6019.284912565759
 30
0.0
 40
203.4060139795895
100
AcDbArc
 50
1.905799075414227
 51
178.0942009245858
1001
AcDbBlockRepETag
1070
     1
1071
      138
1005
0
  0
POLYLINE
  5
186F2
330
18624
100
AcDbEntity
  8
Cornice_linee
100
AcDb3dPolyline
 66
     1
 10
0.0
 20
0.0
 30
0.0
 70
     8
1001
AcDbBlockRepETag
1070
     1
1071
      139
1005
0
  0
VERTEX
  5
186F3
330
186F2
100
AcDbEntity
  8
Cornice_linee
100
AcDbVertex
100
AcDb3dPolylineVertex
 10
-1652.170512492274
 20
6026.049451216713
 30
0.0
 70
    32
  0
VERTEX
  5
186F4
330
186F2
100
AcDbEntity
  8
Cornice_linee
100
AcDbVertex
100
AcDb3dPolylineVertex
 10
-1728.633901006164
 20
6026.049451216713
 30
0.0
 70
    32
  0
SEQEND
  5
186F5
330
186F2
100
AcDbEntity
  8
Cornice_linee
  0
ARC
  5
186F6
330
18624
100
AcDbEntity
  8
Cornice_linee
100
AcDbCircle
 10
-1728.633901006164
 20
6013.324305297989
 30
0.0
 40
12.72514591871915
100
AcDbArc
 50
90.0
 51
270.0
1001
AcDbBlockRepETag
1070
     1
1071
      140
1005
0
  0
POLYLINE
  5
186F7
330
18624
100
AcDbEntity
  8
Cornice_linee
100
AcDb3dPolyline
 66
     1
 10
0.0
 20
0.0
 30
0.0
 70
     8
1001
AcDbBlockRepETag
1070
     1
1071
      141
1005
0
  0
VERTEX
  5
186F8
330
186F7
100
AcDbEntity
  8
Cornice_linee
100
AcDbVertex
100
AcDb3dPolylineVertex
 10
-1728.633901006164
 20
6000.599159379279
 30
0.0
 70
    32
  0
VERTEX
  5
186F9
330
186F7
100
AcDbEntity
  8
Cornice_linee
100
AcDbVertex
100
AcDb3dPolylineVertex
 10
-1652.283025493816
 20
5969.938571575105
 30
0.0
 70
    32
  0
SEQEND
  5
186FA
330
186F7
100
AcDbEntity
  8
Cornice_linee
  0
POLYLINE
  5
186FB
330
18624
100
AcDbEntity
  8
Cornice_linee
100
AcDb3dPolyline
 66
     1
 10
0.0
 20
0.0
 30
0.0
 70
     8
1001
AcDbBlockRepETag
1070
     1
1071
      148
1005
0
  0
VERTEX
  5
186FC
330
186FB
100
AcDbEntity
  8
Cornice_linee
100
AcDbVertex
100
AcDb3dPolylineVertex
 10
-1245.583510536206
 20
6026.049451216713
 30
0.0
 70
    32
  0
VERTEX
  5
186FD
330
186FB
100
AcDbEntity
  8
Cornice_linee
100
AcDbVertex
100
AcDb3dPolylineVertex
 10
-1169.120122022316
 20
6026.049451216713
 30
0.0
 70
    32
  0
SEQEND
  5
186FE
330
186FB
100
AcDbEntity
  8
Cornice_linee
  0
POLYLINE
  5
186FF
330
18624
100
AcDbEntity
  8
Cornice_linee
100
AcDb3dPolyline
 66
     1
 10
0.0
 20
0.0
 30
0.0
 70
     8
1001
AcDbBlockRepETag
1070
     1
1071
      149
1005
0
  0
VERTEX
  5
18700
330
186FF
100
AcDbEntity
  8
Cornice_linee
100
AcDbVertex
100
AcDb3dPolylineVertex
 10
-1169.120122022316
 20
6000.599159379279
 30
0.0
 70
    32
  0
VERTEX
  5
18701
330
186FF
100
AcDbEntity
  8
Cornice_linee
100
AcDbVertex
100
AcDb3dPolylineVertex
 10
-1245.470997534663
 20
5969.938571575105
 30
0.0
 70
    32
  0
SEQEND
  5
18702
330
186FF
100
AcDbEntity
  8
Cornice_linee
  0
ARC
  5
18703
330
18624
100
AcDbEntity
  8
Cornice_linee
100
AcDbCircle
 10
-1169.120122022316
 20
6013.324305297989
 30
0.0
 40
12.72514591871915
100
AcDbArc
 50
270.0
 51
90.0
1001
AcDbBlockRepETag
1070
     1
1071
      150
1005
0
  0
LINE
  5
18704
330
18624
100
AcDbEntity
  8
Cornice_linee
100
AcDbLine
 10
11.96510008300538
 20
6019.284912565759
 30
0.0
 11
11.96510008300538
 21
5669.544969493836
 31
0.0
1001
AcDbBlockRepETag
1070
     1
1071
      151
1005
0
  0
POLYLINE
  5
18705
330
18624
100
AcDbEntity
  8
Cornice_linee
100
AcDb3dPolyline
 66
     1
 10
0.0
 20
0.0
 30
0.0
 70
     8
1001
AcDbBlockRepETag
1070
     1
1071
      152
1005
0
  0
VERTEX
  5
18706
330
18705
100
AcDbEntity
  8
Cornice_linee
100
AcDbVertex
100
AcDb3dPolylineVertex
 10
-33.33254618526553
 20
5969.938571575105
 30
0.0
 70
    32
  0
VERTEX
  5
18707
330
18705
100
AcDbEntity
  8
Cornice_linee
100
AcDbVertex
100
AcDb3dPolylineVertex
 10
-33.33254618526553
 20
5669.544969493836
 30
0.0
 70
    32
  0
SEQEND
  5
18708
330
18705
100
AcDbEntity
  8
Cornice_linee
  0
ARC
  5
18709
330
18624
100
AcDbEntity
  8
Cornice_linee
100
AcDbCircle
 10
-234.664152032783
 20
5765.645779231803
 30
0.0
 40
95.53076562267525
100
AcDbArc
 50
347.5879537736461
 51
192.4120462263539
1001
AcDbBlockRepETag
1070
     1
1071
      153
1005
0
  0
ARC
  5
1870A
330
18624
100
AcDbEntity
  8
Cornice_linee
100
AcDbCircle
 10
-335.8485569896002
 20
5492.450463144422
 30
0.0
 40
95.53076562267525
100
AcDbArc
 50
167.5879537736461
 51
12.41204622635392
1001
AcDbBlockRepETag
1070
     1
1071
      154
1005
0
  0
LINE
  5
1870B
330
18624
100
AcDbEntity
  8
Cornice_linee
100
AcDbLine
 10
-327.9620875254332
 20
5745.112333021294
 30
0.0
 11
-242.5506214970665
 21
5512.983909354938
 31
0.0
1001
AcDbBlockRepETag
1070
     1
1071
      155
1005
0
  0
ARC
  5
1870C
330
18624
100
AcDbEntity
  8
Cornice_linee
100
AcDbCircle
 10
-639.4017718599935
 20
5765.645779231803
 30
0.0
 40
95.53076562267525
100
AcDbArc
 50
347.5879537736461
 51
192.4120462263539
1001
AcDbBlockRepETag
1070
     1
1071
      156
1005
0
  0
ARC
  5
1870D
330
18624
100
AcDbEntity
  8
Cornice_linee
100
AcDbCircle
 10
-437.0329619463591
 20
5765.645779231803
 30
0.0
 40
95.53076562267525
100
AcDbArc
 50
347.5879537736461
 51
192.4120462263539
1001
AcDbBlockRepETag
1070
     1
1071
      157
1005
0
  0
ARC
  5
1870E
330
18624
100
AcDbEntity
  8
Cornice_linee
100
AcDbCircle
 10
-538.2173669032345
 20
5492.450463144422
 30
0.0
 40
95.53076562267525
100
AcDbArc
 50
167.5879537736461
 51
12.41204622635392
1001
AcDbBlockRepETag
1070
     1
1071
      159
1005
0
  0
LINE
  5
1870F
330
18624
100
AcDbEntity
  8
Cornice_linee
100
AcDbLine
 10
-732.6997073525272
 20
5745.112333021294
 30
0.0
 11
-647.2882413241605
 21
5512.983909354938
 31
0.0
1001
AcDbBlockRepETag
1070
     1
1071
      160
1005
0
  0
LINE
  5
18710
330
18624
100
AcDbEntity
  8
Cornice_linee
100
AcDbLine
 10
-546.1038363674015
 20
5745.112333021301
 30
0.0
 11
-631.5153023957682
 21
5512.983909354938
 31
0.0
1001
AcDbBlockRepETag
1070
     1
1071
      161
1005
0
  0
LINE
  5
18711
330
18624
100
AcDbEntity
  8
Cornice_linee
100
AcDbLine
 10
-530.3308974390093
 20
5745.112333021294
 30
0.0
 11
-444.9194314105844
 21
5512.983909354938
 31
0.0
1001
AcDbBlockRepETag
1070
     1
1071
      162
1005
0
  0
LINE
  5
18712
330
18624
100
AcDbEntity
  8
Cornice_linee
100
AcDbLine
 10
-343.7350264538254
 20
5745.112333021301
 30
0.0
 11
-429.1464924821921
 21
5512.983909354938
 31
0.0
1001
AcDbBlockRepETag
1070
     1
1071
      163
1005
0
  0
LINE
  5
18713
330
18624
100
AcDbEntity
  8
Cornice_linee
100
AcDbLine
 10
61.00259337332682
 20
5745.112333021301
 30
0.0
 11
50.44989198658732
 21
5716.432554389459
 31
0.0
1001
AcDbBlockRepETag
1070
     1
1071
      164
1005
0
  0
ARC
  5
18714
330
18624
100
AcDbEntity
  8
Cornice_linee
100
AcDbCircle
 10
170.073467794311
 20
5765.645779231803
 30
0.0
 40
95.53076562267525
100
AcDbArc
 50
347.5879537736461
 51
192.4120462263539
1001
AcDbBlockRepETag
1070
     1
1071
      165
1005
0
  0
ARC
  5
18715
330
18624
100
AcDbEntity
  8
Cornice_linee
100
AcDbCircle
 10
-32.29534211926511
 20
5765.645779231803
 30
0.0
 40
95.53076562267525
100
AcDbArc
 50
347.5879537736461
 51
62.39904082872148
1001
AcDbBlockRepETag
1070
     1
1071
      166
1005
0
  0
LINE
  5
18716
330
18624
100
AcDbEntity
  8
Cornice_linee
100
AcDbLine
 10
56.87137447096757
 20
5724.256107285248
 30
0.0
 11
11.96510008300538
 21
5669.544969493836
 31
0.0
1001
AcDbBlockRepETag
1070
     1
1071
      167
1005
0
  0
LINE
  5
18717
330
18624
100
AcDbEntity
  8
Cornice_linee
100
AcDbLine
 10
11.96510008300538
 20
5644.094677656401
 30
0.0
 11
65.95656251176842
 21
5717.179144614449
 31
0.0
1001
AcDbBlockRepETag
1070
     1
1071
      168
1005
0
  0
LINE
  5
18718
330
18624
100
AcDbEntity
  8
Cornice_linee
100
AcDbLine
 10
43.01832932702382
 20
5644.094677656401
 30
0.0
 11
11.96510008300538
 21
5644.094677656401
 31
0.0
1001
AcDbBlockRepETag
1070
     1
1071
      169
1005
0
  0
LINE
  5
18719
330
18624
100
AcDbEntity
  8
Cornice_linee
100
AcDbLine
 10
-64.38577542928397
 20
5644.094677656401
 30
0.0
 11
-33.33254618526553
 21
5644.094677656401
 31
0.0
1001
AcDbBlockRepETag
1070
     1
1071
      170
1005
0
  0
ARC
  5
1871A
330
18624
100
AcDbEntity
  8
Cornice_linee
100
AcDbCircle
 10
-82.69112117224722
 20
5720.601710019429
 30
0.0
 40
5.760000000000006
100
AcDbArc
 50
39.37875693268391
 51
216.4552939963899
1001
AcDbBlockRepETag
1070
     1
1071
      171
1005
0
  0
LINE
  5
1871B
330
18624
100
AcDbEntity
  8
Cornice_linee
100
AcDbLine
 10
-33.33254618526553
 20
5644.094677656401
 30
0.0
 11
-87.32400861402857
 21
5717.179144614449
 31
0.0
1001
AcDbBlockRepETag
1070
     1
1071
      172
1005
0
  0
LINE
  5
1871C
330
18624
100
AcDbEntity
  8
Cornice_linee
100
AcDbLine
 10
-78.23882057322771
 20
5724.256107285248
 30
0.0
 11
-33.33254618526553
 21
5669.544969493836
 31
0.0
1001
AcDbBlockRepETag
1070
     1
1071
      173
1005
0
  0
ARC
  5
1871D
330
18624
100
AcDbEntity
  8
Cornice_linee
100
AcDbCircle
 10
61.32367506992887
 20
5720.601710019429
 30
0.0
 40
5.760000000000006
100
AcDbArc
 50
323.5447060036101
 51
140.6212430673161
1001
AcDbBlockRepETag
1070
     1
1071
      174
1005
0
  0
ARC
  5
1871E
330
18624
100
AcDbEntity
  8
Cornice_linee
100
AcDbCircle
 10
-32.29534211926511
 20
5765.645779231803
 30
0.0
 40
95.53076562267525
100
AcDbArc
 50
90.62208841970411
 51
192.4120462263539
1001
AcDbBlockRepETag
1070
     1
1071
      175
1005
0
  0
LINE
  5
1871F
330
18624
100
AcDbEntity
  8
Cornice_linee
100
AcDbLine
 10
35.60995051954524
 20
5676.101058160311
 30
0.0
 11
23.83322866048547
 21
5644.094677656401
 31
0.0
1001
AcDbBlockRepETag
1070
     1
1071
      176
1005
0
  0
ARC
  5
18720
330
18624
100
AcDbEntity
  8
Cornice_linee
100
AcDbCircle
 10
68.88906283749384
 20
5492.450463144422
 30
0.0
 40
95.53076562267525
100
AcDbArc
 50
167.5879537736461
 51
12.41204622635392
1001
AcDbBlockRepETag
1070
     1
1071
      177
1005
0
  0
ARC
  5
18721
330
18624
100
AcDbEntity
  8
Cornice_linee
100
AcDbCircle
 10
-133.4797470760823
 20
5492.450463144422
 30
0.0
 40
95.53076562267525
100
AcDbArc
 50
167.5879537736461
 51
12.41204622635392
1001
AcDbBlockRepETag
1070
     1
1071
      178
1005
0
  0
LINE
  5
18722
330
18624
100
AcDbEntity
  8
Cornice_linee
100
AcDbLine
 10
-8.673526142694755
 20
5555.748907447152
 30
0.0
 11
-24.40887265503989
 21
5512.983909354938
 31
0.0
1001
AcDbBlockRepETag
1070
     1
1071
      179
1005
0
  0
LINE
  5
18723
330
18624
100
AcDbEntity
  8
Cornice_linee
100
AcDbLine
 10
76.77553230171907
 20
5745.112333021294
 30
0.0
 11
162.1869983300858
 21
5512.983909354938
 31
0.0
1001
AcDbBlockRepETag
1070
     1
1071
      180
1005
0
  0
LINE
  5
18724
330
18624
100
AcDbEntity
  8
Cornice_linee
100
AcDbLine
 10
263.3714032868447
 20
5745.112333021301
 30
0.0
 11
177.9599372585362
 21
5512.983909354938
 31
0.0
1001
AcDbBlockRepETag
1070
     1
1071
      181
1005
0
  0
LINE
  5
18725
330
18624
100
AcDbEntity
  8
Cornice_linee
100
AcDbLine
 10
-125.5932776117988
 20
5745.112333021294
 30
0.0
 11
-40.18181158349034
 21
5512.983909354938
 31
0.0
1001
AcDbBlockRepETag
1070
     1
1071
      182
1005
0
  0
LINE
  5
18726
330
18624
100
AcDbEntity
  8
Cornice_linee
100
AcDbLine
 10
-141.3662165402493
 20
5745.112333021301
 30
0.0
 11
-226.777682568616
 21
5512.983909354938
 31
0.0
1001
AcDbBlockRepETag
1070
     1
1071
      183
1005
0
  0
POLYLINE
  5
18727
330
18624
100
AcDbEntity
  8
Cornice_linee
100
AcDb3dPolyline
 66
     1
 10
0.0
 20
0.0
 30
0.0
 70
     8
1001
AcDbBlockRepETag
1070
     1
1071
      184
1005
0
  0
VERTEX
  5
18728
330
18727
100
AcDbEntity
  8
Cornice_linee
100
AcDbVertex
100
AcDb3dPolylineVertex
 10
-10.68372305118828
 20
5552.313310242636
 30
0.0
 70
    32
  0
VERTEX
  5
18729
330
18727
100
AcDbEntity
  8
Cornice_linee
100
AcDbVertex
100
AcDb3dPolylineVertex
 10
43.01832932702382
 20
5644.094677656401
 30
0.0
 70
    32
  0
SEQEND
  5
1872A
330
18727
100
AcDbEntity
  8
Cornice_linee
  0
POLYLINE
  5
1872B
330
18624
100
AcDbEntity
  8
Cornice_linee
100
AcDb3dPolyline
 66
     1
 10
0.0
 20
0.0
 30
0.0
 70
     8
1001
AcDbBlockRepETag
1070
     1
1071
      185
1005
0
  0
VERTEX
  5
1872C
330
1872B
100
AcDbEntity
  8
Cornice_linee
100
AcDbVertex
100
AcDb3dPolylineVertex
 10
-10.68372305118828
 20
5552.313310242636
 30
0.0
 70
    32
  0
VERTEX
  5
1872D
330
1872B
100
AcDbEntity
  8
Cornice_linee
100
AcDbVertex
100
AcDb3dPolylineVertex
 10
-64.38577542928397
 20
5644.094677656401
 30
0.0
 70
    32
  0
SEQEND
  5
1872E
330
1872B
100
AcDbEntity
  8
Cornice_linee
  0
POLYLINE
  5
1872F
330
18624
100
AcDbEntity
  8
Cornice_linee
100
AcDb3dPolyline
 66
     1
 10
0.0
 20
0.0
 30
0.0
 70
     8
1001
AcDbBlockRepETag
1070
     1
1071
      187
1005
0
  0
VERTEX
  5
18730
330
1872F
100
AcDbEntity
  8
Cornice_linee
100
AcDbVertex
100
AcDb3dPolylineVertex
 10
-109.6834216975549
 20
6000.599159379279
 30
0.0
 70
    32
  0
VERTEX
  5
18731
330
1872F
100
AcDbEntity
  8
Cornice_linee
100
AcDbVertex
100
AcDb3dPolylineVertex
 10
-33.33254618526553
 20
5969.938571575105
 30
0.0
 70
    32
  0
SEQEND
  5
18732
330
1872F
100
AcDbEntity
  8
Cornice_linee
  0
ARC
  5
18733
330
18624
100
AcDbEntity
  8
Cornice_linee
100
AcDbCircle
 10
-109.6834216975549
 20
6013.324305297989
 30
0.0
 40
12.72514591871915
100
AcDbArc
 50
90.0
 51
270.0
1001
AcDbBlockRepETag
1070
     1
1071
      188
1005
0
  0
POLYLINE
  5
18734
330
18624
100
AcDbEntity
  8
Cornice_linee
100
AcDb3dPolyline
 66
     1
 10
0.0
 20
0.0
 30
0.0
 70
     8
1001
AcDbBlockRepETag
1070
     1
1071
      189
1005
0
  0
VERTEX
  5
18735
330
18734
100
AcDbEntity
  8
Cornice_linee
100
AcDbVertex
100
AcDb3dPolylineVertex
 10
-33.22003318372299
 20
6026.049451216713
 30
0.0
 70
    32
  0
VERTEX
  5
18736
330
18734
100
AcDbEntity
  8
Cornice_linee
100
AcDbVertex
100
AcDb3dPolylineVertex
 10
-109.6834216975549
 20
6026.049451216713
 30
0.0
 70
    32
  0
SEQEND
  5
18737
330
18734
100
AcDbEntity
  8
Cornice_linee
  0
POLYLINE
  5
18738
330
18624
100
AcDbEntity
  8
Cornice_linee
100
AcDb3dPolyline
 66
     1
 10
0.0
 20
0.0
 30
0.0
 70
     8
1001
AcDbBlockRepETag
1070
     1
1071
      190
1005
0
  0
VERTEX
  5
18739
330
18738
100
AcDbEntity
  8
Cornice_linee
100
AcDbVertex
100
AcDb3dPolylineVertex
 10
-173.398695765849
 20
8261.308472529003
 30
0.0
 70
    32
  0
VERTEX
  5
1873A
330
18738
100
AcDbEntity
  8
Cornice_linee
100
AcDbVertex
100
AcDb3dPolylineVertex
 10
-439.5096529277798
 20
8261.308472529003
 30
0.0
 70
    32
  0
SEQEND
  5
1873B
330
18738
100
AcDbEntity
  8
Cornice_linee
  0
ARC
  5
1873C
330
18624
100
AcDbEntity
  8
Cornice_linee
100
AcDbCircle
 10
76.91524688017671
 20
8668.541688490543
 30
0.0
 40
118.8663590216327
100
AcDbArc
 50
15.0906030917736
 51
61.08155342280428
1001
AcDbBlockRepETag
1070
     1
1071
      191
1005
0
  0
LINE
  5
1873D
330
18624
100
AcDbEntity
  8
Cornice_linee
100
AcDbLine
 10
134.3947647169989
 20
9105.609298706724
 30
0.0
 11
134.3947647169989
 21
8772.586468928144
 31
0.0
1001
AcDbBlockRepETag
1070
     1
1071
      192
1005
0
  0
POLYLINE
  5
1873E
330
18624
100
AcDbEntity
  8
Cornice_linee
100
AcDb3dPolyline
 66
     1
 10
0.0
 20
0.0
 30
0.0
 70
     8
1001
AcDbBlockRepETag
1070
     1
1071
      193
1005
0
  0
VERTEX
  5
1873F
330
1873E
100
AcDbEntity
  8
Cornice_linee
100
AcDbVertex
100
AcDb3dPolylineVertex
 10
191.6825402171526
 20
8600.31247737036
 30
0.0
 70
    32
  0
VERTEX
  5
18740
330
1873E
100
AcDbEntity
  8
Cornice_linee
100
AcDbVertex
100
AcDb3dPolylineVertex
 10
191.6825402171526
 20
8699.488088720078
 30
0.0
 70
    32
  0
SEQEND
  5
18741
330
1873E
100
AcDbEntity
  8
Cornice_linee
  0
POLYLINE
  5
18742
330
18624
100
AcDbEntity
  8
Cornice_linee
100
AcDb3dPolyline
 66
     1
 10
0.0
 20
0.0
 30
0.0
 70
     8
1001
AcDbBlockRepETag
1070
     1
1071
      194
1005
0
  0
VERTEX
  5
18743
330
18742
100
AcDbEntity
  8
Cornice_linee
100
AcDbVertex
100
AcDb3dPolylineVertex
 10
1063.113791911077
 20
7097.689032531431
 30
0.0
 70
    32
  0
VERTEX
  5
18744
330
18742
100
AcDbEntity
  8
Cornice_linee
100
AcDbVertex
100
AcDb3dPolylineVertex
 10
1389.905729513412
 20
7277.222874794417
 30
0.0
 70
    32
  0
SEQEND
  5
18745
330
18742
100
AcDbEntity
  8
Cornice_linee
  0
POLYLINE
  5
18746
330
18624
100
AcDbEntity
  8
Cornice_Quote
100
AcDb3dPolyline
 66
     1
 10
0.0
 20
0.0
 30
0.0
 70
     8
1001
AcDbBlockRepETag
1070
     1
1071
      195
1005
0
  0
VERTEX
  5
18747
330
18746
100
AcDbEntity
  8
Cornice_Quote
100
AcDbVertex
100
AcDb3dPolylineVertex
 10
3093.238880459394
 20
7316.778840626968
 30
0.0
 70
    32
  0
VERTEX
  5
18748
330
18746
100
AcDbEntity
  8
Cornice_Quote
100
AcDbVertex
100
AcDb3dPolylineVertex
 10
1245.654409902607
 20
7316.778840626968
 30
0.0
 70
    32
  0
VERTEX
  5
18749
330
18746
100
AcDbEntity
  8
Cornice_Quote
100
AcDbVertex
100
AcDb3dPolylineVertex
 10
823.0800658907683
 20
7040.401257031292
 30
0.0
 70
    32
  0
SEQEND
  5
1874A
330
18746
100
AcDbEntity
  8
Cornice_Quote
  0
LINE
  5
1874B
330
18624
100
AcDbEntity
  8
Cornice_linee
100
AcDbLine
 10
328.1818355056166
 20
6019.284912565759
 30
0.0
 11
328.1818355056166
 21
5669.544969493836
 31
0.0
1001
AcDbBlockRepETag
1070
     1
1071
      196
1005
0
  0
POLYLINE
  5
1874C
330
18624
100
AcDbEntity
  8
Cornice_linee
100
AcDb3dPolyline
 66
     1
 10
0.0
 20
0.0
 30
0.0
 70
     8
1001
AcDbBlockRepETag
1070
     1
1071
      197
1005
0
  0
VERTEX
  5
1874D
330
1874C
100
AcDbEntity
  8
Cornice_linee
100
AcDbVertex
100
AcDb3dPolylineVertex
 10
373.4794817738875
 20
5969.938571575105
 30
0.0
 70
    32
  0
VERTEX
  5
1874E
330
1874C
100
AcDbEntity
  8
Cornice_linee
100
AcDbVertex
100
AcDb3dPolylineVertex
 10
373.4794817738875
 20
5669.544969493836
 30
0.0
 70
    32
  0
SEQEND
  5
1874F
330
1874C
100
AcDbEntity
  8
Cornice_linee
  0
ARC
  5
18750
330
18624
100
AcDbEntity
  8
Cornice_linee
100
AcDbCircle
 10
777.1798975350393
 20
5765.645779231803
 30
0.0
 40
95.53076562267525
100
AcDbArc
 50
347.5879537736461
 51
192.4120462263539
1001
AcDbBlockRepETag
1070
     1
1071
      198
1005
0
  0
LINE
  5
18751
330
18624
100
AcDbEntity
  8
Cornice_linee
100
AcDbLine
 10
373.4794817738875
 20
5861.176544854468
 30
0.0
 11
1262.572968738648
 21
5861.176544854476
 31
0.0
1001
AcDbBlockRepETag
1070
     1
1071
      199
1005
0
  0
ARC
  5
18752
330
18624
100
AcDbEntity
  8
Cornice_linee
100
AcDbCircle
 10
878.3643024917401
 20
5492.450463144422
 30
0.0
 40
95.53076562267525
100
AcDbArc
 50
167.5879537736461
 51
12.41204622635392
1001
AcDbBlockRepETag
1070
     1
1071
      200
1005
0
  0
LINE
  5
18753
330
18624
100
AcDbEntity
  8
Cornice_linee
100
AcDbLine
 10
870.4778330275731
 20
5745.112333021301
 30
0.0
 11
785.0663669992646
 21
5512.983909354938
 31
0.0
1001
AcDbBlockRepETag
1070
     1
1071
      201
1005
0
  0
LINE
  5
18754
330
18624
100
AcDbEntity
  8
Cornice_linee
100
AcDbLine
 10
279.1443422152952
 20
5745.112333021294
 30
0.0
 11
289.6970436019765
 21
5716.432554389459
 31
0.0
1001
AcDbBlockRepETag
1070
     1
1071
      202
1005
0
  0
ARC
  5
18755
330
18624
100
AcDbEntity
  8
Cornice_linee
100
AcDbCircle
 10
372.4422777078871
 20
5765.645779231803
 30
0.0
 40
95.53076562267525
100
AcDbArc
 50
347.5879537736461
 51
89.37791158029589
1001
AcDbBlockRepETag
1070
     1
1071
      203
1005
0
  0
ARC
  5
18756
330
18624
100
AcDbEntity
  8
Cornice_linee
100
AcDbCircle
 10
574.8110876214632
 20
5765.645779231803
 30
0.0
 40
95.53076562267525
100
AcDbArc
 50
347.5879537736461
 51
192.4120462263539
1001
AcDbBlockRepETag
1070
     1
1071
      204
1005
0
  0
LINE
  5
18757
330
18624
100
AcDbEntity
  8
Cornice_linee
100
AcDbLine
 10
297.12860626154
 20
5644.094677656401
 30
0.0
 11
328.1818355056166
 21
5644.094677656401
 31
0.0
1001
AcDbBlockRepETag
1070
     1
1071
      205
1005
0
  0
LINE
  5
18758
330
18624
100
AcDbEntity
  8
Cornice_linee
100
AcDbLine
 10
283.2755611175962
 20
5724.256107285248
 30
0.0
 11
328.1818355056166
 21
5669.544969493836
 31
0.0
1001
AcDbBlockRepETag
1070
     1
1071
      206
1005
0
  0
LINE
  5
18759
330
18624
100
AcDbEntity
  8
Cornice_linee
100
AcDbLine
 10
418.3857561618497
 20
5724.256107285248
 30
0.0
 11
373.4794817738875
 21
5669.544969493836
 31
0.0
1001
AcDbBlockRepETag
1070
     1
1071
      207
1005
0
  0
LINE
  5
1875A
330
18624
100
AcDbEntity
  8
Cornice_linee
100
AcDbLine
 10
373.4794817738875
 20
5644.094677656401
 30
0.0
 11
427.4709442026506
 21
5717.179144614449
 31
0.0
1001
AcDbBlockRepETag
1070
     1
1071
      208
1005
0
  0
ARC
  5
1875B
330
18624
100
AcDbEntity
  8
Cornice_linee
100
AcDbCircle
 10
422.838056760811
 20
5720.601710019429
 30
0.0
 40
5.760000000000006
100
AcDbArc
 50
323.5447060036101
 51
140.6212430673161
1001
AcDbBlockRepETag
1070
     1
1071
      209
1005
0
  0
LINE
  5
1875C
330
18624
100
AcDbEntity
  8
Cornice_linee
100
AcDbLine
 10
404.532711017906
 20
5644.094677656401
 30
0.0
 11
373.4794817738875
 21
5644.094677656401
 31
0.0
1001
AcDbBlockRepETag
1070
     1
1071
      210
1005
0
  0
LINE
  5
1875D
330
18624
100
AcDbEntity
  8
Cornice_linee
100
AcDbLine
 10
304.5369850690186
 20
5676.101058160319
 30
0.0
 11
316.3137069280783
 21
5644.094677656401
 31
0.0
1001
AcDbBlockRepETag
1070
     1
1071
      211
1005
0
  0
ARC
  5
1875E
330
18624
100
AcDbEntity
  8
Cornice_linee
100
AcDbCircle
 10
473.6266826646461
 20
5492.450463144422
 30
0.0
 40
95.53076562267525
100
AcDbArc
 50
167.5879537736461
 51
12.41204622635392
1001
AcDbBlockRepETag
1070
     1
1071
      212
1005
0
  0
ARC
  5
1875F
330
18624
100
AcDbEntity
  8
Cornice_linee
100
AcDbCircle
 10
675.9954925782222
 20
5492.450463144422
 30
0.0
 40
95.53076562267525
100
AcDbArc
 50
167.5879537736461
 51
12.41204622635392
1001
AcDbBlockRepETag
1070
     1
1071
      213
1005
0
  0
LINE
  5
18760
330
18624
100
AcDbEntity
  8
Cornice_linee
100
AcDbLine
 10
348.8204617312585
 20
5555.748907447181
 30
0.0
 11
364.5558082436619
 21
5512.983909354938
 31
0.0
1001
AcDbBlockRepETag
1070
     1
1071
      214
1005
0
  0
LINE
  5
18761
330
18624
100
AcDbEntity
  8
Cornice_linee
100
AcDbLine
 10
465.7402132004208
 20
5745.112333021301
 30
0.0
 11
380.3287471721123
 21
5512.983909354938
 31
0.0
1001
AcDbBlockRepETag
1070
     1
1071
      215
1005
0
  0
LINE
  5
18762
330
18624
100
AcDbEntity
  8
Cornice_linee
100
AcDbLine
 10
481.5131521288713
 20
5745.112333021294
 30
0.0
 11
566.924618157238
 21
5512.983909354938
 31
0.0
1001
AcDbBlockRepETag
1070
     1
1071
      216
1005
0
  0
LINE
  5
18763
330
18624
100
AcDbEntity
  8
Cornice_linee
100
AcDbLine
 10
668.109023113997
 20
5745.112333021301
 30
0.0
 11
582.6975570856303
 21
5512.983909354938
 31
0.0
1001
AcDbBlockRepETag
1070
     1
1071
      217
1005
0
  0
LINE
  5
18764
330
18624
100
AcDbEntity
  8
Cornice_linee
100
AcDbLine
 10
683.8819620424474
 20
5745.112333021294
 30
0.0
 11
769.2934280707559
 21
5512.983909354938
 31
0.0
1001
AcDbBlockRepETag
1070
     1
1071
      218
1005
0
  0
POLYLINE
  5
18765
330
18624
100
AcDbEntity
  8
Cornice_linee
100
AcDb3dPolyline
 66
     1
 10
0.0
 20
0.0
 30
0.0
 70
     8
1001
AcDbBlockRepETag
1070
     1
1071
      219
1005
0
  0
VERTEX
  5
18766
330
18765
100
AcDbEntity
  8
Cornice_linee
100
AcDbVertex
100
AcDb3dPolylineVertex
 10
350.8306586397521
 20
5552.313310242636
 30
0.0
 70
    32
  0
VERTEX
  5
18767
330
18765
100
AcDbEntity
  8
Cornice_linee
100
AcDbVertex
100
AcDb3dPolylineVertex
 10
297.12860626154
 20
5644.094677656401
 30
0.0
 70
    32
  0
SEQEND
  5
18768
330
18765
100
AcDbEntity
  8
Cornice_linee
  0
POLYLINE
  5
18769
330
18624
100
AcDbEntity
  8
Cornice_linee
100
AcDb3dPolyline
 66
     1
 10
0.0
 20
0.0
 30
0.0
 70
     8
1001
AcDbBlockRepETag
1070
     1
1071
      220
1005
0
  0
VERTEX
  5
1876A
330
18769
100
AcDbEntity
  8
Cornice_linee
100
AcDbVertex
100
AcDb3dPolylineVertex
 10
350.8306586397521
 20
5552.313310242636
 30
0.0
 70
    32
  0
VERTEX
  5
1876B
330
18769
100
AcDbEntity
  8
Cornice_linee
100
AcDbVertex
100
AcDb3dPolylineVertex
 10
404.532711017906
 20
5644.094677656401
 30
0.0
 70
    32
  0
SEQEND
  5
1876C
330
18769
100
AcDbEntity
  8
Cornice_linee
  0
ARC
  5
1876D
330
18624
100
AcDbEntity
  8
Cornice_linee
100
AcDbCircle
 10
1181.917517362133
 20
5765.645779231803
 30
0.0
 40
95.53076562267525
100
AcDbArc
 50
41.14333999880219
 51
192.4120462263539
1001
AcDbBlockRepETag
1070
     1
1071
      221
1005
0
  0
ARC
  5
1876E
330
18624
100
AcDbEntity
  8
Cornice_linee
100
AcDbCircle
 10
979.5487074485573
 20
5765.645779231803
 30
0.0
 40
95.53076562267525
100
AcDbArc
 50
347.5879537736461
 51
192.4120462263539
1001
AcDbBlockRepETag
1070
     1
1071
      222
1005
0
  0
ARC
  5
1876F
330
18624
100
AcDbEntity
  8
Cornice_linee
100
AcDbCircle
 10
1080.733112405316
 20
5492.450463144422
 30
0.0
 40
95.53076562267525
100
AcDbArc
 50
167.5879537736461
 51
249.0735902775497
1001
AcDbBlockRepETag
1070
     1
1071
      223
1005
0
  0
LINE
  5
18770
330
18624
100
AcDbEntity
  8
Cornice_linee
100
AcDbLine
 10
1088.619581869541
 20
5745.112333021294
 30
0.0
 11
1147.114273996529
 21
5586.137416564779
 31
0.0
1001
AcDbBlockRepETag
1070
     1
1071
      224
1005
0
  0
LINE
  5
18771
330
18624
100
AcDbEntity
  8
Cornice_linee
100
AcDbLine
 10
886.2507719560235
 20
5745.112333021294
 30
0.0
 11
971.662237984332
 21
5512.983909354938
 31
0.0
1001
AcDbBlockRepETag
1070
     1
1071
      225
1005
0
  0
LINE
  5
18772
330
18624
100
AcDbEntity
  8
Cornice_linee
100
AcDbLine
 10
1072.846642941149
 20
5745.112333021301
 30
0.0
 11
987.4351769127825
 21
5512.983909354938
 31
0.0
1001
AcDbBlockRepETag
1070
     1
1071
      226
1005
0
  0
ARC
  5
18773
330
18624
100
AcDbEntity
  8
Cornice_linee
100
AcDbCircle
 10
449.8303572862351
 20
6013.324305297989
 30
0.0
 40
12.72514591871915
100
AcDbArc
 50
270.0
 51
90.0
1001
AcDbBlockRepETag
1070
     1
1071
      229
1005
0
  0
POLYLINE
  5
18774
330
18624
100
AcDbEntity
  8
Cornice_linee
100
AcDb3dPolyline
 66
     1
 10
0.0
 20
0.0
 30
0.0
 70
     8
1001
AcDbBlockRepETag
1070
     1
1071
      230
1005
0
  0
VERTEX
  5
18775
330
18774
100
AcDbEntity
  8
Cornice_linee
100
AcDbVertex
100
AcDb3dPolylineVertex
 10
449.8303572862351
 20
6000.599159379279
 30
0.0
 70
    32
  0
VERTEX
  5
18776
330
18774
100
AcDbEntity
  8
Cornice_linee
100
AcDbVertex
100
AcDb3dPolylineVertex
 10
373.4794817738875
 20
5969.938571575105
 30
0.0
 70
    32
  0
SEQEND
  5
18777
330
18774
100
AcDbEntity
  8
Cornice_linee
  0
POLYLINE
  5
18778
330
18624
100
AcDbEntity
  8
Cornice_linee
100
AcDb3dPolyline
 66
     1
 10
0.0
 20
0.0
 30
0.0
 70
     8
1001
AcDbBlockRepETag
1070
     1
1071
      231
1005
0
  0
VERTEX
  5
18779
330
18778
100
AcDbEntity
  8
Cornice_linee
100
AcDbVertex
100
AcDb3dPolylineVertex
 10
373.366968772345
 20
6026.049451216713
 30
0.0
 70
    32
  0
VERTEX
  5
1877A
330
18778
100
AcDbEntity
  8
Cornice_linee
100
AcDbVertex
100
AcDb3dPolylineVertex
 10
449.8303572862351
 20
6026.049451216713
 30
0.0
 70
    32
  0
SEQEND
  5
1877B
330
18778
100
AcDbEntity
  8
Cornice_linee
  0
POLYLINE
  5
1877C
330
18624
100
AcDbEntity
  8
Cornice_Quote
100
AcDb3dPolyline
 66
     1
 10
0.0
 20
0.0
 30
0.0
 70
     8
1001
AcDbBlockRepETag
1070
     1
1071
        3
1005
0
  0
VERTEX
  5
1877D
330
1877C
100
AcDbEntity
  8
Cornice_Quote
100
AcDbVertex
100
AcDb3dPolylineVertex
 10
4746.621595729594
 20
8178.316982554185
 30
0.0
 70
    32
  0
VERTEX
  5
1877E
330
1877C
100
AcDbEntity
  8
Cornice_Quote
100
AcDbVertex
100
AcDb3dPolylineVertex
 10
1137.848610562884
 20
8178.316982554185
 30
0.0
 70
    32
  0
VERTEX
  5
1877F
330
1877C
100
AcDbEntity
  8
Cornice_Quote
100
AcDbVertex
100
AcDb3dPolylineVertex
 10
-2756.699660961865
 20
6770.715411670593
 30
0.0
 70
    32
  0
SEQEND
  5
18780
330
1877C
100
AcDbEntity
  8
Cornice_Quote
  0
TEXT
  5
18781
330
18624
100
AcDbEntity
  8
Cornice_Testi
  6
Continuous
100
AcDbText
 10
-807.6416502409556
 20
9634.704548967915
 30
0.0
 40
158.6952945378852
  1
RODAPIE
  7
style1
100
AcDbText
1001
AcDbBlockRepETag
1070
     1
1071
       11
1005
0
  0
POLYLINE
  5
18782
330
18624
100
AcDbEntity
  8
Cornice_Quote
100
AcDb3dPolyline
 66
     1
 10
0.0
 20
0.0
 30
0.0
 70
     8
1001
AcDbBlockRepETag
1070
     1
1071
       12
1005
0
  0
VERTEX
  5
18783
330
18782
100
AcDbEntity
  8
Cornice_Quote
100
AcDbVertex
100
AcDb3dPolylineVertex
 10
195.8270772360192
 20
9569.076846972079
 30
0.0
 70
    32
  0
VERTEX
  5
18784
330
18782
100
AcDbEntity
  8
Cornice_Quote
100
AcDbVertex
100
AcDb3dPolylineVertex
 10
-779.0414519069891
 20
9569.076846972079
 30
0.0
 70
    32
  0
VERTEX
  5
18785
330
18782
100
AcDbEntity
  8
Cornice_Quote
100
AcDbVertex
100
AcDb3dPolylineVertex
 10
-2759.690892923594
 20
8109.115174568375
 30
0.0
 70
    32
  0
SEQEND
  5
18786
330
18782
100
AcDbEntity
  8
Cornice_Quote
  0
POLYLINE
  5
18787
330
18624
100
AcDbEntity
  8
Cornice_Testi
  6
Continuous
 62
   150
370
     5
100
AcDb3dPolyline
 66
     1
 10
0.0
 20
0.0
 30
0.0
 70
     8
1001
AcDbBlockRepETag
1070
     1
1071
       11
1005
0
  0
VERTEX
  5
18788
330
18787
100
AcDbEntity
  8
Cornice_Testi
  6
Continuous
 62
   150
370
     5
100
AcDbVertex
100
AcDb3dPolylineVertex
 10
-4223.907769738697
 20
3570.51254015787
 30
0.0
 70
    32
  0
VERTEX
  5
18789
330
18787
100
AcDbEntity
  8
Cornice_Testi
  6
Continuous
 62
   150
370
     5
100
AcDbVertex
100
AcDb3dPolylineVertex
 10
-3211.041110663064
 20
3570.51254015787
 30
0.0
 70
    32
  0
VERTEX
  5
1878A
330
18787
100
AcDbEntity
  8
Cornice_Testi
  6
Continuous
 62
   150
370
     5
100
AcDbVertex
100
AcDb3dPolylineVertex
 10
-1503.948434752674
 20
5109.930233218947
 30
0.0
 70
    32
  0
SEQEND
  5
1878B
330
18787
100
AcDbEntity
  8
Cornice_Testi
  6
Continuous
 62
   150
370
     5
  0
POLYLINE
  5
1878C
330
18624
100
AcDbEntity
  8
Cornice_Testi
  6
Continuous
 62
   150
370
     5
100
AcDb3dPolyline
 66
     1
 10
0.0
 20
0.0
 30
0.0
 70
     8
1001
AcDbBlockRepETag
1070
     1
1071
       12
1005
0
  0
VERTEX
  5
1878D
330
1878C
100
AcDbEntity
  8
Cornice_Testi
  6
Continuous
 62
   150
370
     5
100
AcDbVertex
100
AcDb3dPolylineVertex
 10
-3628.175689251511
 20
3136.845025580973
 30
0.0
 70
    32
  0
VERTEX
  5
1878E
330
1878C
100
AcDbEntity
  8
Cornice_Testi
  6
Continuous
 62
   150
370
     5
100
AcDbVertex
100
AcDb3dPolylineVertex
 10
-2914.190438795806
 20
3136.845025580973
 30
0.0
 70
    32
  0
VERTEX
  5
1878F
330
1878C
100
AcDbEntity
  8
Cornice_Testi
  6
Continuous
 62
   150
370
     5
100
AcDbVertex
100
AcDb3dPolylineVertex
 10
-1522.921665417351
 20
4415.108391215559
 30
0.0
 70
    32
  0
SEQEND
  5
18790
330
1878C
100
AcDbEntity
  8
Cornice_Testi
  6
Continuous
 62
   150
370
     5
  0
TEXT
  5
18791
330
18624
100
AcDbEntity
  8
Cornice_Testi
100
AcDbText
 10
-3629.881443219492
 20
3197.913868113908
 30
0.0
 40
129.6
  1
SOLERA
  7
style1
100
AcDbText
1001
AcDbBlockRepETag
1070
     1
1071
       21
1005
0
  0
MTEXT
  5
18792
330
18624
100
AcDbEntity
  8
Cornice_Testi
100
AcDbMText
 10
-4219.122819598095
 20
4065.785474494987
 30
0.0
 40
129.6
 41
930.78635182
 71
     1
 72
     5
  1
SISTEMA ELÉCTRICO
  7
style1
 73
     1
 44
1.0
1001
AcDbBlockRepETag
1070
     1
1071
       22
1005
0
  0
HATCH
  5
18794
330
18624
100
AcDbEntity
  8
Cornice_Testi
  6
Continuous
 62
   150
370
     5
100
AcDbHatch
 10
0.0
 20
0.0
 30
0.0
210
0.0
220
0.0
230
1.0
  2
SOLID
 70
     1
 71
     0
 91
        1
 92
        1
 93
        1
 72
     2
 10
-1503.948434752674
 20
5109.930233218947
 40
15.0
 50
0.0
 51
360.0
 73
     1
 97
        0
 75
     0
 76
     1
 98
        1
 10
-4062.251431986631
 20
8465.355060325419
1001
GradientColor1ACI
1070
     5
1001
GradientColor2ACI
1070
     2
1001
ACAD
1010
0.0
1020
0.0
1030
0.0
  0
CIRCLE
  5
18795
330
18624
100
AcDbEntity
  8
Cornice_Testi
  6
Continuous
 62
   150
370
     5
100
AcDbCircle
 10
-1503.948434752674
 20
5109.930233218947
 30
0.0
 40
15.0
  0
HATCH
  5
18796
330
18624
100
AcDbEntity
  8
Cornice_Testi
  6
Continuous
 62
   150
370
     5
100
AcDbHatch
 10
0.0
 20
0.0
 30
0.0
210
0.0
220
0.0
230
1.0
  2
SOLID
 70
     1
 71
     0
 91
        1
 92
        1
 93
        1
 72
     2
 10
-1522.921665417351
 20
4415.108391215559
 40
15.0
 50
0.0
 51
360.0
 73
     1
 97
        0
 75
     0
 76
     1
 98
        1
 10
-4081.224662651308
 20
7770.533218322031
1001
GradientColor1ACI
1070
     5
1001
GradientColor2ACI
1070
     2
1001
ACAD
1010
0.0
1020
0.0
1030
0.0
  0
CIRCLE
  5
18797
330
18624
100
AcDbEntity
  8
Cornice_Testi
  6
Continuous
 62
   150
370
     5
100
AcDbCircle
 10
-1522.921665417351
 20
4415.108391215559
 30
0.0
 40
15.0
  0
HATCH
  5
18798
330
18624
100
AcDbEntity
  8
Cornice_Testi
  6
Continuous
 62
   150
370
     5
100
AcDbHatch
 10
0.0
 20
0.0
 30
0.0
210
0.0
220
0.0
230
1.0
  2
SOLID
 70
     1
 71
     0
 91
        1
 92
        1
 93
        1
 72
     2
 10
-2756.699660961865
 20
6770.715411670593
 40
15.0
 50
0.0
 51
360.0
 73
     1
 97
        0
 75
     0
 76
     1
 98
        1
 10
-5315.002658195823
 20
10126.14023877706
1001
GradientColor1ACI
1070
     5
1001
GradientColor2ACI
1070
     2
1001
ACAD
1010
0.0
1020
0.0
1030
0.0
  0
CIRCLE
  5
18799
330
18624
100
AcDbEntity
  8
Cornice_Testi
  6
Continuous
 62
   150
370
     5
100
AcDbCircle
 10
-2756.699660961865
 20
6770.715411670593
 30
0.0
 40
15.0
  0
HATCH
  5
1879A
330
18624
100
AcDbEntity
  8
Cornice_Testi
  6
Continuous
 62
   150
370
     5
100
AcDbHatch
 10
0.0
 20
0.0
 30
0.0
210
0.0
220
0.0
230
1.0
  2
SOLID
 70
     1
 71
     0
 91
        1
 92
        1
 93
        1
 72
     2
 10
-2759.690892923594
 20
8109.115174568375
 40
15.0
 50
0.0
 51
360.0
 73
     1
 97
        0
 75
     0
 76
     1
 98
        1
 10
-5317.993890157552
 20
11464.54000167485
1001
GradientColor1ACI
1070
     5
1001
GradientColor2ACI
1070
     2
1001
ACAD
1010
0.0
1020
0.0
1030
0.0
  0
CIRCLE
  5
1879B
330
18624
100
AcDbEntity
  8
Cornice_Testi
  6
Continuous
 62
   150
370
     5
100
AcDbCircle
 10
-2759.690892923594
 20
8109.115174568375
 30
0.0
 40
15.0
  0
HATCH
  5
1879C
330
18624
100
AcDbEntity
  8
Cornice_Testi
  6
Continuous
 62
   150
370
     5
100
AcDbHatch
 10
0.0
 20
0.0
 30
0.0
210
0.0
220
0.0
230
1.0
  2
SOLID
 70
     1
 71
     0
 91
        1
 92
        1
 93
        1
 72
     2
 10
-561.4052613717213
 20
5120.268749382201
 40
15.0
 50
0.0
 51
360.0
 73
     1
 97
        0
 75
     0
 76
     1
 98
        1
 10
-3119.708258605679
 20
8475.693576488673
1001
GradientColor1ACI
1070
     5
1001
GradientColor2ACI
1070
     2
1001
ACAD
1010
0.0
1020
0.0
1030
0.0
  0
CIRCLE
  5
1879D
330
18624
100
AcDbEntity
  8
Cornice_Testi
  6
Continuous
 62
   150
370
     5
100
AcDbCircle
 10
-561.4052613717213
 20
5120.268749382201
 30
0.0
 40
15.0
  0
HATCH
  5
1879E
330
18624
100
AcDbEntity
  8
Cornice_Testi
  6
Continuous
 62
   150
370
     5
100
AcDbHatch
 10
0.0
 20
0.0
 30
0.0
210
0.0
220
0.0
230
1.0
  2
SOLID
 70
     1
 71
     0
 91
        1
 92
        1
 93
        1
 72
     2
 10
170.073467794311
 20
6019.284912565759
 40
15.0
 50
0.0
 51
360.0
 73
     1
 97
        0
 75
     0
 76
     1
 98
        1
 10
-2388.229529439646
 20
9374.709739672231
1001
GradientColor1ACI
1070
     5
1001
GradientColor2ACI
1070
     2
1001
ACAD
1010
0.0
1020
0.0
1030
0.0
  0
CIRCLE
  5
1879F
330
18624
100
AcDbEntity
  8
Cornice_Testi
  6
Continuous
 62
   150
370
     5
100
AcDbCircle
 10
170.073467794311
 20
6019.284912565759
 30
0.0
 40
15.0
  0
HATCH
  5
187A0
330
18624
100
AcDbEntity
  8
Cornice_Testi
  6
Continuous
 62
   150
370
     5
100
AcDbHatch
 10
0.0
 20
0.0
 30
0.0
210
0.0
220
0.0
230
1.0
  2
SOLID
 70
     1
 71
     0
 91
        1
 92
        1
 93
        1
 72
     2
 10
922.2556772405223
 20
5537.777812192369
 40
15.0
 50
0.0
 51
360.0
 73
     1
 97
        0
 75
     0
 76
     1
 98
        1
 10
-1636.047319993435
 20
8893.202639298841
1001
GradientColor1ACI
1070
     5
1001
GradientColor2ACI
1070
     2
1001
ACAD
1010
0.0
1020
0.0
1030
0.0
  0
CIRCLE
  5
187A1
330
18624
100
AcDbEntity
  8
Cornice_Testi
  6
Continuous
 62
   150
370
     5
100
AcDbCircle
 10
922.2556772405223
 20
5537.777812192369
 30
0.0
 40
15.0
  0
HATCH
  5
187A2
330
18624
100
AcDbEntity
  8
Cornice_Testi
  6
Continuous
 62
   150
370
     5
100
AcDbHatch
 10
0.0
 20
0.0
 30
0.0
210
0.0
220
0.0
230
1.0
  2
SOLID
 70
     1
 71
     0
 91
        1
 92
        1
 93
        1
 72
     2
 10
823.0800658907683
 20
7040.401257031292
 40
15.0
 50
0.0
 51
360.0
 73
     1
 97
        0
 75
     0
 76
     1
 98
        1
 10
-1735.222931343189
 20
10395.82608413776
1001
GradientColor1ACI
1070
     5
1001
GradientColor2ACI
1070
     2
1001
ACAD
1010
0.0
1020
0.0
1030
0.0
  0
CIRCLE
  5
187A3
330
18624
100
AcDbEntity
  8
Cornice_Testi
  6
Continuous
 62
   150
370
     5
100
AcDbCircle
 10
823.0800658907683
 20
7040.401257031292
 30
0.0
 40
15.0
  0
ENDBLK
  5
187A4
330
18624
100
AcDbEntity
  8
0
100
AcDbBlockEnd
  0
ENDSEC
  0
SECTION
  2
ENTITIES
  0
INSERT
  5
187AD
330
1F
100
AcDbEntity
  8
0
  6
Continuous
100
AcDbBlockReference
  2
Sez Silentium sp 2013
 10
91593.98666740977
 20
-5138.61679703508
 30
0.0
  0
LWPOLYLINE
  5
187AE
330
1F
100
AcDbEntity
  8
0
 62
     1
100
AcDbPolyline
 90
        4
 70
     1
 43
0.0
 10
84370.61116900569
 20
6860.79624879951
 10
98287.28512611607
 20
6860.79624879951
 10
98287.28512611607
 20
-2883.556175373698
 10
84370.61116900569
 20
-2883.556175373698
  0
ENDSEC
  0
SECTION
  2
OBJECTS
  0
DICTIONARY
  5
C
330
0
100
AcDbDictionary
281
     1
  3
ACAD_CIP_PREVIOUS_PRODUCT_INFO
350
17FB0
  3
ACAD_COLOR
350
6B
  3
ACAD_DETAILVIEWSTYLE
350
17FA7
  3
ACAD_GROUP
350
D
  3
ACAD_LAYOUT
350
1A
  3
ACAD_MATERIAL
350
6A
  3
ACAD_MLEADERSTYLE
350
12D
  3
ACAD_MLINESTYLE
350
17
  3
ACAD_PLOTSETTINGS
350
19
  3
ACAD_PLOTSTYLENAME
350
E
  3
ACAD_SCALELIST
350
10C
  3
ACAD_SECTIONVIEWSTYLE
350
17FA5
  3
ACAD_TABLESTYLE
350
7E
  3
ACAD_VISUALSTYLE
350
EF
  3
ACDBHEADERROUNDTRIPXREC
350
1882F
  3
AcDbVariableDictionary
350
5E
  3
AcDsDecomposeData
350
18877
  3
AEC_PROPERTY_SET_DEFS
350
14FB0
  3
DWGPROPS
350
18832
  0
DICTIONARY
  5
18833
330
8
100
AcDbDictionary
280
     1
281
     1
  3
ACAD_XREC_ROUNDTRIP
360
18834
  0
DICTIONARY
  5
22C8
330
2
100
AcDbDictionary
280
     1
281
     1
  3
ACAD_LAYERSTATES
360
22C9
  0
XRECORD
  5
17FB0
102
{ACAD_REACTORS
330
C
102
}
330
C
100
AcDbXrecord
280
     1
300
ACD
300
2014
300
ACD_F_S
  0
DICTIONARY
  5
6B
102
{ACAD_REACTORS
330
C
102
}
330
C
100
AcDbDictionary
281
     1
  0
DICTIONARY
  5
17FA7
102
{ACAD_REACTORS
330
C
102
}
330
C
100
AcDbDictionary
281
     1
  3
Imperial24
350
185A7
  3
Metric50
350
17FA8
  0
DICTIONARY
  5
D
102
{ACAD_REACTORS
330
C
102
}
330
C
100
AcDbDictionary
281
     1
  0
DICTIONARY
  5
1A
102
{ACAD_REACTORS
330
C
102
}
330
C
100
AcDbDictionary
281
     1
  3
Model
350
22
  3
Presentación1
350
D3
  3
Presentación2
350
D7
  0
DICTIONARY
  5
6A
102
{ACAD_REACTORS
330
C
102
}
330
C
100
AcDbDictionary
281
     1
  3
ByBlock
350
ED
  3
ByLayer
350
EC
  3
Global
350
EE
  0
DICTIONARY
  5
12D
102
{ACAD_REACTORS
330
C
102
}
330
C
100
AcDbDictionary
281
     1
  3
Standard
350
12E
  0
DICTIONARY
  5
17
102
{ACAD_REACTORS
330
C
102
}
330
C
100
AcDbDictionary
281
     1
  3
Standard
350
18
  0
DICTIONARY
  5
19
102
{ACAD_REACTORS
330
C
102
}
330
C
100
AcDbDictionary
281
     1
  0
ACDBDICTIONARYWDFLT
  5
E
102
{ACAD_REACTORS
330
C
102
}
330
C
100
AcDbDictionary
281
     1
  3
Normal
350
F
100
AcDbDictionaryWithDefault
340
F
  0
DICTIONARY
  5
10C
102
{ACAD_REACTORS
330
C
102
}
330
C
100
AcDbDictionary
281
     1
  3
A0
350
10D
  3
A1
350
1BE
  3
A2
350
1BF
  3
A3
350
1C0
  3
A4
350
1C1
  3
A5
350
1C2
  3
A6
350
1C3
  3
A7
350
1C4
  3
A8
350
1C5
  3
A9
350
1C6
  3
B0
350
1C7
  3
B1
350
1C8
  3
B2
350
1C9
  3
B3
350
1CA
  3
B4
350
1CB
  3
B5
350
1CC
  3
B6
350
1CD
  0
DICTIONARY
  5
17FA5
102
{ACAD_REACTORS
330
C
102
}
330
C
100
AcDbDictionary
281
     1
  3
Imperial24
350
185A6
  3
Metric50
350
17FA6
  0
DICTIONARY
  5
7E
102
{ACAD_REACTORS
330
C
102
}
330
C
100
AcDbDictionary
281
     1
  3
Standard
350
7F
  0
DICTIONARY
  5
EF
102
{ACAD_REACTORS
330
C
102
}
330
C
100
AcDbDictionary
281
     1
  3
2dWireframe
350
F5
  3
3D Hidden
350
F7
  3
3dWireframe
350
F6
  3
Basic
350
F4
  3
Brighten
350
FB
  3
ColorChange
350
FF
  3
Conceptual
350
F8
  3
Dim
350
FA
  3
EdgeColorOff
350
1E6
  3
Facepattern
350
FE
  3
Flat
350
F0
  3
FlatWithEdges
350
F1
  3
Gouraud
350
F2
  3
GouraudWithEdges
350
F3
  3
Hidden
350
17F9F
  3
JitterOff
350
1E4
  3
Linepattern
350
FD
  3
OverhangOff
350
1E5
  3
Realistic
350
F9
  3
Shaded
350
17FA4
  3
Shaded with edges
350
17FA3
  3
Shades of Gray
350
17FA0
  3
Sketchy
350
17FA1
  3
Thicken
350
FC
  3
Wireframe
350
17F9E
  3
X-Ray
350
17FA2
  0
DICTIONARY
  5
1882F
102
{ACAD_REACTORS
330
C
102
}
330
C
100
AcDbDictionary
281
     1
  3
COLORDICT
350
18830
  3
MATERIALDICT
350
18831
  0
DICTIONARY
  5
5E
102
{ACAD_REACTORS
330
C
102
}
330
C
100
AcDbDictionary
281
     1
  3
CANNOSCALE
350
146
  3
CMLEADERSTYLE
350
145
  3
CTABLESTYLE
350
84
  3
CVIEWDETAILSTYLE
350
18613
  3
CVIEWSECTIONSTYLE
350
18614
  3
DIMASSOC
350
5F
  3
HIDETEXT
350
63
  3
LAYEREVAL
350
1AE
  3
LAYERNOTIFY
350
1AF
  3
LIGHTINGUNITS
350
230D
  3
MSLTSCALE
350
230C
  3
PSOLHEIGHT
350
1882D
  3
PSOLWIDTH
350
1882C
  3
XCLIPFRAME
350
1882E
  0
DICTIONARY
  5
18877
102
{ACAD_REACTORS
330
C
102
}
330
C
100
AcDbDictionary
281
     1
  3
AcDsRecords
350
18878
  3
AcDsSchemas
350
18879
1001
ACAD
1070
     2
  0
DICTIONARY
  5
14FB0
102
{ACAD_REACTORS
330
C
102
}
330
C
100
AcDbDictionary
281
     1
  0
XRECORD
  5
18832
102
{ACAD_REACTORS
330
C
102
}
330
C
100
AcDbXrecord
280
     1
  1
DWGPROPS COOKIE
  2

  3

  4

  6

  7

  8
acae2
  9

300
=
301
=
302
=
303
=
304
=
305
=
306
=
307
=
308
=
309
=
 40
0.0
 41
2455812.37564213
 42
2460301.54560331
  1

 90
        0
  0
XRECORD
  5
18834
102
{ACAD_REACTORS
330
18833
102
}
330
18833
100
AcDbXrecord
280
     1
102
VTR_0.000_0.000_1.000_1.000_VISUALSTYLE
340
F5
102
VTR_0.000_0.000_1.000_1.000_GRIDDISPLAY
 70
     2
102
VTR_0.000_0.000_1.000_1.000_GRIDMAJOR
 70
     5
102
VTR_0.000_0.000_1.000_1.000_DEFAULTLIGHTING
280
     1
102
VTR_0.000_0.000_1.000_1.000_DEFAULTLIGHTINGTYPE
 70
     1
102
VTR_0.000_0.000_1.000_1.000_BRIGHTNESS
141
0.0
102
VTR_0.000_0.000_1.000_1.000_CONTRAST
142
0.0
  0
DICTIONARY
  5
22C9
102
{ACAD_REACTORS
330
22C8
102
}
330
22C8
100
AcDbDictionary
281
     1
  0
ACDBDETAILVIEWSTYLE
  5
185A7
102
{ACAD_REACTORS
330
17FA7
102
}
102
{ACAD_XDICTIONARY
360
187CF
102
}
330
17FA7
100
AcDbModelDocViewStyle
 70
     0
  3
Imperial24
290
     0
100
AcDbDetailViewStyle
 70
     0
 71
     0
 90
        3
 71
     1
340
11
 40
0.24
340
0
 40
0.24
300

 40
0.36
280
     3
 71
     2
340
16
 90
       25
 71
     3
340
11
 40
0.24
 90
        1
 40
0.75
 90
        1
300
%<\AcVar ViewType \f "%tc1">% %<\AcVar ViewDetailId>%\PESCALA %<\AcVar ViewScale \f "%sn">%
 71
     4
340
16
 90
       25
340
16
 90
       25
280
     0
  0
ACDBDETAILVIEWSTYLE
  5
17FA8
102
{ACAD_REACTORS
330
17FA7
102
}
102
{ACAD_XDICTIONARY
360
187CB
102
}
330
17FA7
100
AcDbModelDocViewStyle
 70
     0
  3
Metric50
290
     0
100
AcDbDetailViewStyle
 70
     0
 71
     0
 90
        3
 71
     1
340
11
 40
5.0
340
0
 40
5.0
300

 40
0.0
280
     1
 71
     2
340
16
 90
       25
 71
     3
340
11
 40
5.0
 90
        0
 40
15.0
 90
        1
300
%<\AcVar ViewDetailId>% (%<\AcVar ViewScale \f "%sn">%)
 71
     4
340
16
 90
       25
340
16
 90
       25
280
     0
  0
LAYOUT
  5
22
102
{ACAD_REACTORS
330
1A
102
}
102
{ACAD_XDICTIONARY
360
18837
102
}
330
1A
100
AcDbPlotSettings
  1

  2
none_device
  4
ISO_A4_(210.00_x_297.00_MM)
  6

 40
7.5
 41
20.0
 42
7.5
 43
20.0
 44
210.0
 45
297.0
 46
11.54999923706055
 47
-13.65000009536743
 48
0.0
 49
0.0
140
0.0
141
0.0
142
1.0
143
8.704084754739808
 70
 11952
 72
     1
 73
     0
 74
     0
  7

 75
     0
147
0.1148885871608098
148
0.0
149
0.0
100
AcDbLayout
  1
Model
 70
     1
 71
     0
 10
0.0
 20
0.0
 11
12.0
 21
9.0
 12
0.0
 22
0.0
 32
0.0
 14
0.0
 24
0.0
 34
0.0
 15
0.0
 25
0.0
 35
0.0
146
0.0
 13
0.0
 23
0.0
 33
0.0
 16
1.0
 26
0.0
 36
0.0
 17
0.0
 27
1.0
 37
0.0
 76
     0
330
1F
331
EA
1001
ACAD_PSEXT
1000
None
1000
None
1000
Not applicable
1000
The layout will not be plotted unless a new plotter configuration name is selected.
1070
     0
  0
LAYOUT
  5
D3
102
{ACAD_REACTORS
330
1A
102
}
330
1A
100
AcDbPlotSettings
  1

  2
C:\Documents and Settings\basas\Application Data\Autodesk\AutoCAD 2005\R16.1\enu\plotters\Default Windows System Printer.pc3
  4

  6

 40
0.0
 41
0.0
 42
0.0
 43
0.0
 44
0.0
 45
0.0
 46
0.0
 47
0.0
 48
0.0
 49
0.0
140
0.0
141
0.0
142
1.0
143
1.0
 70
   688
 72
     0
 73
     0
 74
     5
  7

 75
    16
147
1.0
148
0.0
149
0.0
100
AcDbLayout
  1
Presentación1
 70
     1
 71
     1
 10
0.0
 20
0.0
 11
12.0
 21
9.0
 12
0.0
 22
0.0
 32
0.0
 14
0.0
 24
0.0
 34
0.0
 15
0.0
 25
0.0
 35
0.0
146
0.0
 13
0.0
 23
0.0
 33
0.0
 16
1.0
 26
0.0
 36
0.0
 17
0.0
 27
1.0
 37
0.0
 76
     0
330
D2
  0
LAYOUT
  5
D7
102
{ACAD_REACTORS
330
1A
102
}
330
1A
100
AcDbPlotSettings
  1

  2
C:\Documents and Settings\basas\Application Data\Autodesk\AutoCAD 2005\R16.1\enu\plotters\Default Windows System Printer.pc3
  4

  6

 40
0.0
 41
0.0
 42
0.0
 43
0.0
 44
0.0
 45
0.0
 46
0.0
 47
0.0
 48
0.0
 49
0.0
140
0.0
141
0.0
142
1.0
143
1.0
 70
   688
 72
     0
 73
     0
 74
     5
  7

 75
    16
147
1.0
148
0.0
149
0.0
100
AcDbLayout
  1
Presentación2
 70
     1
 71
     2
 10
0.0
 20
0.0
 11
12.0
 21
9.0
 12
0.0
 22
0.0
 32
0.0
 14
0.0
 24
0.0
 34
0.0
 15
0.0
 25
0.0
 35
0.0
146
0.0
 13
0.0
 23
0.0
 33
0.0
 16
1.0
 26
0.0
 36
0.0
 17
0.0
 27
1.0
 37
0.0
 76
     0
330
D6
  0
MATERIAL
  5
ED
102
{ACAD_REACTORS
330
6A
102
}
102
{ACAD_XDICTIONARY
360
18839
102
}
330
6A
100
AcDbMaterial
  1
ByBlock
 73
     2
 78
     2
172
     2
176
     2
270
     2
274
     2
  0
MATERIAL
  5
EC
102
{ACAD_REACTORS
330
6A
102
}
102
{ACAD_XDICTIONARY
360
1883B
102
}
330
6A
100
AcDbMaterial
  1
ByLayer
 73
     2
 78
     2
172
     2
176
     2
270
     2
274
     2
  0
MATERIAL
  5
EE
102
{ACAD_REACTORS
330
6A
102
}
102
{ACAD_XDICTIONARY
360
1883D
102
}
330
6A
100
AcDbMaterial
  1
Global
 73
     2
 43
0.0007999999797903
 43
0.0
 43
0.0
 43
0.0
 43
0.0
 43
0.0007999999797903
 43
0.0
 43
0.0
 43
0.0
 43
0.0
 43
1.0
 43
0.0
 43
0.0
 43
0.0
 43
0.0
 43
1.0
 78
     2
172
     2
 49
0.0007999999797903
 49
0.0
 49
0.0
 49
0.0
 49
0.0
 49
0.0007999999797903
 49
0.0
 49
0.0
 49
0.0
 49
0.0
 49
1.0
 49
0.0
 49
0.0
 49
0.0
 49
0.0
 49
1.0
176
     2
142
0.0007999999797903
142
0.0
142
0.0
142
0.0
142
0.0
142
0.0007999999797903
142
0.0
142
0.0
142
0.0
142
0.0
142
1.0
142
0.0
142
0.0
142
0.0
142
0.0
142
1.0
270
     2
144
0.0007999999797903
144
0.0
144
0.0
144
0.0
144
0.0
144
0.0007999999797903
144
0.0
144
0.0
144
0.0
144
0.0
144
1.0
144
0.0
144
0.0
144
0.0
144
0.0
144
1.0
274
     2
1001
ACAD
1070
    -1
1070
     3
1070
     0
1000

1071
        0
1070
     0
  0
MLEADERSTYLE
  5
12E
102
{ACAD_REACTORS
330
12D
102
}
102
{ACAD_XDICTIONARY
360
1883F
102
}
330
12D
100
AcDbMLeaderStyle
170
     2
171
     1
172
     0
 90
        2
 40
0.0
 41
0.0
173
     1
 91
-1056964608
340
14
 92
       -2
290
     1
 42
2.0
291
     1
 43
8.0
  3
Standard
341
0
 44
4.0
300

342
11
174
     1
178
     1
175
     1
176
     0
 93
-1056964608
 45
4.0
292
     0
297
     0
 46
4.0
343
0
 94
-1056964608
 47
1.0
 49
1.0
140
1.0
293
     1
141
0.0
294
     1
177
     0
142
1.0
295
     0
296
     0
143
3.75
1001
ACAD_MLEADERVER
1070
     2
  0
MLINESTYLE
  5
18
102
{ACAD_REACTORS
330
17
102
}
330
17
100
AcDbMlineStyle
  2
STANDARD
 70
     0
  3

 62
   256
 51
90.0
 52
90.0
 71
     2
 49
0.5
 62
   256
  6
BYLAYER
 49
-0.5
 62
   256
  6
BYLAYER
  0
ACDBPLACEHOLDER
  5
F
102
{ACAD_REACTORS
330
E
102
}
330
E
  0
SCALE
  5
10D
102
{ACAD_REACTORS
330
10C
102
}
330
10C
100
AcDbScale
 70
     0
300
1:1
140
1.0
141
1.0
290
     1
  0
SCALE
  5
1BE
102
{ACAD_REACTORS
330
10C
102
}
330
10C
100
AcDbScale
 70
     0
300
1:2
140
1.0
141
2.0
290
     0
  0
SCALE
  5
1BF
102
{ACAD_REACTORS
330
10C
102
}
330
10C
100
AcDbScale
 70
     0
300
1:4
140
1.0
141
4.0
290
     0
  0
SCALE
  5
1C0
102
{ACAD_REACTORS
330
10C
102
}
330
10C
100
AcDbScale
 70
     0
300
1:5
140
1.0
141
5.0
290
     0
  0
SCALE
  5
1C1
102
{ACAD_REACTORS
330
10C
102
}
330
10C
100
AcDbScale
 70
     0
300
1:8
140
1.0
141
8.0
290
     0
  0
SCALE
  5
1C2
102
{ACAD_REACTORS
330
10C
102
}
330
10C
100
AcDbScale
 70
     0
300
1:10
140
1.0
141
10.0
290
     0
  0
SCALE
  5
1C3
102
{ACAD_REACTORS
330
10C
102
}
330
10C
100
AcDbScale
 70
     0
300
1:16
140
1.0
141
16.0
290
     0
  0
SCALE
  5
1C4
102
{ACAD_REACTORS
330
10C
102
}
330
10C
100
AcDbScale
 70
     0
300
1:20
140
1.0
141
20.0
290
     0
  0
SCALE
  5
1C5
102
{ACAD_REACTORS
330
10C
102
}
330
10C
100
AcDbScale
 70
     0
300
1:30
140
1.0
141
30.0
290
     0
  0
SCALE
  5
1C6
102
{ACAD_REACTORS
330
10C
102
}
330
10C
100
AcDbScale
 70
     0
300
1:40
140
1.0
141
40.0
290
     0
  0
SCALE
  5
1C7
102
{ACAD_REACTORS
330
10C
102
}
330
10C
100
AcDbScale
 70
     0
300
1:50
140
1.0
141
50.0
290
     0
  0
SCALE
  5
1C8
102
{ACAD_REACTORS
330
10C
102
}
330
10C
100
AcDbScale
 70
     0
300
1:100
140
1.0
141
100.0
290
     0
  0
SCALE
  5
1C9
102
{ACAD_REACTORS
330
10C
102
}
330
10C
100
AcDbScale
 70
     0
300
2:1
140
2.0
141
1.0
290
     0
  0
SCALE
  5
1CA
102
{ACAD_REACTORS
330
10C
102
}
330
10C
100
AcDbScale
 70
     0
300
4:1
140
4.0
141
1.0
290
     0
  0
SCALE
  5
1CB
102
{ACAD_REACTORS
330
10C
102
}
330
10C
100
AcDbScale
 70
     0
300
8:1
140
8.0
141
1.0
290
     0
  0
SCALE
  5
1CC
102
{ACAD_REACTORS
330
10C
102
}
330
10C
100
AcDbScale
 70
     0
300
10:1
140
10.0
141
1.0
290
     0
  0
SCALE
  5
1CD
102
{ACAD_REACTORS
330
10C
102
}
330
10C
100
AcDbScale
 70
     0
300
100:1
140
100.0
141
1.0
290
     0
  0
ACDBSECTIONVIEWSTYLE
  5
185A6
102
{ACAD_REACTORS
330
17FA5
102
}
102
{ACAD_XDICTIONARY
360
187CD
102
}
330
17FA5
100
AcDbModelDocViewStyle
 70
     0
  3
Imperial24
290
     0
100
AcDbSectionViewStyle
 70
     0
 71
     0
 90
       78
 71
     1
340
11
 40
0.24
340
0
340
0
 40
0.24
300
I, O, Q, S, X, Z
 40
0.48
 90
        3
 40
0.18
 90
        1
 71
     2
340
16
 90
       25
340
16
 90
       50
 40
0.24
 40
0.0
 40
0.24
 71
     3
340
11
 40
0.24
 90
        1
 40
0.75
 90
        1
300
%<\AcVar ViewType \f "%tc1">% %<\AcVar ViewSectionStartId>%-%<\AcVar ViewSectionEndId>%\PESCALA %<\AcVar ViewScale \f "%sn">%
 71
     4
300
ANSI31
 40
1.0
 90
        0
290
     0
290
     0
 90
        6
 40
0.0
 40
1.570796326794897
 40
0.2617993877991494
 40
1.308996938995747
 40
-0.2617993877991494
 40
1.832595714594046
  0
ACDBSECTIONVIEWSTYLE
  5
17FA6
102
{ACAD_REACTORS
330
17FA5
102
}
102
{ACAD_XDICTIONARY
360
187C9
102
}
330
17FA5
100
AcDbModelDocViewStyle
 70
     0
  3
Metric50
290
     0
100
AcDbSectionViewStyle
 70
     0
 71
     0
 90
      102
 71
     1
340
11
 40
5.0
340
0
340
0
 40
5.0
300
I, O, Q, S, X, Z
 40
10.0
 90
        0
 40
2.5
 90
        0
 71
     2
340
16
 90
       25
340
16
 90
       50
 40
5.0
 40
2.5
 40
5.0
 71
     3
340
11
 40
5.0
 90
        0
 40
15.0
 90
        1
300
%<\AcVar ViewSectionStartId>%-%<\AcVar ViewSectionEndId>% (%<\AcVar ViewScale \f "%sn">%)
 71
     4
300
ANSI31
 40
1.0
 90
        0
290
     0
290
     0
 90
        6
 40
0.0
 40
1.570796326794897
 40
0.2617993877991494
 40
1.308996938995747
 40
-0.2617993877991494
 40
1.832595714594046
  0
TABLESTYLE
  5
7F
102
{ACAD_REACTORS
330
7E
102
}
330
7E
100
AcDbTableStyle
  3
Standard
 70
     0
 71
     0
 40
1.5
 41
1.5
280
     0
281
     0
  7
Standard
140
4.5
170
     2
 62
     0
 63
   257
283
     0
274
    -2
284
     1
 64
     0
275
    -2
285
     1
 65
     0
276
    -2
286
     1
 66
     0
277
    -2
287
     1
 67
     0
278
    -2
288
     1
 68
     0
279
    -2
289
     1
 69
     0
  7
Standard
140
6.0
170
     5
 62
     0
 63
   257
283
     0
274
    -2
284
     1
 64
     0
275
    -2
285
     1
 65
     0
276
    -2
286
     1
 66
     0
277
    -2
287
     1
 67
     0
278
    -2
288
     1
 68
     0
279
    -2
289
     1
 69
     0
  7
Standard
140
4.5
170
     5
 62
     0
 63
   257
283
     0
274
    -2
284
     1
 64
     0
275
    -2
285
     1
 65
     0
276
    -2
286
     1
 66
     0
277
    -2
287
     1
 67
     0
278
    -2
288
     1
 68
     0
279
    -2
289
     1
 69
     0
  0
VISUALSTYLE
  5
F5
102
{ACAD_REACTORS
330
EF
102
}
102
{ACAD_XDICTIONARY
360
18843
102
}
330
EF
100
AcDbVisualStyle
  2
2dWireframe
 70
     4
 71
     0
 72
     2
 73
     1
 90
        0
 40
-0.6
 41
-30.0
 62
     5
 63
     7
 74
     1
 91
        4
 64
     7
 65
   257
 75
     1
175
     1
 42
1.0
 92
        0
 66
   257
 43
1.0
 76
     1
 77
     6
 78
     2
 67
     7
 79
     5
170
     0
171
     0
290
     0
174
     0
 93
        1
 44
0.0
173
     0
291
     0
 45
0.0
1001
ACAD
1000
AcDbSavedByObjectVersion
1070
     0
  0
VISUALSTYLE
  5
F7
102
{ACAD_REACTORS
330
EF
102
}
102
{ACAD_XDICTIONARY
360
18845
102
}
330
EF
100
AcDbVisualStyle
  2
3D Hidden
 70
     6
 71
     1
 72
     2
 73
     2
 90
        0
 40
-0.6
 41
-30.0
 62
     5
 63
     7
 74
     2
 91
        2
 64
     7
 65
   257
 75
     2
175
     1
 42
40.0
 92
        0
 66
   257
 43
1.0
 76
     1
 77
     6
 78
     2
 67
     7
 79
     3
170
     0
171
     0
290
     0
174
     0
 93
        1
 44
0.0
173
     0
291
     0
 45
0.0
1001
ACAD
1000
AcDbSavedByObjectVersion
1070
     0
  0
VISUALSTYLE
  5
F6
102
{ACAD_REACTORS
330
EF
102
}
102
{ACAD_XDICTIONARY
360
18847
102
}
330
EF
100
AcDbVisualStyle
  2
3dWireframe
 70
     5
 71
     0
 72
     2
 73
     1
 90
        0
 40
-0.6
 41
-30.0
 62
     5
 63
     7
 74
     1
 91
        4
 64
     7
 65
   257
 75
     1
175
     1
 42
1.0
 92
        0
 66
   257
 43
1.0
 76
     1
 77
     6
 78
     2
 67
     7
 79
     5
170
     0
171
     0
290
     0
174
     0
 93
        1
 44
0.0
173
     0
291
     0
 45
0.0
1001
ACAD
1000
AcDbSavedByObjectVersion
1070
     0
  0
VISUALSTYLE
  5
F4
102
{ACAD_REACTORS
330
EF
102
}
102
{ACAD_XDICTIONARY
360
18849
102
}
330
EF
100
AcDbVisualStyle
  2
Basic
 70
     7
 71
     1
 72
     0
 73
     1
 90
        0
 40
-0.6
 41
-30.0
 62
     5
 63
     7
 74
     0
 91
        4
 64
     7
 65
   257
 75
     1
175
     1
 42
1.0
 92
        8
 66
     7
 43
1.0
 76
     1
 77
     6
 78
     2
 67
     7
 79
     5
170
     0
171
     0
290
     0
174
     0
 93
        1
 44
0.0
173
     0
291
     1
 45
0.0
1001
ACAD
1000
AcDbSavedByObjectVersion
1070
     0
  0
VISUALSTYLE
  5
FB
102
{ACAD_REACTORS
330
EF
102
}
102
{ACAD_XDICTIONARY
360
1884B
102
}
330
EF
100
AcDbVisualStyle
  2
Brighten
 70
    12
 71
     2
 72
     2
 73
     1
 90
        0
 40
-0.6
 41
-30.0
 62
     5
 63
     7
 74
     1
 91
        4
 64
     7
 65
   257
 75
     1
175
     1
 42
1.0
 92
        8
 66
     7
 43
1.0
 76
     1
 77
     6
 78
     2
 67
     7
 79
     5
170
     0
171
     0
290
     0
174
     0
 93
        1
 44
50.0
173
     0
291
     1
 45
0.0
1001
ACAD
1000
AcDbSavedByObjectVersion
1070
     0
  0
VISUALSTYLE
  5
FF
102
{ACAD_REACTORS
330
EF
102
}
102
{ACAD_XDICTIONARY
360
1884D
102
}
330
EF
100
AcDbVisualStyle
  2
ColorChange
 70
    16
 71
     2
 72
     2
 73
     3
 90
        0
 40
-0.6
 41
-30.0
 62
     5
 63
     8
 74
     1
 91
        4
 64
     7
 65
   257
 75
     1
175
     1
 42
1.0
 92
        8
 66
     8
 43
1.0
 76
     1
 77
     6
 78
     2
 67
     7
 79
     5
170
     0
171
     0
290
     0
174
     0
 93
        1
 44
0.0
173
     0
291
     1
 45
0.0
1001
ACAD
1000
AcDbSavedByObjectVersion
1070
     0
  0
VISUALSTYLE
  5
F8
102
{ACAD_REACTORS
330
EF
102
}
102
{ACAD_XDICTIONARY
360
1884F
102
}
330
EF
100
AcDbVisualStyle
  2
Conceptual
 70
     9
 71
     3
 72
     2
 73
     1
 90
        0
 40
-0.6
 41
-30.0
 62
     5
 63
     7
 74
     2
 91
        2
 64
     7
 65
   257
 75
     1
175
     1
 42
40.0
 92
        8
 66
     7
 43
1.0
 76
     1
 77
     6
 78
     2
 67
     7
 79
     3
170
     0
171
     0
290
     0
174
     0
 93
        1
 44
0.0
173
     0
291
     0
 45
0.0
1001
ACAD
1000
AcDbSavedByObjectVersion
1070
     0
  0
VISUALSTYLE
  5
FA
102
{ACAD_REACTORS
330
EF
102
}
102
{ACAD_XDICTIONARY
360
18851
102
}
330
EF
100
AcDbVisualStyle
  2
Dim
 70
    11
 71
     2
 72
     2
 73
     1
 90
        0
 40
-0.6
 41
-30.0
 62
     5
 63
     7
 74
     1
 91
        4
 64
     7
 65
   257
 75
     1
175
     1
 42
1.0
 92
        8
 66
     7
 43
1.0
 76
     1
 77
     6
 78
     2
 67
     7
 79
     5
170
     0
171
     0
290
     0
174
     0
 93
        1
 44
-50.0
173
     0
291
     1
 45
0.0
1001
ACAD
1000
AcDbSavedByObjectVersion
1070
     0
  0
VISUALSTYLE
  5
1E6
102
{ACAD_REACTORS
330
EF
102
}
102
{ACAD_XDICTIONARY
360
18853
102
}
330
EF
100
AcDbVisualStyle
  2
EdgeColorOff
 70
    22
 71
     2
 72
     2
 73
     0
 90
        0
 40
-0.6
 41
-30.0
 62
     5
 63
     7
 74
     1
 91
        4
 64
     7
 65
   257
 75
     1
175
     1
 42
1.0
 92
        8
 66
     7
 43
1.0
 76
     1
 77
     6
 78
     2
 67
     7
 79
     5
170
     0
171
     0
290
     0
174
     0
 93
        1
 44
0.0
173
     0
291
     1
 45
0.0
1001
ACAD
1000
AcDbSavedByObjectVersion
1070
     0
  0
VISUALSTYLE
  5
FE
102
{ACAD_REACTORS
330
EF
102
}
102
{ACAD_XDICTIONARY
360
18855
102
}
330
EF
100
AcDbVisualStyle
  2
Facepattern
 70
    15
 71
     2
 72
     2
 73
     1
 90
        0
 40
-0.6
 41
-30.0
 62
     5
 63
     7
 74
     1
 91
        4
 64
     7
 65
   257
 75
     1
175
     1
 42
1.0
 92
        8
 66
     7
 43
1.0
 76
     1
 77
     6
 78
     2
 67
     7
 79
     5
170
     0
171
     0
290
     0
174
     0
 93
        1
 44
0.0
173
     0
291
     1
 45
0.0
1001
ACAD
1000
AcDbSavedByObjectVersion
1070
     0
  0
VISUALSTYLE
  5
F0
102
{ACAD_REACTORS
330
EF
102
}
102
{ACAD_XDICTIONARY
360
18857
102
}
330
EF
100
AcDbVisualStyle
  2
Flat
 70
     0
 71
     2
 72
     1
 73
     1
 90
        2
 40
-0.6
 41
30.0
 62
     5
 63
     7
 74
     0
 91
        4
 64
     7
 65
   257
 75
     1
175
     1
 42
1.0
 92
        8
 66
     7
 43
1.0
 76
     1
 77
     6
 78
     2
 67
     7
 79
     5
170
     0
171
     0
290
     0
174
     0
 93
        1
 44
0.0
173
     0
291
     1
 45
0.0
1001
ACAD
1000
AcDbSavedByObjectVersion
1070
     0
  0
VISUALSTYLE
  5
F1
102
{ACAD_REACTORS
330
EF
102
}
102
{ACAD_XDICTIONARY
360
18859
102
}
330
EF
100
AcDbVisualStyle
  2
FlatWithEdges
 70
     1
 71
     2
 72
     1
 73
     1
 90
        2
 40
-0.6
 41
30.0
 62
     5
 63
     7
 74
     1
 91
        4
 64
     7
 65
   257
 75
     1
175
     1
 42
1.0
 92
        0
 66
   257
 43
1.0
 76
     1
 77
     6
 78
     2
 67
     7
 79
     5
170
     0
171
     0
290
     0
174
     0
 93
        1
 44
0.0
173
     0
291
     1
 45
0.0
1001
ACAD
1000
AcDbSavedByObjectVersion
1070
     0
  0
VISUALSTYLE
  5
F2
102
{ACAD_REACTORS
330
EF
102
}
102
{ACAD_XDICTIONARY
360
1885B
102
}
330
EF
100
AcDbVisualStyle
  2
Gouraud
 70
     2
 71
     2
 72
     2
 73
     1
 90
        2
 40
-0.6
 41
30.0
 62
     5
 63
     7
 74
     0
 91
        4
 64
     7
 65
   257
 75
     1
175
     1
 42
1.0
 92
        0
 66
     7
 43
1.0
 76
     1
 77
     6
 78
     2
 67
     7
 79
     5
170
     0
171
     0
290
     0
174
     0
 93
        1
 44
0.0
173
     0
291
     1
 45
0.0
1001
ACAD
1000
AcDbSavedByObjectVersion
1070
     0
  0
VISUALSTYLE
  5
F3
102
{ACAD_REACTORS
330
EF
102
}
102
{ACAD_XDICTIONARY
360
1885D
102
}
330
EF
100
AcDbVisualStyle
  2
GouraudWithEdges
 70
     3
 71
     2
 72
     2
 73
     1
 90
        2
 40
-0.6
 41
30.0
 62
     5
 63
     7
 74
     1
 91
        4
 64
     7
 65
   257
 75
     1
175
     1
 42
1.0
 92
        0
 66
   257
 43
1.0
 76
     1
 77
     6
 78
     2
 67
     7
 79
     5
170
     0
171
     0
290
     0
174
     0
 93
        1
 44
0.0
173
     0
291
     1
 45
0.0
1001
ACAD
1000
AcDbSavedByObjectVersion
1070
     0
  0
VISUALSTYLE
  5
17F9F
102
{ACAD_REACTORS
330
EF
102
}
102
{ACAD_XDICTIONARY
360
1885F
102
}
330
EF
100
AcDbVisualStyle
  2
Hidden
 70
     6
 71
     1
 72
     2
 73
     2
 90
        0
 40
-0.6
 41
-30.0
 62
     5
 63
     7
 74
     2
 91
        2
 64
     7
 65
   257
 75
     2
175
     1
 42
40.0
 92
        0
 66
   257
 43
1.0
 76
     1
 77
     6
 78
     2
 67
     7
 79
     3
170
     0
171
     0
290
     0
174
     0
 93
        1
 44
0.0
173
     0
291
     0
 45
0.0
1001
ACAD
1000
AcDbSavedByObjectVersion
1070
     0
  0
VISUALSTYLE
  5
1E4
102
{ACAD_REACTORS
330
EF
102
}
102
{ACAD_XDICTIONARY
360
18861
102
}
330
EF
100
AcDbVisualStyle
  2
JitterOff
 70
    20
 71
     2
 72
     2
 73
     0
 90
        0
 40
-0.6
 41
-30.0
 62
     5
 63
     7
 74
     1
 91
        4
 64
     7
 65
   257
 75
     1
175
     1
 42
1.0
 92
       10
 66
     7
 43
1.0
 76
     1
 77
     6
 78
     2
 67
     7
 79
     5
170
     0
171
     0
290
     0
174
     0
 93
        1
 44
0.0
173
     0
291
     1
 45
0.0
1001
ACAD
1000
AcDbSavedByObjectVersion
1070
     0
  0
VISUALSTYLE
  5
FD
102
{ACAD_REACTORS
330
EF
102
}
102
{ACAD_XDICTIONARY
360
18863
102
}
330
EF
100
AcDbVisualStyle
  2
Linepattern
 70
    14
 71
     2
 72
     2
 73
     1
 90
        0
 40
-0.6
 41
-30.0
 62
     5
 63
     7
 74
     1
 91
        4
 64
     7
 65
   257
 75
     7
175
     7
 42
1.0
 92
        8
 66
     7
 43
1.0
 76
     1
 77
     6
 78
     2
 67
     7
 79
     5
170
     0
171
     0
290
     0
174
     0
 93
        1
 44
0.0
173
     0
291
     1
 45
0.0
1001
ACAD
1000
AcDbSavedByObjectVersion
1070
     0
  0
VISUALSTYLE
  5
1E5
102
{ACAD_REACTORS
330
EF
102
}
102
{ACAD_XDICTIONARY
360
18865
102
}
330
EF
100
AcDbVisualStyle
  2
OverhangOff
 70
    21
 71
     2
 72
     2
 73
     0
 90
        0
 40
-0.6
 41
-30.0
 62
     5
 63
     7
 74
     1
 91
        4
 64
     7
 65
   257
 75
     1
175
     1
 42
1.0
 92
        9
 66
     7
 43
1.0
 76
     1
 77
     6
 78
     2
 67
     7
 79
     5
170
     0
171
     0
290
     0
174
     0
 93
        1
 44
0.0
173
     0
291
     1
 45
0.0
1001
ACAD
1000
AcDbSavedByObjectVersion
1070
     0
  0
VISUALSTYLE
  5
F9
102
{ACAD_REACTORS
330
EF
102
}
102
{ACAD_XDICTIONARY
360
18867
102
}
330
EF
100
AcDbVisualStyle
  2
Realistic
 70
     8
 71
     2
 72
     2
 73
     1
 90
        0
 40
-0.6
 41
-30.0
 62
     5
 63
     7
 74
     1
 91
        0
 64
     7
 65
   257
 75
     1
175
     1
 42
1.0
 92
        8
 66
     8
 43
1.0
 76
     1
 77
     6
 78
     2
 67
     7
 79
     5
170
     0
171
     0
290
     0
174
     0
 93
       13
 44
0.0
173
     0
291
     0
 45
0.0
1001
ACAD
1000
AcDbSavedByObjectVersion
1070
     0
  0
VISUALSTYLE
  5
17FA4
102
{ACAD_REACTORS
330
EF
102
}
102
{ACAD_XDICTIONARY
360
18869
102
}
330
EF
100
AcDbVisualStyle
  2
Shaded
 70
    27
 71
     2
 72
     2
 73
     1
 90
        2
 40
-0.6
 41
30.0
 62
     5
 63
     7
 74
     0
 91
        4
 64
     7
 65
   257
 75
     1
175
     1
 42
1.0
 92
        8
 66
   257
 43
1.0
 76
     1
 77
     6
 78
     2
 67
     8
 79
     3
170
     0
171
     0
290
     0
174
     0
 93
        5
 44
0.0
173
     0
291
     0
 45
0.0
1001
ACAD
1000
AcDbSavedByObjectVersion
1070
     0
  0
VISUALSTYLE
  5
17FA3
102
{ACAD_REACTORS
330
EF
102
}
102
{ACAD_XDICTIONARY
360
1886B
102
}
330
EF
100
AcDbVisualStyle
  2
Shaded with edges
 70
    26
 71
     2
 72
     2
 73
     1
 90
        2
 40
-0.6
 41
30.0
 62
     5
 63
     7
 74
     1
 91
       10
 64
     7
 65
   257
 75
     2
175
     1
 42
1.0
 92
        8
 66
   257
 43
1.0
 76
     1
 77
     6
 78
     2
 67
     7
 79
     3
170
     0
171
     0
290
     0
174
     0
 93
        5
 44
0.0
173
     0
291
     0
 45
0.0
1001
ACAD
1000
AcDbSavedByObjectVersion
1070
     0
  0
VISUALSTYLE
  5
17FA0
102
{ACAD_REACTORS
330
EF
102
}
102
{ACAD_XDICTIONARY
360
1886D
102
}
330
EF
100
AcDbVisualStyle
  2
Shades of Gray
 70
    23
 71
     2
 72
     2
 73
     3
 90
        0
 40
-0.6
 41
-30.0
 62
     5
 63
     7
 74
     2
 91
        2
 64
     7
 65
     7
 75
     1
175
     1
 42
40.0
 92
        8
 66
     7
 43
1.0
 76
     1
 77
     6
 78
     2
 67
     7
 79
     3
170
     0
171
     0
290
     0
174
     0
 93
        1
 44
0.0
173
     0
291
     0
 45
0.0
1001
ACAD
1000
AcDbSavedByObjectVersion
1070
     0
  0
VISUALSTYLE
  5
17FA1
102
{ACAD_REACTORS
330
EF
102
}
102
{ACAD_XDICTIONARY
360
1886F
102
}
330
EF
100
AcDbVisualStyle
  2
Sketchy
 70
    24
 71
     1
 72
     2
 73
     2
 90
        0
 40
-0.6
 41
-30.0
 62
     5
 63
     7
 74
     2
 91
        2
 64
     7
 65
     7
 75
     1
175
     1
 42
40.0
 92
       11
 66
     7
 43
1.0
 76
     1
 77
     6
 78
     2
 67
     7
 79
     6
170
     0
171
     0
290
     0
174
     0
 93
        1
 44
0.0
173
     0
291
     0
 45
0.0
1001
ACAD
1000
AcDbSavedByObjectVersion
1070
     0
  0
VISUALSTYLE
  5
FC
102
{ACAD_REACTORS
330
EF
102
}
102
{ACAD_XDICTIONARY
360
18871
102
}
330
EF
100
AcDbVisualStyle
  2
Thicken
 70
    13
 71
     2
 72
     2
 73
     1
 90
        0
 40
-0.6
 41
-30.0
 62
     5
 63
     7
 74
     1
 91
        4
 64
     7
 65
   257
 75
     1
175
     1
 42
1.0
 92
       12
 66
     7
 43
1.0
 76
     1
 77
     6
 78
     2
 67
     7
 79
     5
170
     0
171
     0
290
     0
174
     0
 93
        1
 44
0.0
173
     0
291
     1
 45
0.0
1001
ACAD
1000
AcDbSavedByObjectVersion
1070
     0
  0
VISUALSTYLE
  5
17F9E
102
{ACAD_REACTORS
330
EF
102
}
102
{ACAD_XDICTIONARY
360
18873
102
}
330
EF
100
AcDbVisualStyle
  2
Wireframe
 70
     5
 71
     0
 72
     2
 73
     0
 90
        0
 40
-0.6
 41
-30.0
 62
     5
 63
     7
 74
     1
 91
        4
 64
     7
 65
   257
 75
     1
175
     1
 42
1.0
 92
        0
 66
   257
 43
1.0
 76
     1
 77
     6
 78
     2
 67
     7
 79
     3
170
     0
171
     0
290
     0
174
     0
 93
        1
 44
0.0
173
     0
291
     0
 45
0.0
1001
ACAD
1000
AcDbSavedByObjectVersion
1070
     0
  0
VISUALSTYLE
  5
17FA2
102
{ACAD_REACTORS
330
EF
102
}
102
{ACAD_XDICTIONARY
360
18875
102
}
330
EF
100
AcDbVisualStyle
  2
X-Ray
 70
    25
 71
     2
 72
     2
 73
     1
 90
        1
 40
0.5
 41
-30.0
 62
     5
 63
     7
 74
     1
 91
        0
 64
     7
 65
   257
 75
     1
175
     1
 42
1.0
 92
        8
 66
     7
 43
1.0
 76
     1
 77
     6
 78
     2
 67
     7
 79
     3
170
     0
171
     0
290
     0
174
     0
 93
       13
 44
0.0
173
     0
291
     0
 45
0.0
1001
ACAD
1000
AcDbSavedByObjectVersion
1070
     0
  0
XRECORD
  5
18830
102
{ACAD_REACTORS
330
1882F
102
}
330
1882F
100
AcDbXrecord
280
     1
340
6B
  0
XRECORD
  5
18831
102
{ACAD_REACTORS
330
1882F
102
}
330
1882F
100
AcDbXrecord
280
     1
340
6A
  0
DICTIONARYVAR
  5
146
102
{ACAD_REACTORS
330
5E
102
}
330
5E
100
DictionaryVariables
280
     0
  1
1:1
  0
DICTIONARYVAR
  5
145
102
{ACAD_REACTORS
330
5E
102
}
330
5E
100
DictionaryVariables
280
     0
  1
Standard
  0
DICTIONARYVAR
  5
84
102
{ACAD_REACTORS
330
5E
102
}
330
5E
100
DictionaryVariables
280
     0
  1
Standard
  0
DICTIONARYVAR
  5
18613
102
{ACAD_REACTORS
330
5E
102
}
330
5E
100
DictionaryVariables
280
     0
  1
Metric50
  0
DICTIONARYVAR
  5
18614
102
{ACAD_REACTORS
330
5E
102
}
330
5E
100
DictionaryVariables
280
     0
  1
Metric50
  0
DICTIONARYVAR
  5
5F
102
{ACAD_REACTORS
330
5E
102
}
330
5E
100
DictionaryVariables
280
     0
  1
2
  0
DICTIONARYVAR
  5
63
102
{ACAD_REACTORS
330
5E
102
}
330
5E
100
DictionaryVariables
280
     0
  1
1
  0
DICTIONARYVAR
  5
1AE
102
{ACAD_REACTORS
330
5E
102
}
330
5E
100
DictionaryVariables
280
     0
  1
0
  0
DICTIONARYVAR
  5
1AF
102
{ACAD_REACTORS
330
5E
102
}
330
5E
100
DictionaryVariables
280
     0
  1
0
  0
DICTIONARYVAR
  5
230D
102
{ACAD_REACTORS
330
5E
102
}
330
5E
100
DictionaryVariables
280
     0
  1
2
  0
DICTIONARYVAR
  5
230C
102
{ACAD_REACTORS
330
5E
102
}
330
5E
100
DictionaryVariables
280
     0
  1
1
  0
DICTIONARYVAR
  5
1882D
102
{ACAD_REACTORS
330
5E
102
}
330
5E
100
DictionaryVariables
280
     0
  1
4.000000
  0
DICTIONARYVAR
  5
1882C
102
{ACAD_REACTORS
330
5E
102
}
330
5E
100
DictionaryVariables
280
     0
  1
0.250000
  0
DICTIONARYVAR
  5
1882E
102
{ACAD_REACTORS
330
5E
102
}
330
5E
100
DictionaryVariables
280
     0
  1
2
  0
DICTIONARY
  5
18878
102
{ACAD_REACTORS
330
18877
102
}
330
18877
100
AcDbDictionary
281
     1
  0
DICTIONARY
  5
18879
102
{ACAD_REACTORS
330
18877
102
}
330
18877
100
AcDbDictionary
281
     1
  3
8796085000128
350
1887A
  3
8796085000144
350
1887B
  3
8796085000160
350
1887C
  3
8796085000176
350
1887D
  3
8796085000192
350
1887E
  3
8796085000208
350
1887F
  0
DICTIONARY
  5
187CF
330
185A7
100
AcDbDictionary
280
     1
281
     1
  3
ACAD_XREC_ROUNDTRIP
360
18835
  0
DICTIONARY
  5
187CB
330
17FA8
100
AcDbDictionary
280
     1
281
     1
  3
ACAD_XREC_ROUNDTRIP
360
18836
  0
DICTIONARY
  5
18837
330
22
100
AcDbDictionary
280
     1
281
     1
  3
ADSK_XREC_LAYOUTTHUMBNAIL
360
18838
  0
DICTIONARY
  5
18839
330
ED
100
AcDbDictionary
280
     1
281
     1
  3
ACAD_XREC_ROUNDTRIP
360
1883A
  0
DICTIONARY
  5
1883B
330
EC
100
AcDbDictionary
280
     1
281
     1
  3
ACAD_XREC_ROUNDTRIP
360
1883C
  0
DICTIONARY
  5
1883D
330
EE
100
AcDbDictionary
280
     1
281
     1
  3
ACAD_XREC_ROUNDTRIP
360
1883E
  0
DICTIONARY
  5
1883F
330
12E
100
AcDbDictionary
280
     1
281
     1
  3
ACAD_XREC_ROUNDTRIP
360
18840
  0
DICTIONARY
  5
187CD
330
185A6
100
AcDbDictionary
280
     1
281
     1
  3
ACAD_XREC_ROUNDTRIP
360
18841
  0
DICTIONARY
  5
187C9
330
17FA6
100
AcDbDictionary
280
     1
281
     1
  3
ACAD_XREC_ROUNDTRIP
360
18842
  0
DICTIONARY
  5
18843
330
F5
100
AcDbDictionary
280
     1
281
     1
  3
ACAD_XREC_ROUNDTRIP
360
18844
  0
DICTIONARY
  5
18845
330
F7
100
AcDbDictionary
280
     1
281
     1
  3
ACAD_XREC_ROUNDTRIP
360
18846
  0
DICTIONARY
  5
18847
330
F6
100
AcDbDictionary
280
     1
281
     1
  3
ACAD_XREC_ROUNDTRIP
360
18848
  0
DICTIONARY
  5
18849
330
F4
100
AcDbDictionary
280
     1
281
     1
  3
ACAD_XREC_ROUNDTRIP
360
1884A
  0
DICTIONARY
  5
1884B
330
FB
100
AcDbDictionary
280
     1
281
     1
  3
ACAD_XREC_ROUNDTRIP
360
1884C
  0
DICTIONARY
  5
1884D
330
FF
100
AcDbDictionary
280
     1
281
     1
  3
ACAD_XREC_ROUNDTRIP
360
1884E
  0
DICTIONARY
  5
1884F
330
F8
100
AcDbDictionary
280
     1
281
     1
  3
ACAD_XREC_ROUNDTRIP
360
18850
  0
DICTIONARY
  5
18851
330
FA
100
AcDbDictionary
280
     1
281
     1
  3
ACAD_XREC_ROUNDTRIP
360
18852
  0
DICTIONARY
  5
18853
330
1E6
100
AcDbDictionary
280
     1
281
     1
  3
ACAD_XREC_ROUNDTRIP
360
18854
  0
DICTIONARY
  5
18855
330
FE
100
AcDbDictionary
280
     1
281
     1
  3
ACAD_XREC_ROUNDTRIP
360
18856
  0
DICTIONARY
  5
18857
330
F0
100
AcDbDictionary
280
     1
281
     1
  3
ACAD_XREC_ROUNDTRIP
360
18858
  0
DICTIONARY
  5
18859
330
F1
100
AcDbDictionary
280
     1
281
     1
  3
ACAD_XREC_ROUNDTRIP
360
1885A
  0
DICTIONARY
  5
1885B
330
F2
100
AcDbDictionary
280
     1
281
     1
  3
ACAD_XREC_ROUNDTRIP
360
1885C
  0
DICTIONARY
  5
1885D
330
F3
100
AcDbDictionary
280
     1
281
     1
  3
ACAD_XREC_ROUNDTRIP
360
1885E
  0
DICTIONARY
  5
1885F
330
17F9F
100
AcDbDictionary
280
     1
281
     1
  3
ACAD_XREC_ROUNDTRIP
360
18860
  0
DICTIONARY
  5
18861
330
1E4
100
AcDbDictionary
280
     1
281
     1
  3
ACAD_XREC_ROUNDTRIP
360
18862
  0
DICTIONARY
  5
18863
330
FD
100
AcDbDictionary
280
     1
281
     1
  3
ACAD_XREC_ROUNDTRIP
360
18864
  0
DICTIONARY
  5
18865
330
1E5
100
AcDbDictionary
280
     1
281
     1
  3
ACAD_XREC_ROUNDTRIP
360
18866
  0
DICTIONARY
  5
18867
330
F9
100
AcDbDictionary
280
     1
281
     1
  3
ACAD_XREC_ROUNDTRIP
360
18868
  0
DICTIONARY
  5
18869
330
17FA4
100
AcDbDictionary
280
     1
281
     1
  3
ACAD_XREC_ROUNDTRIP
360
1886A
  0
DICTIONARY
  5
1886B
330
17FA3
100
AcDbDictionary
280
     1
281
     1
  3
ACAD_XREC_ROUNDTRIP
360
1886C
  0
DICTIONARY
  5
1886D
330
17FA0
100
AcDbDictionary
280
     1
281
     1
  3
ACAD_XREC_ROUNDTRIP
360
1886E
  0
DICTIONARY
  5
1886F
330
17FA1
100
AcDbDictionary
280
     1
281
     1
  3
ACAD_XREC_ROUNDTRIP
360
18870
  0
DICTIONARY
  5
18871
330
FC
100
AcDbDictionary
280
     1
281
     1
  3
ACAD_XREC_ROUNDTRIP
360
18872
  0
DICTIONARY
  5
18873
330
17F9E
100
AcDbDictionary
280
     1
281
     1
  3
ACAD_XREC_ROUNDTRIP
360
18874
  0
DICTIONARY
  5
18875
330
17FA2
100
AcDbDictionary
280
     1
281
     1
  3
ACAD_XREC_ROUNDTRIP
360
18876
  0
XRECORD
  5
1887A
102
{ACAD_REACTORS
330
18879
102
}
330
18879
100
AcDbXrecord
280
     1
  1
AcDb_Thumbnail_Schema
102
{ATTRRECORD
341
1887C
  2
AcDbDs::TreatedAsObjectData
280
     1
291
     1
102
ATTRRECORD}
102
{ATTRRECORD
341
1887D
  2
AcDbDs::Legacy
280
     1
291
     1
102
ATTRRECORD}
  2
AcDbDs::ID
280
    10
 91
        8
102
{ATTRRECORD
341
1887E
  2
AcDs:Indexable
280
     1
291
     1
102
ATTRRECORD}
102
{ATTRRECORD
341
1887F
  2
AcDbDs::HandleAttribute
280
     7
282
     1
102
ATTRRECORD}
  2
Thumbnail_Data
280
    15
 91
        0
  0
XRECORD
  5
1887B
102
{ACAD_REACTORS
330
18879
102
}
330
18879
100
AcDbXrecord
280
     1
  1
AcDb3DSolid_ASM_Data
102
{ATTRRECORD
341
1887C
  2
AcDbDs::TreatedAsObjectData
280
     1
291
     1
102
ATTRRECORD}
102
{ATTRRECORD
341
1887D
  2
AcDbDs::Legacy
280
     1
291
     1
102
ATTRRECORD}
  2
AcDbDs::ID
280
    10
 91
        8
102
{ATTRRECORD
341
1887E
  2
AcDs:Indexable
280
     1
291
     1
102
ATTRRECORD}
102
{ATTRRECORD
341
1887F
  2
AcDbDs::HandleAttribute
280
     7
282
     1
102
ATTRRECORD}
  2
ASM_Data
280
    15
 91
        0
  0
XRECORD
  5
1887C
102
{ACAD_REACTORS
330
18879
102
}
330
18879
100
AcDbXrecord
280
     1
  1
AcDbDs::TreatedAsObjectDataSchema
  2
AcDbDs::TreatedAsObjectData
280
     1
 91
        0
  0
XRECORD
  5
1887D
102
{ACAD_REACTORS
330
18879
102
}
330
18879
100
AcDbXrecord
280
     1
  1
AcDbDs::LegacySchema
  2
AcDbDs::Legacy
280
     1
 91
        0
  0
XRECORD
  5
1887E
102
{ACAD_REACTORS
330
18879
102
}
330
18879
100
AcDbXrecord
280
     1
  1
AcDbDs::IndexedPropertySchema
  2
AcDs:Indexable
280
     1
 91
        0
  0
XRECORD
  5
1887F
102
{ACAD_REACTORS
330
18879
102
}
330
18879
100
AcDbXrecord
280
     1
  1
AcDbDs::HandleAttributeSchema
  2
AcDbDs::HandleAttribute
280
     7
 91
        1
284
     1
  0
XRECORD
  5
18835
102
{ACAD_REACTORS
330
187CF
102
}
330
187CF
100
AcDbXrecord
280
     1
102
DISPLAYNAME
  1
Imperial24
102
FLAGS
 90
        0
  0
XRECORD
  5
18836
102
{ACAD_REACTORS
330
187CB
102
}
330
187CB
100
AcDbXrecord
280
     1
102
DISPLAYNAME
  1
Metric50
102
FLAGS
 90
        0
  0
XRECORD
  5
18838
102
{ACAD_REACTORS
330
18837
102
}
330
18837
100
AcDbXrecord
280
     1
310
280000000001000064000000010008000000000000640000010000000100000000010000000000003028210000000000C8C8C8FF000000FF000000FF000000FF000000FF000000FF000000FF000000FF000000FF330000FF660000FF990000FFCC0000FFFF0000FF003300FF333300FF663300FF993300FFCC3300FFFF3300
310
FF006600FF336600FF666600FF996600FFCC6600FFFF6600FF009900FF339900FF669900FF999900FFCC9900FFFF9900FF00CC00FF33CC00FF66CC00FF99CC00FFCCCC00FFFFCC00FF00FF00FF33FF00FF66FF00FF99FF00FFCCFF00FFFFFF00FF000033FF330033FF660033FF990033FFCC0033FFFF0033FF003333FF3333
310
33FF663333FF993333FFCC3333FFFF3333FF006633FF336633FF666633FF996633FFCC6633FFFF6633FF009933FF339933FF669933FF999933FFCC9933FFFF9933FF00CC33FF33CC33FF66CC33FF99CC33FFCCCC33FFFFCC33FF00FF33FF33FF33FF66FF33FF99FF33FFCCFF33FFFFFF33FF000066FF330066FF660066FF99
310
0066FFCC0066FFFF0066FF003366FF333366FF663366FF993366FFCC3366FFFF3366FF006666FF336666FF666666FF996666FFCC6666FFFF6666FF009966FF339966FF669966FF999966FFCC9966FFFF9966FF00CC66FF33CC66FF66CC66FF99CC66FFCCCC66FFFFCC66FF00FF66FF33FF66FF66FF66FF99FF66FFCCFF66FF
310
FFFF66FF000099FF330099FF660099FF990099FFCC0099FFFF0099FF003399FF333399FF663399FF993399FFCC3399FFFF3399FF006699FF336699FF666699FF996699FFCC6699FFFF6699FF009999FF339999FF669999FF999999FFCC9999FFFF9999FF00CC99FF33CC99FF66CC99FF99CC99FFCCCC99FFFFCC99FF00FF99
310
FF33FF99FF66FF99FF99FF99FFCCFF99FFFFFF99FF0000CCFF3300CCFF6600CCFF9900CCFFCC00CCFFFF00CCFF0033CCFF3333CCFF6633CCFF9933CCFFCC33CCFFFF33CCFF0066CCFF3366CCFF6666CCFF9966CCFFCC66CCFFFF66CCFF0099CCFF3399CCFF6699CCFF9999CCFFCC99CCFFFF99CCFF00CCCCFF33CCCCFF66CC
310
CCFF99CCCCFFCCCCCCFFFFCCCCFF00FFCCFF33FFCCFF66FFCCFF99FFCCFFCCFFCCFFFFFFCCFF0000FFFF3300FFFF6600FFFF9900FFFFCC00FFFFFF00FFFF0033FFFF3333FFFF6633FFFF9933FFFFCC33FFFFFF33FFFF0066FFFF3366FFFF6666FFFF9966FFFFCC66FFFFFF66FFFF0099FFFF3399FFFF6699FFFF9999FFFFCC
310
99FFFFFF99FFFF00CCFFFF33CCFFFF66CCFFFF99CCFFFFCCCCFFFFFFCCFFFF00FFFFFF33FFFFFF66FFFFFF99FFFFFFCCFFFFFFFFFFFFFF000000FF0D0D0DFF1A1A1AFF282828FF353535FF434343FF505050FF5D5D5DFF6B6B6BFF787878FF868686FF939393FFA1A1A1FFAEAEAEFFBBBBBBFFC9C9C9FFD6D6D6FFE4E4E4FF
310
F1F1F1FFFFFFFFFF000000FF000000FF000000FF000000FF000000FF000000FF000000FF000000FF000000FF000000FF00000000000000000000000000000000000000000000000000000000000000000000000000000000000000000000000000000000000000000000000000000000000000000000000000000000000000
310
00000000000000000000000000000000000000000000000000000000000000000000000000000000000000000000000000000000000000000000000000000000000000000000000000000000000000000000000000000000000000000000000000000000000000000000000000000000000000000000000000000000000000
310
00000000000000000000000000000000000000000000000000000000000000000000000000000000000000000000000000000000000000000000000000000000000000000000000000000000000000000000000000000000000000000000000000000000000000000000000000000000000000000000000000000000000000
310
00000000000000000000000000000000000000000000000000000000000000000000000000000000000000000000000000000000000000000000000000000000000000000000000000000000000000000000000000000000000000000000000000000000000000000000000000000000000000000000000000000000000000
310
00000000000000000000000000000000000000000000000000000000000000000000000000000000000000000000000000000000000000000000000000000000000000000000000000000000000000000000000000000000000000000000000000000000000000000000000000000000000000000000000000000000000000
310
00000000000000000000000000000000000000000000000000000000000000000000000000000000000000000000000000000000000000000000000000000000000000000000000000000000000000000000000000000000000000000000000000000000000000000000000000000000000000000000000000000000000000
310
00000000000000000000000000000000000000000000000000000000000000000000000000000000000000000000000000000000000000000000000000000000000000000000000000000000000000000000000000000000000000000000000000000000000000000000000000000000000000000000000000000000000000
310
00000000000000000000000000000000000000000000000000000000000000000000000000000000000000000000000000000000000000000000000000000000000000000000000000000000000000000000000000000000000000000000000000000000000000000000000000000000000000000000000000000000000000
310
00000000000000000000000000000000000000000000000000000000000000000000000000000000000000000000000000000000000000000000000000000000000000000000000000000000000000000000000000000000000000000000000000000000000000000000000000000000000000000000000000000000000000
310
00000000000000000000000000000000000000000000000000000000000000000000000000000000000000000000000000000000000000000000000000000000000000000000000000000000000000000000000000000000000000000000000000000000000000000000000000000000000000000000000000000000000000
310
00000000000000000000000000000000000000000000000000000000000000000000000000000000000000000000000000000000000000000000000000000000000000000000000000000000000000000000000000000000000000000000000000000000000000000000000000000000000000000000000000000000000000
310
00000000000000000000000000000000000000000000000000000000000000000000000000000000000000000000000000000000000000000000000000000000000000000000000000000000000000000000000000000000000000000000000000000000000000000000000000000000000000000000000000000000000000
310
00000000000000000000000000000000000000000000000000000000000000000000000000000000000000000000000000000000000000000000000000000000000000000000000000000000000000000000000000000000000000000000000000000000000000000000000000000000000000000000000000000000000000
310
00000000000000000000000000000000000000000000000000000000000000000000000000000000000000000000000000000000000000000000000000000000000000000000000000000000000000000000000000000000000000000000000000000000000000000000000000000000000000000000000000000000000000
310
00000000000000000000000000000000000000000000000000000000000000000000000000000000000000000000000000000000000000000000000000000000000000000000000000000000000000000000000000000000000000000000000000000000000000000000000000000000000000000000000000000000000000
310
00000000000000000000000000000000000000000000000000000000000000000000000000000000000000000000000000000000000000000000000000000000000000000000000000000000000000000000000000000000000000000000000000000000000000000000000000000000000000000000000000000000000000
310
00000000000000000000000000000000000000000000000000000000000000000000000000000000000000000000000000000000000000000000000000000000000000000000000000000000000000000000000000000000000000000000000000000000000000000000000000000000000000000000000000000000000000
310
00000000000000000000000000000000000000000000000000000000000000000000000000000000000000000000000000000000000000000000000000000000000000000000000000000000000000000000000000000000000000000000000000000000000000000000000000000000000000000000000000000000000000
310
00000000000000000000000000000000000000000000000000000000000000000000000000000000000000000000000000000000000000000000000000000000000000000000000000000000000000000000000000000000000000000000000000000000000000000000000000000000000000000000000000000000000000
310
00000000000000000000000000000000000000000000000000000000000000000000000000000000000000000000000000000000000000000000000000000000000000000000000000000000000000000000000000000000000000000000000000000000000000000000000000000000000000000000000000000000000000
310
00000000000000000000000000000000000000000000000000000000000000000000000000000000000000000000000000000000000000000000000000000000000000000000000000000000000000000000000000000000000000000000000000000000000000000000000000000000000000000000000000000000000000
310
00000000000000000000000000000000000000000000000000000000000000000000000000000000000000000000000000000000000000000000000000000000000000000000000000000000000000000000000000000000000000000000000000000000000000000000000000000000000000000000000000000000000000
310
00000000000000000000000000000000000000000000000000000000000000000000000000000000000000000000000000000000000000000000000000000000000000000000000000000000000000000000000000000000000000000000000000000000000000000000000000000000000000000000000000000000000000
310
00000000000000000000000000000000000000000000000000000000000000000000000000000000000000000000000000000000000000000000000000000000000000000000000000000000000000000000000000000000000000000000000000000000000000000000000000000000000000000000000000000000000000
310
00000000000000000000000000000000000000000000000000000000000000000000000000000000000000000000000000000000000000000000000000000000000000000000000000000000000000000000000000000000000000000000000000000000000000000000000000000000000000000000000000000000000000
310
00000000000000000000000000000000000000000000000000000000000000000000000000000000000000000000000000000000000000000000000000000000000000000000000000000000000000000000000000000000000000000000000000000000000000000000000000000000000000000000000000000000000000
310
00000000000000000000000000000000000000000000000000000000000000000000000000000000000000000000000000000000000000000000000000000000000000000000000000000000000000000000000000000000000000000000000000000000000000000000000000000000000000000000000000000000000000
310
00000000000000000000000000000000000000000000000000000000000000000000000000000000000000000000000000000000000000000000000000000000000000000000000000000000000000000000000000000000000000000000000000000000000000000000000000000000000000000000000000000000000000
310
00000000000000000000000000000000000000000000000000000000000000000000000000000000000000000000000000000000000000000000000000000000000000000000000000000000000000000000000000000000000000000000000000000000000000000000000000000000000000000000000000000000000000
310
00000000000000000000000000000000000000000000000000000000000000000000000000000000000000000000000000000000000000000000000000000000000000000000000000000000000000000000000000000000000000000000000000000000000000000000000000000000000000000000000000000000000000
310
00000000000000000000000000000000000000000000000000000000000000000000000000000000000000000000000000000000000000000000000000000000000000000000000000000000000000000000000000000000000000000000000000000000000000000000000000000000000000000000000000000000000000
310
00000000000000000000000000000000000000000000000000000000000000000000000000000000000000000000000000000000000000000000000000000000000000000000000000000000000000000000000000000000000000000000000000000000000000000000000000000000000000000000000000000000000000
310
00000000000000000000000000000000000000000000000000000000000000000000000000000000000000000000000000000000000000000000000000000000000000000000000000000000000000000000000000000000000000000000000000000000000000000000000000000000000000000000000000000000000000
310
00000000000000000000000000000000000000000000000000000000000000000000000000000000000000000000000000000000000000000000000000000000000000000000000000000000000000000000000000000000000000000000000000000000000000000000000000000000000000000000000000000000000000
310
00000000000000000000000000000000000000000000000000000000000000000000000000000000000000000000000000000000000000000000000000000000000000000000000000000000000000000000000000000000000000000000000000000000000000000000000000000000000000000000000000000000000000
310
00000000000000000000000000000000000000000000000000000000000000000000000000000000000000000000000000000000000000000000000000000000000000000000000000000000000000000000000000000000000000000000000000000000000000000000000000000000000000000000000000000000000000
310
00000000000000000000000000000000000000000000000000000000000000000000000000000000000000000000000000000000000000000000000000000000000000000000000000000000000000000000000000000000000000000000000000000000000000000000000000000000000000000000000000000000000000
310
00000000000000000000000000000000000000000000000000000000000000000000000000000000000000000000000000000000000000000000000000000000000000000000000000000000000000000000000000000000000000000000000000000000000000000000000000000000000000000000000000000000000000
310
00000000000000000000000000000000000000000000000000000000000000000000000000000000000000000000000000000000000000000000000000000000000000000000000000000000000000000000000000000000000000000000000000000000000000000000000000000000000000000000000000000000000000
310
00000000000000000000000000000000000000000000000000000000000000000000000000000000000000000000000000000000000000000000000000000000000000000000000000000000000000000000000000000000000000000000000000000000000000000000000000000000000000000000000000000000000000
310
00000000000000000000000000000000000000000000000000000000000000000000000000000000000000000000000000000000000000000000000000000000000000000000000000000000000000000000000000000000000000000000000000000000000000000000000000000000000000000000000000000000000000
310
00000000000000000000000000000000000000000000000000000000000000000000000000000000000000000000000000000000000000000000000000000000000000000000000000000000000000000000000000000000000000000000000000000000000000000000000000000000000000000000000000000000000000
310
00000000000000000000000000000000000000000000000000000000000000000000000000000000000000000000000000000000000000000000000000000000000000000000000000000000000000000000000000000000000000000000000000000000000000000000000000000000000000000000000000000000000000
310
00000000000000000000000000000000000000000000000000000000000000000000000000000000000000000000000000000000000000000000000000000000000000000000000000000000000000000000000000000000000000000000000000000000000000000000000000000000000000000000000000000000000000
310
00000000000000000000000000000000000000000000000000000000000000000000000000000000000000000000000000000000000000000000000000000000000000000000000000000000000000000000000000000000000000000000000000000000000000000000000000000000000000000000000000000000000000
310
00000000000000000000000000000000000000000000000000000000000000000000000000000000000000000000000000000000000000000000000000000000000000000000000000000000000000000000000000000000000000000000000000000000000000000000000000000000000000000000000000000000000000
310
00000000000000000000000000000000000000000000000000000000000000000000000000000000000000000000000000000000000000000000000000000000000000000000000000000000000000000000000000000000000000000000000000000000000000000000000000000000000000000000000000000000000000
310
00000000000000000000000000000000000000000000000000000000000000000000000000000000000000000000000000000000000000000000000000000000000000000000000000000000000000000000000000000000000000000000000000000000000000000000000000000000000000000000000000000000000000
310
00000000000000000000000000000000000000000000000000000000000000000000000000000000000000000000000000000000000000000000000000000000000000000000000000000000000000000000000000000000000000000000000000000000000000000000000000000000000000000000000000000000000000
310
00000000000000000000000000000000000000000000000000000000000000000000000000000000000000000000000000000000000000000000000000000000000000000000000000000000000000000000000000000000000000000000000000000000000000000000000000000000000000000000000000000000000000
310
00000000000000000000000000000000000000000000000000000000000000000000000000000000000000000000000000000000000000000000000000000000000000000000000000000000000000000000000000000000000000000000000000000000000000000000000000000000000000000000000000000000000000
310
00000000000000000000000000000000000000000000000000000000000000000000000000000000000000000000000000000000000000000000000000000000000000000000000000000000000000000000000000000000000000000000000000000000000000000000000000000000000000000000000000000000000000
310
00000000000000000000000000000000000000000000000000000000000000000000000000000000000000000000000000000000000000000000000000000000000000000000000000000000000000000000000000000000000000000000000000000000000000000000000000000000000000000000000000000000000000
310
00000000000000000000000000000000000000000000000000000000000000000000000000000000000000000000000000000000000000000000000000000000000000000000000000000000000000000000000000000000000000000000000000000000000000000000000000000000000000000000000000000000000000
310
00000000000000000000000000000000000000000000000000000000000000000000000000000000000000000000000000000000000000000000000000000000000000000000000000000000000000000000000000000000000000000000000000000000000000000000000000000000000000000000000000000000000000
310
00000000000000000000000000000000000000000000000000000000000000000000000000000000000000000000000000000000000000000000000000000000000000000000000000000000000000000000000000000000000000000000000000000000000000000000000000000000000000000000000000000000000000
310
00000000000000000000000000000000000000000000000000000000000000000000000000000000000000000000000000000000000000000000000000000000000000000000000000000000000000000000000000000000000000000000000000000000000000000000000000000000000000000000000000000000000000
310
00000000000000000000000000000000000000000000000000000000000000000000000000000000000000000000000000000000000000000000000000000000000000000000000000000000000000000000000000000000000000000000000000000000000000000000000000000000000000000000000000000000000000
310
00000000000000000000000000000000000000000000000000000000000000000000000000000000000000000000000000000000000000000000000000000000000000000000000000000000000000000000000000000000000000000000000000000000000000000000000000000000000000000000000000000000000000
310
00000000000000000000000000000000000000000000000000000000000000000000000000000000000000000000000000000000000000000000000000000000000000000000000000000000000000000000000000000000000000000000000000000000000000000000000000000000000000000000000000000000000000
310
00000000000000000000000000000000000000000000000000000000000000000000000000000000000000000000000000000000000000000000000000000000000000000000000000000000000000000000000000000000000000000000000000000000000000000000000000000000000000000000000000000000000000
310
00000000000000000000000000000000000000000000000000000000000000000000000000000000000000000000000000000000000000000000000000000000000000000000000000000000000000000000000000000000000000000000000000000000000000000000000000000000000000000000000000000000000000
310
00000000000000000000000000000000000000000000000000000000000000000000000000000000000000000000000000000000000000000000000000000000000000000000000000000000000000000000000000000000000000000000000000000000000000000000000000000000000000000000000000000000000000
310
00000000000000000000000000000000000000000000000000000000000000000000000000000000000000000000000000000000000000000000000000000000000000000000000000000000000000000000000000000000000000000000000000000000000000000000000000000000000000000000000000000000000000
310
00000000000000000000000000000000000000000000000000000000000000000000000000000000000000000000000000000000000000000000000000000000000000000000000000000000000000000000000000000000000000000000000000000000000000000000000000000000000000000000000000000000000000
310
00000000000000000000000000000000000000000000000000000000000000000000000000000000000000000000000000000000000000000000000000000000000000000000000000000000000000000000000000000000000000000000000000000000000000000000000000000000000000000000000000000000000000
310
00000000000000000000000000000000000000000000000000000000000000000000000000000000000000000000000000000000000000000000000000000000000000000000000000000000000000000000000000000000000000000000000000000000000000000000000000000000000000000000000000000000000000
310
0000000000000000000000000000000000000000000000000000000000000000000000000000000000000000000000000000000000000000000000000000000000000000000000000000000000000000000000BEBEBEBEBEBEBEBEBEBEBEBEBEBEBEBEBEBEBEBEBEBEBEBEBEBEBEBEBEBEBEBEBEBEBEBEBEBEBEBEBEBEBEBE
310
BEBEBEBEBEBEBEBEBEBEBEBEBEBEBEBEBEBEBEBEBEBEBEBEBEBEBEBEBEBEBEBEBEBEBEBEBEBEBE00000000000000000000000000000000000000000000000000000000000000000000000000000000000000000000000000000000000000000000000000000000000000000000000000000000000000000000000000000000
310
00000000000000000000000000000000000000000000000000000000000000000000000000000000000000000000000000000000000000000000000000000000000000000000000000000000000000000000000000BE0000000000000000000000000000000000000000000000000000000000000000000000000000000000
310
00000000000000000000000000000000000000000000000000000000000000000000000000000000BE0000000000000000000000000000000000000000000000000000000000000000000000000000000000000000000000000000000000000000000000000000000000000000000000000000000000000000000000000000
310
000000000000000000000000000000000000000000000000000000000000000000000000000000000000000000000000000000000000000000000000000000000000000000000000000000000000000000000000000000BE000000000000000000000000000000000000000000000000000000000000000000000000000000
310
000000000000000000000000000000000000000000000000000000000000000000000000000000000000BE000000000000000000000000000000000000000000000000000000000000000000000000000000000000000000000000000000000000000000000000000000000000000000000000000000000000000000000000
310
0000000000000000000000000000000000000000000000000000000000000000000000000000000000000000000000000000000000000000000000000000000000000000000000000000000000000000000000000000000000BE00000000000000000000000000000000000000000000000000000000000000000000000000
310
0000000000000000000000000000000000000000000000000000000000000000000000000000000000000000BE00000000000000000000000000000000000000000000000000000000000000000000000000000000000000000000000000000000000000000000000000000000000000000000000000000000000000000000
310
00000000000000000000000000000000000000000000000000000000000000000000000000000000000000000000000000000000000000000000000000000000000000000000000000000000000000000000000000000000000000BE0000000000000000000000000000000000000000000000000000000000000000000000
310
00000000000000000000000000000000000000000000000000000000000000000000000000000000000000000000BE0000000000000000000000000000000000000000000000000000000000000000000000000000000000000000000000000000000000000000000000000000000000000000000000000000000000000000
310
000000000000000000000000000000000000000000000000000000000000000000000000000000000000000000000000000000000000000000000000000000000000000000000000000000000000000000000000000000000000000000BE0000000000000000000000000000000000000000F5F5F5F51B0000000000000000
310
000000000000000000000000000000000000000000000000000000000000000000000000000000000000000000000000BE000000000000000000000000000000000000000000000000000000000000000000000000000000000000000000000000000000000000000000000000000000000000000000000000000000000000
310
0000000000000000000000000000000000000000000000000000000000000000000000000000000000000000000000000000000000000000000000000000000000000000000000000000000000000000000000000000000000000000000000BE000000000000000000000000000000000000000000000000001B0000000000
310
0000000000000000000000000000000000000000000000000000000000000000000000000000000000000000000000000000BE00000000000000000000000000000000000000000000000000000000000000000000000000000000000000000000000000000000000000000000000000000000000000000000000000000000
310
00000000000000000000000000000000000000000000000000000000000000000000000000000000000000000000000000000000000000000000000000000000000000000000000000000000000000000000000000000000000000000000000000BE00000000000000000000000000000000F5F5F5F5F5F5F51B00001B1B00
310
000000000000000000000000001B1B1B1B1B1B1B1B1B1B1B1B1B1B1B1B1B1B000000000000000000000000000000000000000000BE0000000000000000000000000000000000000000000000000000000000000000000000000000000000000000000000000000000000000000000000000000000000000000000000000000
310
000000000000000000000000000000000000000000000000000000000000000000000000000000000000000000000000000000000000000000000000000000000000000000000000000000000000000000000000000000000000000000000000000000BE00000000000000000000000000000000F5F5F5F5F5F5F5001B0000
310
001B000000000000000000000000001B0000000000000000000000000000000000000000000000000000000000000000000000000000BE000000000000000000000000000000000000000000000000000000000000000000000000000000000000000000000000000000000000000000000000000000000000000000000000
310
0000000000000000000000000000000000000000000000000000000000000000000000000000000000000000000000000000000000000000000000000000000000000000000000000000000000000000000000000000000000000000000000000000000000BE00000000000000000000000000000000F5F5F5F5F500000000
310
1B0000001B00000000000000000000001B000000000000000000000000000000000000000000000000000000000000000000000000000000BE00000000000000000000000000000000000000000000000000000000000000000000000000000000000000000000000000000000000000000000000000000000000000000000
310
00000000000000000000000000000000000000000000000000000000000000000000000000000000000000000000000000000000000000000000000000000000000000000000000000000000000000000000000000000000000000000000000000000000000000BE0000000000000000000000000000000000000000000000
310
0000001B0000001B1B00F5F5F500000000001B000000000000001B1B1B1B1B1B1B1B1B1B1B1B1B1B000000000000000000000000000000000000BE0000000000000000000000000000000000000000000000000000000000000000000000000000000000000000000000000000000000000000000000000000000000000000
310
000000000000000000000000000000000000000000000000000000000000000000000000000000000000000000000000000000000000000000000000000000000000000000000000000000000000000000000000000000000000000000000000000000000000000000BE000000000000000000000000000000000000000000
310
0000000000001BF5F5F5F51BF5F5F5F5F5F5F51B00000000000000001BF5F5F5F5F5F5F5F5F5F5F5F500000000000000000000000000000000000000BE000000000000000000000000000000000000000000000000000000000000000000000000000000000000000000000000000000000000000000000000000000000000
310
0000000000000000000000000000000000000000000000000000000000000000000000000000000000000000000000000000000000000000000000000000000000000000000000000000000000000000000000000000000000000000000000000000000000000000000000BE00000000000000000000000000000000000000
310
00000000000000F5F51B1BF5F51B1BF5F5F5F5F5F51BF5F500000000001B0000000000000000000000000000000000000000000000000000000000000000BE00000000000000000000000000000000000000000000000000000000000000000000000000000000000000000000000000000000000000000000000000000000
310
00000000000000000000000000000000000000000000000000000000000000000000000000000000000000000000000000000000000000000000000000000000000000000000000000000000000000000000000000000000000000000000000000000000000000000000000000BE0000000000000000000000000000000000
310
0000000000000000F5F500F5F51BF5F5F5F5F5F5F5F5F51B00F5F5000000001B00001B1B1B1B1B1B1B1B1B1B1B1B1B1B00000000000000000000000000000000BE0000000000000000000000000000000000000000000000000000000000000000000000000000000000000000000000000000000000000000000000000000
310
000000000000000000000000000000000000000000000000000000000000000000000000000000000000000000000000000000000000000000000000000000000000000000000000000000000000000000000000000000000000000000000000000000000000000000000000000000BE000000000000000000000000000000
310
000000000000000000F5F5F5F5F5F5F51BF5F5F5F5F5F5F51BF5F5F5F5F500001B00001BF5F5F5F5F5F5F5F5F5F5F5F5000000000000000000000000000000000000BE000000000000000000000000000000000000000000000000000000000000000000000000000000000000000000000000000000000000000000000000
310
0000000000000000000000000000000000000000000000000000000000000000000000000000000000000000000000000000000000000000000000000000000000000000000000000000000000000000000000000000000000000000000000000000000000000000000000000000000000BE00000000000000000000000000
310
00000000000000000000F5F5F5F5F5F5F5F5F51BF5F5F5F5F5F51BF5F5F5F5F5F5001B00001BF5F5F5F5F5F5F5F5F5F5F5F5F5F5F5F50000000000000000000000000000BE00000000000000000000000000000000000000000000000000000000000000000000000000000000000000000000000000000000000000000000
310
00000000000000000000000000000000000000000000000000000000000000000000000000000000000000000000000000000000000000000000000000000000000000000000000000000000000000000000000000000000000000000000000000000000000000000000000000000000000000BE0000000000000000000000
310
0000000000000000000000F5F5F5F5F5F5F5F5F5F5F51BF5F5F5F51BF5F5F5F5F5F5F51B00001B00F5F5F5F5F5F5F5F5F5F5F5F5F5F5F5F5F5F5F5F500000000000000000000BE0000000000000000000000000000000000000000000000000000000000000000000000000000000000000000000000000000000000000000
310
000000000000000000000000000000000000000000000000000000000000000000000000000000000000000000000000000000000000000000000000000000000000000000000000000000000000000000000000000000000000000000000000000000000000000000000000000000000000000000BE000000000000000000
310
000000000000000000000000F5F5F500F5000000000000F51B0000F5F51B000000000000001BF51B0000F5F5F5F5F5F5F5F5F5F5F5F5F5F5F5F5F5F5F5F500000000000000000000BE000000000000000000000000000000000000000000000000000000000000000000000000000000000000000000000000000000000000
310
0000000000000000000000000000000000000000000000000000000000000000000000000000000000000000000000000000000000000000000000000000000000000000000000000000000000000000000000000000000000000000000000000000000000000000000000000000000000000000000000BE00000000000000
310
00000000000000000000000000F5F5F5F500F5F5F5F5F5F5F5F5F5F5F5F5F5F5F5F5F5F5F5F5F5F5F5F50000000000000000000000000000000000000000000000000000000000000000BE00000000000000000000000000000000000000000000000000000000000000000000000000000000000000000000000000000000
310
00000000000000000000000000000000000000000000000000000000000000000000000000000000000000000000000000000000000000000000000000000000000000000000000000000000000000000000000000000000000000000000000000000000000000000000000000000000000000000000000000BE0000000000
310
000000000000000000000000000000F50000F500F5F5F5F5F500F5F5F5F5F500F5F5F5F5F5F5F5F5F5F51BF50000000000000000000000000000000000000000000000000000000000000000BE0000000000000000000000000000000000000000000000000000000000000000000000000000000000000000000000000000
310
000000000000000000000000000000000000000000000000000000000000000000000000000000000000000000000000000000000000000000000000000000000000000000000000000000000000000000000000000000000000000000000000000000000000000000000000000000000000000000000000000000BE000000
310
00000000000000000000000000000000F5F5F5F5F500F5F500F5F5F5F5F500F5F5F5F5F500F5F5F5F5F500F5F5F5F500000000000000000000000000000000000000000000000000000000000000BE000000000000000000000000000000000000000000000000000000000000000000000000000000000000000000000000
310
0000000000000000000000000000000000000000000000000000000000000000000000000000000000000000000000000000000000000000000000000000000000000000000000000000000000000000000000000000000000000000000000000000000000000000000000000000000000000000000000000000000000BE00
310
000000000000000000000000000000000000F500F5F5F500F5F5F5F5F5F5F5F5F5F5F5F5F5F5F5F5F5F5F5F5F5F5F5F5F51B1B1B1B1B1B1B1B1B1B1B1B1B1B1B00000000000000000000000000000000BE00000000000000000000000000000000000000000000000000000000000000000000000000000000000000000000
310
00000000000000000000000000000000000000000000000000000000000000000000000000000000000000000000000000000000000000000000000000000000000000000000000000000000000000000000000000000000000000000000000000000000000000000000000000000000000000000000000000000000000000
310
BE000000000000000000000000000000000000F5F5F5F5F5F500F5F5F5F5F5F5F5F5F5F5F5F5F5F5F5F5F5F51BF5F5F5F5F5F5F5F5F5F5F5F5F5F5F5F50000F5F5F5F5F50000000000000000000000000000BE0000000000000000000000000000000000000000000000000000000000000000000000000000000000000000
310
00000000000000000000000000000000000000000000000000000000000000000000000000000000000000000000000000000000000000000000000000000000000000000000000000000000000000000000000000000000000000000000000000000000000000000000000000000000000000000000000000000000000000
310
0000BE000000000000000000000000000000000000F5F5F5F5F5F500F5F5F5F5F5F5F5F5F5F5F5F5F5F5F5F5F5F5F51B1B1B1B1B1B1B1B1B1B1B1B1B1B1B1B0000F5F5F5F5F50000000000000000000000000000BE000000000000000000000000000000000000000000000000000000000000000000000000000000000000
310
00000000000000000000000000000000000000000000000000000000000000000000000000000000000000000000000000000000000000000000000000000000000000000000000000000000000000000000000000000000000000000000000000000000000000000000000000000000000000000000000000000000000000
310
00000000BE000000000000000000000000000000000000F5F5000000F500F5F5F5F5F5F5F5F5F5F5F5F5F5F5F5F5F5F5F5F5F5F5F5F5F5F5F5F5F5F5F5F5F5000000F5F5F5F5F5F5F5F5F5F500000000000000000000BE00000000000000000000000000000000000000000000000000000000000000000000000000000000
310
00000000000000000000000000000000000000000000000000000000000000000000000000000000000000000000000000000000000000000000000000000000000000000000000000000000000000000000000000000000000000000000000000000000000000000000000000000000000000000000000000000000000000
310
000000000000BE000000000000000000000000000000000000F5F5F5F5F5F500F5F5F5F5F5F5F5F5F5F5F5F5F5F5F5F5F5F5F5F5F5F5F5F5F5F5F5F5F5F5F5F5F50000000000000000000000000000000000000000000000BE0000000000000000000000000000000000000000000000000000000000000000000000000000
310
00000000000000000000000000000000000000000000000000000000000000000000000000000000000000000000000000000000000000000000000000000000000000000000000000000000000000000000000000000000000000000000000000000000000000000000000000000000000000000000000000000000000000
310
0000000000000000BE000000000000000000000000000000000000F50000F5F5F5001B1BF5F5F5F5F5F5F5F5F5F5F5F5F5F5F5F5F5F5F5F5F5F5F5F5000000000000000000000000000000000000000000000000000000000000BE000000000000000000000000000000000000000000000000000000000000000000000000
310
00000000000000000000000000000000000000000000000000000000000000000000000000000000000000000000000000000000000000000000000000000000000000000000000000000000000000000000000000000000000000000000000000000000000000000000000000000000000000000000000000000000000000
310
00000000000000000000BE000000000000000000000000000000000000F5F5F5F5F5F500F5F51B1B1BF5F5F5F5F5F5F5F5F5F5F5F5F5F5F5F5F5F5F5F5F51B1B1B1B1B1B1B1B1B1B1B1B1B1B00000000000000000000000000000000BE00000000000000000000000000000000000000000000000000000000000000000000
310
00000000000000000000000000000000000000000000000000000000000000000000000000000000000000000000000000000000000000000000000000000000000000000000000000000000000000000000000000000000000000000000000000000000000000000000000000000000000000000000000000000000000000
310
000000000000000000000000BE000000000000000000000000000000000000F5F5000000F500F5F5F5F5F51B1B1BF5F5F5F5F5F5F5F5F5F5F5F5F51B1BF5F5F5000000000000000000000000000000000000000000000000000000000000BE0000000000000000000000000000000000000000000000000000000000000000
310
00000000000000000000000000000000000000000000000000000000000000000000000000000000000000000000000000000000000000000000000000000000000000000000000000000000000000000000000000000000000000000000000000000000000000000000000000000000000000000000000000000000000000
310
0000000000000000000000000000BE000000000000000000000000000000000000F5F5F5F5F5F500F5F5F5F5000000001B1B1B00F5F50000000000000000001B1B1B1B1B1B1B1B1B1B1B1B1B0000000000000000000000000000000000000000BE000000000000000000000000000000000000000000000000000000000000
310
00000000000000000000000000000000000000000000000000000000000000000000000000000000000000000000000000000000000000000000000000000000000000000000000000000000000000000000000000000000000000000000000000000000000000000000000000000000000000000000000000000000000000
310
00000000000000000000000000000000BE00000000000000000000000000000000000000F500F5F5F500F5F50000F5F5F5F5F5F5F51B1BF5F5F50000000000000000F5F5F5F5F5F5F5F5F5F5F5000000000000000000000000000000000000000000BE00000000000000000000000000000000000000000000000000000000
310
00000000000000000000000000000000000000000000000000000000000000000000000000000000000000000000000000000000000000000000000000000000000000000000000000000000000000000000000000000000000000000000000000000000000000000000000000000000000000000000000000000000000000
310
000000000000000000000000000000000000BE00000000000000000000000000000000000000F5F5F5F5F500F5F500000000F5F500000000001B1B1BF5F500000000000000F5000000000000000000000000000000000000000000000000000000000000BE0000000000000000000000000000000000000000000000000000
310
00000000000000000000000000000000000000000000000000000000000000000000000000000000000000000000000000000000000000000000000000000000000000000000000000000000000000000000000000000000000000000000000000000000000000000000000000000000000000000000000000000000000000
310
0000000000000000000000000000000000000000BE00000000000000000000000000000000000000F5F5F5F5F500F5F5000000000000F5F50000000000001B1B1BF500000000F500000000000000000000000000000000000000000000000000000000000000BE000000000000000000000000000000000000000000000000
310
00000000000000000000000000000000000000000000000000000000000000000000000000000000000000000000000000000000000000000000000000000000000000000000000000000000000000000000000000000000000000000000000000000000000000000000000000000000000000000000000000000000000000
310
00000000000000000000000000000000000000000000BE0000000000000000000000000000000000000000F50000F500F5F50000000000000000F5F5000000000000001B1B1B00F50000000000000000000000000000000000000000000000000000000000000000BE00000000000000000000000000000000000000000000
310
00000000000000000000000000000000000000000000000000000000000000000000000000000000000000000000000000000000000000000000000000000000000000000000000000000000000000000000000000000000000000000000000000000000000000000000000000000000000000000000000000000000000000
310
000000000000000000000000000000000000000000000000BE0000000000000000000000000000000000000000F5F5F5F5001BF500000000000000000000F5F50000F5F5F5F5F5F51B1B1B1B1B1B1B1B1B1B1B1B1B1B1B1B1B1B1B1B1B1B1B1B00000000000000000000BE0000000000000000000000000000000000000000
310
00000000000000000000000000000000000000000000000000000000000000000000000000000000000000000000000000000000000000000000000000000000000000000000000000000000000000000000000000000000000000000000000000000000000000000000000000000000000000000000000000000000000000
310
0000000000000000000000000000000000000000000000000000BE0000000000000000000000000000000000000000F5F5F5F500F51B1B0000000000000000000000F5F5F5F5F5F5F5F5F5F5F5F5F5F5F5F5F5F5F5F5F5F5F5F5F5F5F5F5F5F5F50000000000000000000000BE000000000000000000000000000000000000
310
00000000000000000000000000000000000000000000000000000000000000000000000000000000000000000000000000000000000000000000000000000000000000000000000000000000000000000000000000000000000000000000000000000000000000000000000000000000000000000000000000000000000000
310
00000000000000000000000000000000000000000000000000000000BE000000000000000000000000000000000000000000F5F5F500F5F5001B000000000000000000000000F5F500000000F5000000000000000000000000000000000000000000000000000000000000000000BE00000000000000000000000000000000
310
00000000000000000000000000000000000000000000000000000000000000000000000000000000000000000000000000000000000000000000000000000000000000000000000000000000000000000000000000000000000000000000000000000000000000000000000000000000000000000000000000000000000000
310
000000000000000000000000000000000000000000000000000000000000BE00000000000000000000000000000000000000000000F5F500F5F500001B00000000000000000000000000F5F5F5F500000000000000000000000000000000000000000000000000000000000000000000BE0000000000000000000000000000
310
00000000000000000000000000000000000000000000000000000000000000000000000000000000000000000000000000000000000000000000000000000000000000000000000000000000000000000000000000000000000000000000000000000000000000000000000000000000000000000000000000000000000000
310
0000000000000000000000000000000000000000000000000000000000000000BE0000000000000000000000000000000000000000000000F500F500F5F5001B1B00000000000000000000F5F500F50000000000000000000000000000000000000000000000000000000000000000000000BE000000000000000000000000
310
00000000000000000000000000000000000000000000000000000000000000000000000000000000000000000000000000000000000000000000000000000000000000000000000000000000000000000000000000000000000000000000000000000000000000000000000000000000000000000000000000000000000000
310
00000000000000000000000000000000000000000000000000000000000000000000BE000000000000000000000000000000000000000000000000F5F5000000F5F5F51B000000000000000000F500F5000000000000000000000000000000000000000000000000000000000000000000000000BE00000000000000000000
310
00000000000000000000000000000000000000000000000000000000000000000000000000000000000000000000000000000000000000000000000000000000000000000000000000000000000000000000000000000000000000000000000000000000000000000000000000000000000000000000000000000000000000
310
000000000000000000000000000000000000000000000000000000000000000000000000BE00000000000000000000000000000000000000000000000000F5F50000000000F51BF500000000000000F5F500000000000000000000000000000000000000000000000000000000000000000000000000BE0000000000000000
310
00000000000000000000000000000000000000000000000000000000000000000000000000000000000000000000000000000000000000000000000000000000000000000000000000000000000000000000000000000000000000000000000000000000000000000000000000000000000000000000000000000000000000
310
0000000000000000000000000000000000000000000000000000000000000000000000000000BE000000000000000000000000000000000000000000000000000000F5F500000000001B1BF5000000F5F5F50000000000000000000000000000000000000000000000000000000000000000000000000000BE000000000000
310
00000000000000000000000000000000000000000000000000000000000000000000000000000000000000000000000000000000000000000000000000000000000000000000000000000000000000000000000000000000000000000000000000000000000000000000000000000000000000000000000000000000000000
310
00000000000000000000000000000000000000000000000000000000000000000000000000000000BE0000000000000000000000000000000000000000000000000000000000F5F5F5F5F5F5F51BF5F5F50000000000000000000000000000000000000000000000000000000000000000000000000000000000BE00000000
310
00000000000000000000000000000000000000000000000000000000000000000000000000000000000000000000000000000000000000000000000000000000000000000000000000000000000000000000000000000000000000000000000000000000000000000000000000000000000000000000000000000000000000
310
000000000000000000000000000000000000000000000000000000000000000000000000000000000000BE000000000000000000000000000000000000000000000000000000000000000000000000001B1B1B1B1B1B1B00000000000000000000000000000000000000000000000000000000000000000000000000BE0000
310
00000000000000000000000000000000000000000000000000000000000000000000000000000000000000000000000000000000000000000000000000000000000000000000000000000000000000000000000000000000000000000000000000000000000000000000000000000000000000000000000000000000000000
310
0000000000000000000000000000000000000000000000000000000000000000000000000000000000000000BE000000000000000000000000000000000000000000000000000000000000000000000000000000000000000000000000000000000000000000000000000000000000000000000000000000000000000000BE
310
00000000000000000000000000000000000000000000000000000000000000000000000000000000000000000000000000000000000000000000000000000000000000000000000000000000000000000000000000000000000000000000000000000000000000000000000000000000000000000000000000000000000000
310
00000000000000000000000000000000000000000000000000000000000000000000000000000000000000000000BE0000000000000000000000000000000000000000000000000000000000000000000000000000000000000000000000000000000000000000000000000000000000000000000000000000000000000000
310
00BE0000000000000000000000000000000000000000000000000000000000000000000000000000000000000000000000000000000000000000000000000000000000000000000000000000000000000000000000000000000000000000000000000000000000000000000000000000000000000000000000000000000000
310
000000000000000000000000000000000000000000000000000000000000000000000000000000000000000000000000BE000000000000000000000000000000000000000000000000000000000000000000000000000000000000000000000000000000000000000000000000000000000000000000000000000000000000
310
000000BE000000000000000000000000000000000000000000000000000000000000000000000000000000000000000000000000000000000000000000000000000000000000000000000000000000000000000000000000000000000000000000000000000000000000000000000000000000000000000000000000000000
310
0000000000000000000000000000000000000000000000000000000000000000000000000000000000000000000000000000BE00000000000000000000000000000000000000000000000000000000000000000000000000000000000000000000000000000000000000000000000000000000000000000000000000000000
310
0000000000BE00000000000000000000000000000000000000000000000000000000000000000000000000000000000000000000000000000000000000000000000000000000000000000000000000000000000000000000000000000000000000000000000000000000000000000000000000000000000000000000000000
310
00000000000000000000000000000000000000000000000000000000000000000000000000000000000000000000000000000000BE00000000000000000000F5F5F5F5F5F5F5F5F5F5F5F5F5F5F5F5F5F5F5F5F5F5F5F5F5F5F5F5F5F5F5F5F5F5F5F5F5F5F5F5F5F5F5F5F5F5F5F5F5F5F5F5F5F5F5F50000000000000000
310
00000000000000BE0000000000000000000000000000000000000000000000000000000000000000000000000000000000000000000000000000000000000000000000000000000000000000000000000000000000000000000000000000000000000000000000000000000000000000000000000000000000000000000000
310
000000000000000000000000000000000000000000000000000000000000000000000000000000000000000000000000000000000000BE00000000000000000000F5F5F5F5F5F5F5F5F5F5F5F5F5F5F5F5F5F5F5F5F5F5F5F5F5F5F5F5F5F5F5F5F5F5F5F5F5F5F5F5F5F5F5F5F5F5F5F5F5F5F5F5F5F5F5F5000000000000
310
000000000000000000BE000000000000000000000000000000000000000000000000000000000000000000000000000000000000000000000000000000000000000000000000000000000000000000000000000000000000000000000000000000000000000000000000000000000000000000000000000000000000000000
310
0000000000000000000000000000000000000000000000000000000000000000000000000000000000000000000000000000000000000000BE00000000000000000000F5F5F5F5F5F5F5F5F5F5F5F5F5F5F5F5F5F5F5F5F5F5F5F5F5F5F5F5F5F5F5F5F5F5F5F5F5F5F5F5F5F5F5F5F5F5F5F5F5F5F5F5F5F5F5F500000000
310
0000000000000000000000BE00000000000000000000000000000000000000000000000000000000000000000000000000000000000000000000000000000000000000000000000000000000000000000000000000000000000000000000000000000000000000000000000000000000000000000000000000000000000000
310
00000000000000000000000000000000000000000000000000000000000000000000000000000000000000000000000000000000000000000000BE0000000000000000000000000000000000000000000000000000000000000000000000000000000000000000000000000000000000000000000000000000000000000000
310
00000000000000000000000000BE0000000000000000000000000000000000000000000000000000000000000000000000000000000000000000000000000000000000000000000000000000000000000000000000000000000000000000000000000000000000000000000000000000000000000000000000000000000000
310
000000000000000000000000000000000000000000000000000000000000000000000000000000000000000000000000000000000000000000000000BE000000000000000000000000000000000000000000000000000000000000000000000000000000000000000000000000000000000000000000000000000000000000
310
000000000000000000000000000000BE000000000000000000000000000000000000000000000000000000000000000000000000000000000000000000000000000000000000000000000000000000000000000000000000000000000000000000000000000000000000000000000000000000000000000000000000000000
310
0000000000000000000000000000000000000000000000000000000000000000000000000000000000000000000000000000000000000000000000000000BE00000000000000000000000000000000000000000000000000000000000000000000000000000000000000000000000000000000000000000000000000000000
310
0000000000000000000000000000000000BE00000000000000000000000000000000000000000000000000000000000000000000000000000000000000000000000000000000000000000000000000000000000000000000000000000000000000000000000000000000000000000000000000000000000000000000000000
310
00000000000000000000000000000000000000000000000000000000000000000000000000000000000000000000000000000000000000000000000000000000BE0000000000000000000000000000000000000000000000000000000000000000000000000000000000000000000000000000000000000000000000000000
310
00000000000000000000000000000000000000BE0000000000000000000000000000000000000000000000000000000000000000000000000000000000000000000000000000000000000000000000000000000000000000000000000000000000000000000000000000000000000000000000000000000000000000000000
310
000000000000000000000000000000000000000000000000000000000000000000000000000000000000000000000000000000000000000000000000000000000000BE000000000000000000000000000000000000000000000000000000000000000000000000000000000000000000000000000000000000000000000000
310
000000000000000000000000000000000000000000BE000000000000000000000000000000000000000000000000000000000000000000000000000000000000000000000000000000000000000000000000000000000000000000000000000000000000000000000000000000000000000000000000000000000000000000
310
0000000000000000000000000000000000000000000000000000000000000000000000000000000000000000000000000000000000000000000000000000000000000000BE00000000000000000000000000000000000000000000000000000000000000000000000000000000000000000000000000000000000000000000
310
0000000000000000000000000000000000000000000000BE00000000000000000000000000000000000000000000000000000000000000000000000000000000000000000000000000000000000000000000000000000000000000000000000000000000000000000000000000000000000000000000000000000000000000
310
00000000000000000000000000000000000000000000000000000000000000000000000000000000000000000000000000000000000000000000000000000000000000000000BEBEBEBEBEBEBEBEBEBEBEBEBEBEBEBEBEBEBEBEBEBEBEBEBEBEBEBEBEBEBEBEBEBEBEBEBEBEBEBEBEBEBEBEBEBEBEBEBEBEBEBEBEBEBEBEBE
310
BEBEBEBEBEBEBEBEBEBEBEBEBEBEBEBEBEBEBEBEBEBEBEBEBEBE0000000000000000000000000000000000000000000000000000000000000000000000000000000000000000000000000000000000000000000000000000000000000000000000000000000000000000000000000000000000000000000000000000000000
310
00000000000000000000000000000000000000000000000000000000000000000000000000000000000000000000000000000000000000000000000000000000000000000000000000000000000000000000000000000000000000000000000000000000000000000000000000000000000000000000000000000000000000
310
00000000000000000000000000000000000000000000000000000000000000000000000000000000000000000000000000000000000000000000000000000000000000000000000000000000000000000000000000000000000000000000000000000000000000000000000000000000000000000000000000000000000000
310
00000000000000000000000000000000000000000000000000000000000000000000000000000000000000000000000000000000000000000000000000000000000000000000000000000000000000000000000000000000000000000000000000000000000000000000000000000000000000000000000000000000000000
310
00000000000000000000000000000000000000000000000000000000000000000000000000000000000000000000000000000000000000000000000000000000000000000000000000000000000000000000000000000000000000000000000000000000000000000000000000000000000000000000000000000000000000
310
00000000000000000000000000000000000000000000000000000000000000000000000000000000000000000000000000000000000000000000000000000000000000000000000000000000000000000000000000000000000000000000000000000000000000000000000000000000000000000000000000000000000000
310
00000000000000000000000000000000000000000000000000000000000000000000000000000000000000000000000000000000000000000000000000000000000000000000000000000000000000000000000000000000000000000000000000000000000000000000000000000000000000000000000000000000000000
310
00000000000000000000000000000000000000000000000000000000000000000000000000000000000000000000000000000000000000000000000000000000000000000000000000000000000000000000000000000000000000000000000000000000000000000000000000000000000000000000000000000000000000
310
00000000000000000000000000000000000000000000000000000000000000000000000000000000000000000000000000000000000000000000000000000000000000000000000000000000000000000000000000000000000000000000000000000000000000000000000000000000000000000000000000000000000000
310
00000000000000000000000000000000000000000000000000000000000000000000000000000000000000000000000000000000000000000000000000000000000000000000000000000000000000000000000000000000000000000000000000000000000000000000000000000000000000000000000000000000000000
310
00000000000000000000000000000000000000000000000000000000000000000000000000000000000000000000000000000000000000000000000000000000000000000000000000000000000000000000000000000000000000000000000000000000000000000000000000000000000000000000000000000000000000
310
00000000000000000000000000000000000000000000000000000000000000000000000000000000000000000000000000000000000000000000000000000000000000000000000000000000000000000000000000000000000000000000000000000000000000000000000000000000000000000000000000000000000000
310
00000000000000000000000000000000000000000000000000000000000000000000000000000000000000000000000000000000000000000000000000000000000000000000000000000000000000000000000000000000000000000000000000000000000000000000000000000000000000000000000000000000000000
310
00000000000000000000000000000000000000000000000000000000000000000000000000000000000000000000000000000000000000000000000000000000000000000000000000000000000000000000000000000000000000000000000000000000000000000000000000000000000000000000000000000000000000
310
00000000000000000000000000000000000000000000000000000000000000000000000000000000000000000000000000000000000000000000000000000000000000000000000000000000000000000000000000000000000000000000000000000000000000000000000000000000000000000000000000000000000000
310
00000000000000000000000000000000000000000000000000000000000000000000000000000000000000000000000000000000000000000000000000000000000000000000000000000000000000000000000000000000000000000000000000000000000000000000000000000000000000000000000000000000000000
310
00000000000000000000000000000000000000000000000000000000000000000000000000000000000000000000000000000000000000000000000000000000000000000000000000000000000000000000000000000000000000000000000000000000000000000000000000000000000000000000000000000000000000
310
00000000000000000000000000000000000000000000000000000000000000000000000000000000000000000000000000000000000000000000000000000000000000000000000000000000000000000000000000000000000000000000000000000000000000000000000000000000000000000000000000000000000000
310
00000000000000000000000000000000000000000000000000000000000000000000000000000000000000000000000000000000000000000000000000000000000000000000000000000000000000000000000000000000000000000000000000000000000000000000000000000000000000000000000000
  0
XRECORD
  5
1883A
102
{ACAD_REACTORS
330
18839
102
}
330
18839
100
AcDbXrecord
280
     1
102
MATERIAL
148
0.0
149
0.0
149
0.0
 93
        0
 94
       63
282
     0
 72
     1
 77
     1
171
     1
175
     1
179
     1
273
     0
  0
XRECORD
  5
1883C
102
{ACAD_REACTORS
330
1883B
102
}
330
1883B
100
AcDbXrecord
280
     1
102
MATERIAL
148
0.0
149
0.0
149
0.0
 93
        0
 94
       63
282
     0
 72
     1
 77
     1
171
     1
175
     1
179
     1
273
     0
  0
XRECORD
  5
1883E
102
{ACAD_REACTORS
330
1883D
102
}
330
1883D
100
AcDbXrecord
280
     1
102
MATERIAL
148
0.0
149
0.0
149
0.0
 93
        0
 94
       63
282
     0
 72
     1
 77
     1
171
     1
175
     1
179
     1
273
     0
  0
XRECORD
  5
18840
102
{ACAD_REACTORS
330
1883F
102
}
330
1883F
100
AcDbXrecord
280
     1
102
ACAD_ROUNDTRIP_2010_MLEADER_STYLE
  0
XRECORD
  5
18841
102
{ACAD_REACTORS
330
187CD
102
}
330
187CD
100
AcDbXrecord
280
     1
102
DISPLAYNAME
  1
Imperial24
102
FLAGS
 90
        0
  0
XRECORD
  5
18842
102
{ACAD_REACTORS
330
187C9
102
}
330
187C9
100
AcDbXrecord
280
     1
102
DISPLAYNAME
  1
Metric50
102
FLAGS
 90
        0
  0
XRECORD
  5
18844
102
{ACAD_REACTORS
330
18843
102
}
330
18843
100
AcDbXrecord
280
     1
102
RTVSPropertyOp0
 70
     1
102
RTVSPropertyOp1
 70
     1
102
RTVSPropertyOp2
 70
     1
102
RTVSPropertyOp3
 70
     1
102
RTVSPropertyOp4
 70
     1
102
RTVSPropertyOp5
 70
     1
102
RTVSPropertyOp6
 70
     1
102
RTVSPropertyOp7
 70
     1
102
RTVSPropertyOp8
 70
     1
102
RTVSPropertyOp9
 70
     1
102
RTVSPropertyOp10
 70
     1
102
RTVSPropertyOp11
 70
     1
102
RTVSPropertyOp12
 70
     1
102
RTVSPropertyOp13
 70
     1
102
RTVSPropertyOp14
 70
     1
102
RTVSPropertyOp15
 70
     1
102
RTVSPropertyOp16
 70
     1
102
RTVSPropertyOp17
 70
     1
102
RTVSPropertyOp18
 70
     1
102
RTVSPropertyOp19
 70
     1
102
RTVSPropertyOp20
 70
     1
102
RTVSPropertyOp21
 70
     1
102
RTVSPropertyOp22
 70
     1
102
RTVSPropertyOp23
 70
     1
102
RTVSPropertyOp24
 70
     1
102
RTVSPropertyOp25
 70
     1
102
RTVSPropertyOp26
 70
     1
102
RTVSPropertyOp27
 70
     1
102
RTVSPropertyOp28
 70
     1
102
RTVSPropertyOp29
 70
     1
102
RTVSPropertyOp30
 70
     1
102
RTVSPropertyOp31
 70
     1
102
RTVSPropertyOp32
 70
     1
102
RTVSPropertyOp33
 70
     1
102
RTVSPropertyOp34
 70
     1
102
RTVSPropertyOp35
 70
     1
102
RTVSPropertyOp36
 70
     1
102
RTVSPropertyOp37
 70
     1
102
RTVSPropertyOp38
 70
     1
102
RTVSPropertyOp39
 70
     1
102
RTVSPropertyOp40
 70
     1
102
RTVSPropertyOp41
 70
     1
102
RTVSPropertyOp42
 70
     1
102
RTVSPropertyOp43
 70
     1
102
RTVSPropertyOp44
 70
     1
102
RTVSPropertyOp45
 70
     1
102
RTVSPropertyOp46
 70
     1
102
RTVSPropertyOp47
 70
     1
102
RTVSPropertyOp48
 70
     1
102
RTVSPropertyOp49
 70
     1
102
RTVSPropertyOp50
 70
     1
102
RTVSPropertyOp51
 70
     0
102
RTVSPropertyOp52
 70
     0
102
RTVSPropertyOp53
 70
     1
102
RTVSPropertyOp54
 70
     1
102
RTVSPropertyOp55
 70
     1
102
RTVSPropertyOp56
 70
     1
102
RTVSPropertyOp57
 70
     1
102
RTVSPost2010Prop28
280
     1
102
RTVSPost2010PropOp28
 70
     1
102
RTVSPost2010Prop29
280
     1
102
RTVSPost2010PropOp29
 70
     1
102
RTVSPost2010Prop30
280
     0
102
RTVSPost2010PropOp30
 70
     1
102
RTVSPost2010Prop31
280
     0
102
RTVSPost2010PropOp31
 70
     1
102
RTVSPost2010Prop32
280
     0
102
RTVSPost2010PropOp32
 70
     1
102
RTVSPost2010Prop33
280
     0
102
RTVSPost2010PropOp33
 70
     1
102
RTVSPost2010Prop34
280
     0
102
RTVSPost2010PropOp34
 70
     1
102
RTVSPost2010Prop35
280
     0
102
RTVSPost2010PropOp35
 70
     1
102
RTVSPost2010Prop36
280
     0
102
RTVSPost2010PropOp36
 70
     1
102
RTVSPost2010Prop37
 90
       50
102
RTVSPost2010PropOp37
 70
     1
102
RTVSPost2010Prop38
140
0.0
102
RTVSPost2010PropOp38
 70
     1
102
RTVSPost2010Prop39
140
1.0
102
RTVSPost2010PropOp39
 70
     1
102
RTVSPost2010Prop40
 90
        0
102
RTVSPost2010PropOp40
 70
     1
102
RTVSPost2010Prop41ColorIndex
 90
       18
102
RTVSPost2010Prop41ColorRGB
 90
        0
102
RTVSPost2010PropOp41
 70
     1
102
RTVSPost2010Prop42
 90
       50
102
RTVSPost2010PropOp42
 70
     1
102
RTVSPost2010Prop43
 90
        3
102
RTVSPost2010PropOp43
 70
     1
102
RTVSPost2010Prop44ColorIndex
 90
        5
102
RTVSPost2010Prop44ColorRGB
 90
      255
102
RTVSPost2010PropOp44
 70
     1
102
RTVSPost2010Prop45
280
     0
102
RTVSPost2010PropOp45
 70
     1
102
RTVSPost2010Prop46
 90
       50
102
RTVSPost2010PropOp46
 70
     1
102
RTVSPost2010Prop47
 90
       50
102
RTVSPost2010PropOp47
 70
     1
102
RTVSPost2010Prop48
 90
       50
102
RTVSPost2010PropOp48
 70
     1
102
RTVSPost2010Prop49
280
     0
102
RTVSPost2010PropOp49
 70
     1
102
RTVSPost2010Prop50
 90
       50
102
RTVSPost2010PropOp50
 70
     1
102
RTVSPost2010Prop51ColorIndex
 90
      256
102
RTVSPost2010Prop51ColorRGB
 90
-16777216
102
RTVSPost2010PropOp51
 70
     0
102
RTVSPost2010Prop52
140
1.0
102
RTVSPost2010PropOp52
 70
     0
102
RTVSPost2010Prop53
 90
        2
102
RTVSPost2010PropOp53
 70
     1
102
RTVSPost2010Prop54
  1
strokes_ogs.tif
102
RTVSPost2010PropOp54
 70
     1
102
RTVSPost2010Prop55
280
     0
102
RTVSPost2010PropOp55
 70
     1
102
RTVSPost2010Prop56
140
1.0
102
RTVSPost2010PropOp56
 70
     1
102
RTVSPost2010Prop57
140
1.0
102
RTVSPost2010PropOp57
 70
     1
  0
XRECORD
  5
18846
102
{ACAD_REACTORS
330
18845
102
}
330
18845
100
AcDbXrecord
280
     1
102
RTVSPropertyOp0
 70
     1
102
RTVSPropertyOp1
 70
     1
102
RTVSPropertyOp2
 70
     1
102
RTVSPropertyOp3
 70
     1
102
RTVSPropertyOp4
 70
     1
102
RTVSPropertyOp5
 70
     1
102
RTVSPropertyOp6
 70
     1
102
RTVSPropertyOp7
 70
     1
102
RTVSPropertyOp8
 70
     1
102
RTVSPropertyOp9
 70
     1
102
RTVSPropertyOp10
 70
     1
102
RTVSPropertyOp11
 70
     1
102
RTVSPropertyOp12
 70
     1
102
RTVSPropertyOp13
 70
     1
102
RTVSPropertyOp14
 70
     1
102
RTVSPropertyOp15
 70
     1
102
RTVSPropertyOp16
 70
     1
102
RTVSPropertyOp17
 70
     1
102
RTVSPropertyOp18
 70
     1
102
RTVSPropertyOp19
 70
     1
102
RTVSPropertyOp20
 70
     1
102
RTVSPropertyOp21
 70
     1
102
RTVSPropertyOp22
 70
     1
102
RTVSPropertyOp23
 70
     1
102
RTVSPropertyOp24
 70
     1
102
RTVSPropertyOp25
 70
     1
102
RTVSPropertyOp26
 70
     1
102
RTVSPropertyOp27
 70
     1
102
RTVSPropertyOp28
 70
     1
102
RTVSPropertyOp29
 70
     1
102
RTVSPropertyOp30
 70
     1
102
RTVSPropertyOp31
 70
     1
102
RTVSPropertyOp32
 70
     1
102
RTVSPropertyOp33
 70
     1
102
RTVSPropertyOp34
 70
     1
102
RTVSPropertyOp35
 70
     1
102
RTVSPropertyOp36
 70
     1
102
RTVSPropertyOp37
 70
     1
102
RTVSPropertyOp38
 70
     1
102
RTVSPropertyOp39
 70
     1
102
RTVSPropertyOp40
 70
     1
102
RTVSPropertyOp41
 70
     1
102
RTVSPropertyOp42
 70
     1
102
RTVSPropertyOp43
 70
     1
102
RTVSPropertyOp44
 70
     1
102
RTVSPropertyOp45
 70
     1
102
RTVSPropertyOp46
 70
     1
102
RTVSPropertyOp47
 70
     1
102
RTVSPropertyOp48
 70
     1
102
RTVSPropertyOp49
 70
     1
102
RTVSPropertyOp50
 70
     1
102
RTVSPropertyOp51
 70
     0
102
RTVSPropertyOp52
 70
     0
102
RTVSPropertyOp53
 70
     1
102
RTVSPropertyOp54
 70
     1
102
RTVSPropertyOp55
 70
     1
102
RTVSPropertyOp56
 70
     1
102
RTVSPropertyOp57
 70
     1
102
RTVSPost2010Prop28
280
     0
102
RTVSPost2010PropOp28
 70
     1
102
RTVSPost2010Prop29
280
     1
102
RTVSPost2010PropOp29
 70
     1
102
RTVSPost2010Prop30
280
     1
102
RTVSPost2010PropOp30
 70
     1
102
RTVSPost2010Prop31
280
     0
102
RTVSPost2010PropOp31
 70
     1
102
RTVSPost2010Prop32
280
     0
102
RTVSPost2010PropOp32
 70
     1
102
RTVSPost2010Prop33
280
     0
102
RTVSPost2010PropOp33
 70
     1
102
RTVSPost2010Prop34
280
     0
102
RTVSPost2010PropOp34
 70
     1
102
RTVSPost2010Prop35
280
     0
102
RTVSPost2010PropOp35
 70
     1
102
RTVSPost2010Prop36
280
     0
102
RTVSPost2010PropOp36
 70
     1
102
RTVSPost2010Prop37
 90
       50
102
RTVSPost2010PropOp37
 70
     1
102
RTVSPost2010Prop38
140
0.0
102
RTVSPost2010PropOp38
 70
     1
102
RTVSPost2010Prop39
140
1.0
102
RTVSPost2010PropOp39
 70
     1
102
RTVSPost2010Prop40
 90
        0
102
RTVSPost2010PropOp40
 70
     1
102
RTVSPost2010Prop41ColorIndex
 90
       18
102
RTVSPost2010Prop41ColorRGB
 90
        0
102
RTVSPost2010PropOp41
 70
     1
102
RTVSPost2010Prop42
 90
       50
102
RTVSPost2010PropOp42
 70
     1
102
RTVSPost2010Prop43
 90
        3
102
RTVSPost2010PropOp43
 70
     1
102
RTVSPost2010Prop44ColorIndex
 90
        5
102
RTVSPost2010Prop44ColorRGB
 90
      255
102
RTVSPost2010PropOp44
 70
     1
102
RTVSPost2010Prop45
280
     0
102
RTVSPost2010PropOp45
 70
     1
102
RTVSPost2010Prop46
 90
       50
102
RTVSPost2010PropOp46
 70
     1
102
RTVSPost2010Prop47
 90
       50
102
RTVSPost2010PropOp47
 70
     1
102
RTVSPost2010Prop48
 90
       50
102
RTVSPost2010PropOp48
 70
     1
102
RTVSPost2010Prop49
280
     0
102
RTVSPost2010PropOp49
 70
     1
102
RTVSPost2010Prop50
 90
       50
102
RTVSPost2010PropOp50
 70
     1
102
RTVSPost2010Prop51ColorIndex
 90
      256
102
RTVSPost2010Prop51ColorRGB
 90
-16777216
102
RTVSPost2010PropOp51
 70
     0
102
RTVSPost2010Prop52
140
1.0
102
RTVSPost2010PropOp52
 70
     0
102
RTVSPost2010Prop53
 90
        2
102
RTVSPost2010PropOp53
 70
     1
102
RTVSPost2010Prop54
  1
strokes_ogs.tif
102
RTVSPost2010PropOp54
 70
     1
102
RTVSPost2010Prop55
280
     0
102
RTVSPost2010PropOp55
 70
     1
102
RTVSPost2010Prop56
140
1.0
102
RTVSPost2010PropOp56
 70
     1
102
RTVSPost2010Prop57
140
1.0
102
RTVSPost2010PropOp57
 70
     1
  0
XRECORD
  5
18848
102
{ACAD_REACTORS
330
18847
102
}
330
18847
100
AcDbXrecord
280
     1
102
RTVSPropertyOp0
 70
     1
102
RTVSPropertyOp1
 70
     1
102
RTVSPropertyOp2
 70
     1
102
RTVSPropertyOp3
 70
     1
102
RTVSPropertyOp4
 70
     1
102
RTVSPropertyOp5
 70
     1
102
RTVSPropertyOp6
 70
     1
102
RTVSPropertyOp7
 70
     1
102
RTVSPropertyOp8
 70
     1
102
RTVSPropertyOp9
 70
     1
102
RTVSPropertyOp10
 70
     1
102
RTVSPropertyOp11
 70
     1
102
RTVSPropertyOp12
 70
     1
102
RTVSPropertyOp13
 70
     1
102
RTVSPropertyOp14
 70
     1
102
RTVSPropertyOp15
 70
     1
102
RTVSPropertyOp16
 70
     1
102
RTVSPropertyOp17
 70
     1
102
RTVSPropertyOp18
 70
     1
102
RTVSPropertyOp19
 70
     1
102
RTVSPropertyOp20
 70
     1
102
RTVSPropertyOp21
 70
     1
102
RTVSPropertyOp22
 70
     1
102
RTVSPropertyOp23
 70
     1
102
RTVSPropertyOp24
 70
     1
102
RTVSPropertyOp25
 70
     1
102
RTVSPropertyOp26
 70
     1
102
RTVSPropertyOp27
 70
     1
102
RTVSPropertyOp28
 70
     1
102
RTVSPropertyOp29
 70
     1
102
RTVSPropertyOp30
 70
     1
102
RTVSPropertyOp31
 70
     1
102
RTVSPropertyOp32
 70
     1
102
RTVSPropertyOp33
 70
     1
102
RTVSPropertyOp34
 70
     1
102
RTVSPropertyOp35
 70
     1
102
RTVSPropertyOp36
 70
     1
102
RTVSPropertyOp37
 70
     1
102
RTVSPropertyOp38
 70
     1
102
RTVSPropertyOp39
 70
     1
102
RTVSPropertyOp40
 70
     1
102
RTVSPropertyOp41
 70
     1
102
RTVSPropertyOp42
 70
     1
102
RTVSPropertyOp43
 70
     1
102
RTVSPropertyOp44
 70
     1
102
RTVSPropertyOp45
 70
     1
102
RTVSPropertyOp46
 70
     1
102
RTVSPropertyOp47
 70
     1
102
RTVSPropertyOp48
 70
     1
102
RTVSPropertyOp49
 70
     1
102
RTVSPropertyOp50
 70
     1
102
RTVSPropertyOp51
 70
     0
102
RTVSPropertyOp52
 70
     0
102
RTVSPropertyOp53
 70
     1
102
RTVSPropertyOp54
 70
     1
102
RTVSPropertyOp55
 70
     1
102
RTVSPropertyOp56
 70
     1
102
RTVSPropertyOp57
 70
     1
102
RTVSPost2010Prop28
280
     0
102
RTVSPost2010PropOp28
 70
     1
102
RTVSPost2010Prop29
280
     1
102
RTVSPost2010PropOp29
 70
     1
102
RTVSPost2010Prop30
280
     1
102
RTVSPost2010PropOp30
 70
     1
102
RTVSPost2010Prop31
280
     0
102
RTVSPost2010PropOp31
 70
     1
102
RTVSPost2010Prop32
280
     0
102
RTVSPost2010PropOp32
 70
     1
102
RTVSPost2010Prop33
280
     0
102
RTVSPost2010PropOp33
 70
     1
102
RTVSPost2010Prop34
280
     0
102
RTVSPost2010PropOp34
 70
     1
102
RTVSPost2010Prop35
280
     0
102
RTVSPost2010PropOp35
 70
     1
102
RTVSPost2010Prop36
280
     0
102
RTVSPost2010PropOp36
 70
     1
102
RTVSPost2010Prop37
 90
       50
102
RTVSPost2010PropOp37
 70
     1
102
RTVSPost2010Prop38
140
0.0
102
RTVSPost2010PropOp38
 70
     1
102
RTVSPost2010Prop39
140
1.0
102
RTVSPost2010PropOp39
 70
     1
102
RTVSPost2010Prop40
 90
        0
102
RTVSPost2010PropOp40
 70
     1
102
RTVSPost2010Prop41ColorIndex
 90
       18
102
RTVSPost2010Prop41ColorRGB
 90
        0
102
RTVSPost2010PropOp41
 70
     1
102
RTVSPost2010Prop42
 90
       50
102
RTVSPost2010PropOp42
 70
     1
102
RTVSPost2010Prop43
 90
        3
102
RTVSPost2010PropOp43
 70
     1
102
RTVSPost2010Prop44ColorIndex
 90
        5
102
RTVSPost2010Prop44ColorRGB
 90
      255
102
RTVSPost2010PropOp44
 70
     1
102
RTVSPost2010Prop45
280
     0
102
RTVSPost2010PropOp45
 70
     1
102
RTVSPost2010Prop46
 90
       50
102
RTVSPost2010PropOp46
 70
     1
102
RTVSPost2010Prop47
 90
       50
102
RTVSPost2010PropOp47
 70
     1
102
RTVSPost2010Prop48
 90
       50
102
RTVSPost2010PropOp48
 70
     1
102
RTVSPost2010Prop49
280
     0
102
RTVSPost2010PropOp49
 70
     1
102
RTVSPost2010Prop50
 90
       50
102
RTVSPost2010PropOp50
 70
     1
102
RTVSPost2010Prop51ColorIndex
 90
      256
102
RTVSPost2010Prop51ColorRGB
 90
-16777216
102
RTVSPost2010PropOp51
 70
     0
102
RTVSPost2010Prop52
140
1.0
102
RTVSPost2010PropOp52
 70
     0
102
RTVSPost2010Prop53
 90
        2
102
RTVSPost2010PropOp53
 70
     1
102
RTVSPost2010Prop54
  1
strokes_ogs.tif
102
RTVSPost2010PropOp54
 70
     1
102
RTVSPost2010Prop55
280
     0
102
RTVSPost2010PropOp55
 70
     1
102
RTVSPost2010Prop56
140
1.0
102
RTVSPost2010PropOp56
 70
     1
102
RTVSPost2010Prop57
140
1.0
102
RTVSPost2010PropOp57
 70
     1
  0
XRECORD
  5
1884A
102
{ACAD_REACTORS
330
18849
102
}
330
18849
100
AcDbXrecord
280
     1
102
RTVSPropertyOp0
 70
     1
102
RTVSPropertyOp1
 70
     1
102
RTVSPropertyOp2
 70
     1
102
RTVSPropertyOp3
 70
     1
102
RTVSPropertyOp4
 70
     1
102
RTVSPropertyOp5
 70
     1
102
RTVSPropertyOp6
 70
     1
102
RTVSPropertyOp7
 70
     1
102
RTVSPropertyOp8
 70
     1
102
RTVSPropertyOp9
 70
     1
102
RTVSPropertyOp10
 70
     1
102
RTVSPropertyOp11
 70
     1
102
RTVSPropertyOp12
 70
     1
102
RTVSPropertyOp13
 70
     1
102
RTVSPropertyOp14
 70
     1
102
RTVSPropertyOp15
 70
     1
102
RTVSPropertyOp16
 70
     1
102
RTVSPropertyOp17
 70
     1
102
RTVSPropertyOp18
 70
     1
102
RTVSPropertyOp19
 70
     1
102
RTVSPropertyOp20
 70
     1
102
RTVSPropertyOp21
 70
     1
102
RTVSPropertyOp22
 70
     1
102
RTVSPropertyOp23
 70
     1
102
RTVSPropertyOp24
 70
     1
102
RTVSPropertyOp25
 70
     1
102
RTVSPropertyOp26
 70
     1
102
RTVSPropertyOp27
 70
     1
102
RTVSPropertyOp28
 70
     1
102
RTVSPropertyOp29
 70
     1
102
RTVSPropertyOp30
 70
     1
102
RTVSPropertyOp31
 70
     1
102
RTVSPropertyOp32
 70
     1
102
RTVSPropertyOp33
 70
     1
102
RTVSPropertyOp34
 70
     1
102
RTVSPropertyOp35
 70
     1
102
RTVSPropertyOp36
 70
     1
102
RTVSPropertyOp37
 70
     1
102
RTVSPropertyOp38
 70
     1
102
RTVSPropertyOp39
 70
     1
102
RTVSPropertyOp40
 70
     1
102
RTVSPropertyOp41
 70
     1
102
RTVSPropertyOp42
 70
     1
102
RTVSPropertyOp43
 70
     1
102
RTVSPropertyOp44
 70
     1
102
RTVSPropertyOp45
 70
     1
102
RTVSPropertyOp46
 70
     1
102
RTVSPropertyOp47
 70
     1
102
RTVSPropertyOp48
 70
     1
102
RTVSPropertyOp49
 70
     1
102
RTVSPropertyOp50
 70
     1
102
RTVSPropertyOp51
 70
     0
102
RTVSPropertyOp52
 70
     0
102
RTVSPropertyOp53
 70
     1
102
RTVSPropertyOp54
 70
     1
102
RTVSPropertyOp55
 70
     1
102
RTVSPropertyOp56
 70
     1
102
RTVSPropertyOp57
 70
     1
102
RTVSPost2010Prop28
280
     0
102
RTVSPost2010PropOp28
 70
     1
102
RTVSPost2010Prop29
280
     1
102
RTVSPost2010PropOp29
 70
     1
102
RTVSPost2010Prop30
280
     1
102
RTVSPost2010PropOp30
 70
     1
102
RTVSPost2010Prop31
280
     0
102
RTVSPost2010PropOp31
 70
     1
102
RTVSPost2010Prop32
280
     0
102
RTVSPost2010PropOp32
 70
     1
102
RTVSPost2010Prop33
280
     0
102
RTVSPost2010PropOp33
 70
     1
102
RTVSPost2010Prop34
280
     0
102
RTVSPost2010PropOp34
 70
     1
102
RTVSPost2010Prop35
280
     0
102
RTVSPost2010PropOp35
 70
     1
102
RTVSPost2010Prop36
280
     0
102
RTVSPost2010PropOp36
 70
     1
102
RTVSPost2010Prop37
 90
       50
102
RTVSPost2010PropOp37
 70
     1
102
RTVSPost2010Prop38
140
0.0
102
RTVSPost2010PropOp38
 70
     1
102
RTVSPost2010Prop39
140
1.0
102
RTVSPost2010PropOp39
 70
     1
102
RTVSPost2010Prop40
 90
        0
102
RTVSPost2010PropOp40
 70
     1
102
RTVSPost2010Prop41ColorIndex
 90
       18
102
RTVSPost2010Prop41ColorRGB
 90
        0
102
RTVSPost2010PropOp41
 70
     1
102
RTVSPost2010Prop42
 90
       50
102
RTVSPost2010PropOp42
 70
     1
102
RTVSPost2010Prop43
 90
        3
102
RTVSPost2010PropOp43
 70
     1
102
RTVSPost2010Prop44ColorIndex
 90
        5
102
RTVSPost2010Prop44ColorRGB
 90
      255
102
RTVSPost2010PropOp44
 70
     1
102
RTVSPost2010Prop45
280
     0
102
RTVSPost2010PropOp45
 70
     1
102
RTVSPost2010Prop46
 90
       50
102
RTVSPost2010PropOp46
 70
     1
102
RTVSPost2010Prop47
 90
       50
102
RTVSPost2010PropOp47
 70
     1
102
RTVSPost2010Prop48
 90
       50
102
RTVSPost2010PropOp48
 70
     1
102
RTVSPost2010Prop49
280
     0
102
RTVSPost2010PropOp49
 70
     1
102
RTVSPost2010Prop50
 90
       50
102
RTVSPost2010PropOp50
 70
     1
102
RTVSPost2010Prop51ColorIndex
 90
      256
102
RTVSPost2010Prop51ColorRGB
 90
-16777216
102
RTVSPost2010PropOp51
 70
     0
102
RTVSPost2010Prop52
140
1.0
102
RTVSPost2010PropOp52
 70
     0
102
RTVSPost2010Prop53
 90
        2
102
RTVSPost2010PropOp53
 70
     1
102
RTVSPost2010Prop54
  1
strokes_ogs.tif
102
RTVSPost2010PropOp54
 70
     1
102
RTVSPost2010Prop55
280
     0
102
RTVSPost2010PropOp55
 70
     1
102
RTVSPost2010Prop56
140
1.0
102
RTVSPost2010PropOp56
 70
     1
102
RTVSPost2010Prop57
140
1.0
102
RTVSPost2010PropOp57
 70
     1
  0
XRECORD
  5
1884C
102
{ACAD_REACTORS
330
1884B
102
}
330
1884B
100
AcDbXrecord
280
     1
102
RTVSPropertyOp0
 70
     1
102
RTVSPropertyOp1
 70
     1
102
RTVSPropertyOp2
 70
     1
102
RTVSPropertyOp3
 70
     1
102
RTVSPropertyOp4
 70
     1
102
RTVSPropertyOp5
 70
     1
102
RTVSPropertyOp6
 70
     1
102
RTVSPropertyOp7
 70
     1
102
RTVSPropertyOp8
 70
     1
102
RTVSPropertyOp9
 70
     1
102
RTVSPropertyOp10
 70
     1
102
RTVSPropertyOp11
 70
     1
102
RTVSPropertyOp12
 70
     1
102
RTVSPropertyOp13
 70
     1
102
RTVSPropertyOp14
 70
     1
102
RTVSPropertyOp15
 70
     1
102
RTVSPropertyOp16
 70
     1
102
RTVSPropertyOp17
 70
     1
102
RTVSPropertyOp18
 70
     1
102
RTVSPropertyOp19
 70
     1
102
RTVSPropertyOp20
 70
     1
102
RTVSPropertyOp21
 70
     1
102
RTVSPropertyOp22
 70
     1
102
RTVSPropertyOp23
 70
     1
102
RTVSPropertyOp24
 70
     1
102
RTVSPropertyOp25
 70
     1
102
RTVSPropertyOp26
 70
     1
102
RTVSPropertyOp27
 70
     1
102
RTVSPropertyOp28
 70
     1
102
RTVSPropertyOp29
 70
     1
102
RTVSPropertyOp30
 70
     1
102
RTVSPropertyOp31
 70
     1
102
RTVSPropertyOp32
 70
     1
102
RTVSPropertyOp33
 70
     1
102
RTVSPropertyOp34
 70
     1
102
RTVSPropertyOp35
 70
     1
102
RTVSPropertyOp36
 70
     1
102
RTVSPropertyOp37
 70
     1
102
RTVSPropertyOp38
 70
     1
102
RTVSPropertyOp39
 70
     1
102
RTVSPropertyOp40
 70
     1
102
RTVSPropertyOp41
 70
     1
102
RTVSPropertyOp42
 70
     1
102
RTVSPropertyOp43
 70
     1
102
RTVSPropertyOp44
 70
     1
102
RTVSPropertyOp45
 70
     1
102
RTVSPropertyOp46
 70
     1
102
RTVSPropertyOp47
 70
     1
102
RTVSPropertyOp48
 70
     1
102
RTVSPropertyOp49
 70
     1
102
RTVSPropertyOp50
 70
     1
102
RTVSPropertyOp51
 70
     0
102
RTVSPropertyOp52
 70
     0
102
RTVSPropertyOp53
 70
     1
102
RTVSPropertyOp54
 70
     1
102
RTVSPropertyOp55
 70
     1
102
RTVSPropertyOp56
 70
     1
102
RTVSPropertyOp57
 70
     1
102
RTVSPost2010Prop28
280
     0
102
RTVSPost2010PropOp28
 70
     1
102
RTVSPost2010Prop29
280
     1
102
RTVSPost2010PropOp29
 70
     1
102
RTVSPost2010Prop30
280
     1
102
RTVSPost2010PropOp30
 70
     1
102
RTVSPost2010Prop31
280
     0
102
RTVSPost2010PropOp31
 70
     1
102
RTVSPost2010Prop32
280
     0
102
RTVSPost2010PropOp32
 70
     1
102
RTVSPost2010Prop33
280
     0
102
RTVSPost2010PropOp33
 70
     1
102
RTVSPost2010Prop34
280
     0
102
RTVSPost2010PropOp34
 70
     1
102
RTVSPost2010Prop35
280
     0
102
RTVSPost2010PropOp35
 70
     1
102
RTVSPost2010Prop36
280
     0
102
RTVSPost2010PropOp36
 70
     1
102
RTVSPost2010Prop37
 90
       50
102
RTVSPost2010PropOp37
 70
     1
102
RTVSPost2010Prop38
140
0.0
102
RTVSPost2010PropOp38
 70
     1
102
RTVSPost2010Prop39
140
1.0
102
RTVSPost2010PropOp39
 70
     1
102
RTVSPost2010Prop40
 90
        0
102
RTVSPost2010PropOp40
 70
     1
102
RTVSPost2010Prop41ColorIndex
 90
       18
102
RTVSPost2010Prop41ColorRGB
 90
        0
102
RTVSPost2010PropOp41
 70
     1
102
RTVSPost2010Prop42
 90
       50
102
RTVSPost2010PropOp42
 70
     1
102
RTVSPost2010Prop43
 90
        3
102
RTVSPost2010PropOp43
 70
     1
102
RTVSPost2010Prop44ColorIndex
 90
        5
102
RTVSPost2010Prop44ColorRGB
 90
      255
102
RTVSPost2010PropOp44
 70
     1
102
RTVSPost2010Prop45
280
     0
102
RTVSPost2010PropOp45
 70
     1
102
RTVSPost2010Prop46
 90
       50
102
RTVSPost2010PropOp46
 70
     1
102
RTVSPost2010Prop47
 90
       50
102
RTVSPost2010PropOp47
 70
     1
102
RTVSPost2010Prop48
 90
       50
102
RTVSPost2010PropOp48
 70
     1
102
RTVSPost2010Prop49
280
     0
102
RTVSPost2010PropOp49
 70
     1
102
RTVSPost2010Prop50
 90
       50
102
RTVSPost2010PropOp50
 70
     1
102
RTVSPost2010Prop51ColorIndex
 90
      256
102
RTVSPost2010Prop51ColorRGB
 90
-16777216
102
RTVSPost2010PropOp51
 70
     0
102
RTVSPost2010Prop52
140
1.0
102
RTVSPost2010PropOp52
 70
     0
102
RTVSPost2010Prop53
 90
        2
102
RTVSPost2010PropOp53
 70
     1
102
RTVSPost2010Prop54
  1
strokes_ogs.tif
102
RTVSPost2010PropOp54
 70
     1
102
RTVSPost2010Prop55
280
     0
102
RTVSPost2010PropOp55
 70
     1
102
RTVSPost2010Prop56
140
1.0
102
RTVSPost2010PropOp56
 70
     1
102
RTVSPost2010Prop57
140
1.0
102
RTVSPost2010PropOp57
 70
     1
  0
XRECORD
  5
1884E
102
{ACAD_REACTORS
330
1884D
102
}
330
1884D
100
AcDbXrecord
280
     1
102
RTVSPropertyOp0
 70
     1
102
RTVSPropertyOp1
 70
     1
102
RTVSPropertyOp2
 70
     1
102
RTVSPropertyOp3
 70
     1
102
RTVSPropertyOp4
 70
     1
102
RTVSPropertyOp5
 70
     1
102
RTVSPropertyOp6
 70
     1
102
RTVSPropertyOp7
 70
     1
102
RTVSPropertyOp8
 70
     1
102
RTVSPropertyOp9
 70
     1
102
RTVSPropertyOp10
 70
     1
102
RTVSPropertyOp11
 70
     1
102
RTVSPropertyOp12
 70
     1
102
RTVSPropertyOp13
 70
     1
102
RTVSPropertyOp14
 70
     1
102
RTVSPropertyOp15
 70
     1
102
RTVSPropertyOp16
 70
     1
102
RTVSPropertyOp17
 70
     1
102
RTVSPropertyOp18
 70
     1
102
RTVSPropertyOp19
 70
     1
102
RTVSPropertyOp20
 70
     1
102
RTVSPropertyOp21
 70
     1
102
RTVSPropertyOp22
 70
     1
102
RTVSPropertyOp23
 70
     1
102
RTVSPropertyOp24
 70
     1
102
RTVSPropertyOp25
 70
     1
102
RTVSPropertyOp26
 70
     1
102
RTVSPropertyOp27
 70
     1
102
RTVSPropertyOp28
 70
     1
102
RTVSPropertyOp29
 70
     1
102
RTVSPropertyOp30
 70
     1
102
RTVSPropertyOp31
 70
     1
102
RTVSPropertyOp32
 70
     1
102
RTVSPropertyOp33
 70
     1
102
RTVSPropertyOp34
 70
     1
102
RTVSPropertyOp35
 70
     1
102
RTVSPropertyOp36
 70
     1
102
RTVSPropertyOp37
 70
     1
102
RTVSPropertyOp38
 70
     1
102
RTVSPropertyOp39
 70
     1
102
RTVSPropertyOp40
 70
     1
102
RTVSPropertyOp41
 70
     1
102
RTVSPropertyOp42
 70
     1
102
RTVSPropertyOp43
 70
     1
102
RTVSPropertyOp44
 70
     1
102
RTVSPropertyOp45
 70
     1
102
RTVSPropertyOp46
 70
     1
102
RTVSPropertyOp47
 70
     1
102
RTVSPropertyOp48
 70
     1
102
RTVSPropertyOp49
 70
     1
102
RTVSPropertyOp50
 70
     1
102
RTVSPropertyOp51
 70
     0
102
RTVSPropertyOp52
 70
     0
102
RTVSPropertyOp53
 70
     1
102
RTVSPropertyOp54
 70
     1
102
RTVSPropertyOp55
 70
     1
102
RTVSPropertyOp56
 70
     1
102
RTVSPropertyOp57
 70
     1
102
RTVSPost2010Prop28
280
     0
102
RTVSPost2010PropOp28
 70
     1
102
RTVSPost2010Prop29
280
     1
102
RTVSPost2010PropOp29
 70
     1
102
RTVSPost2010Prop30
280
     1
102
RTVSPost2010PropOp30
 70
     1
102
RTVSPost2010Prop31
280
     0
102
RTVSPost2010PropOp31
 70
     1
102
RTVSPost2010Prop32
280
     0
102
RTVSPost2010PropOp32
 70
     1
102
RTVSPost2010Prop33
280
     0
102
RTVSPost2010PropOp33
 70
     1
102
RTVSPost2010Prop34
280
     0
102
RTVSPost2010PropOp34
 70
     1
102
RTVSPost2010Prop35
280
     0
102
RTVSPost2010PropOp35
 70
     1
102
RTVSPost2010Prop36
280
     0
102
RTVSPost2010PropOp36
 70
     1
102
RTVSPost2010Prop37
 90
       50
102
RTVSPost2010PropOp37
 70
     1
102
RTVSPost2010Prop38
140
0.0
102
RTVSPost2010PropOp38
 70
     1
102
RTVSPost2010Prop39
140
1.0
102
RTVSPost2010PropOp39
 70
     1
102
RTVSPost2010Prop40
 90
        0
102
RTVSPost2010PropOp40
 70
     1
102
RTVSPost2010Prop41ColorIndex
 90
       18
102
RTVSPost2010Prop41ColorRGB
 90
        0
102
RTVSPost2010PropOp41
 70
     1
102
RTVSPost2010Prop42
 90
       50
102
RTVSPost2010PropOp42
 70
     1
102
RTVSPost2010Prop43
 90
        3
102
RTVSPost2010PropOp43
 70
     1
102
RTVSPost2010Prop44ColorIndex
 90
        5
102
RTVSPost2010Prop44ColorRGB
 90
      255
102
RTVSPost2010PropOp44
 70
     1
102
RTVSPost2010Prop45
280
     0
102
RTVSPost2010PropOp45
 70
     1
102
RTVSPost2010Prop46
 90
       50
102
RTVSPost2010PropOp46
 70
     1
102
RTVSPost2010Prop47
 90
       50
102
RTVSPost2010PropOp47
 70
     1
102
RTVSPost2010Prop48
 90
       50
102
RTVSPost2010PropOp48
 70
     1
102
RTVSPost2010Prop49
280
     0
102
RTVSPost2010PropOp49
 70
     1
102
RTVSPost2010Prop50
 90
       50
102
RTVSPost2010PropOp50
 70
     1
102
RTVSPost2010Prop51ColorIndex
 90
      256
102
RTVSPost2010Prop51ColorRGB
 90
-16777216
102
RTVSPost2010PropOp51
 70
     0
102
RTVSPost2010Prop52
140
1.0
102
RTVSPost2010PropOp52
 70
     0
102
RTVSPost2010Prop53
 90
        2
102
RTVSPost2010PropOp53
 70
     1
102
RTVSPost2010Prop54
  1
strokes_ogs.tif
102
RTVSPost2010PropOp54
 70
     1
102
RTVSPost2010Prop55
280
     0
102
RTVSPost2010PropOp55
 70
     1
102
RTVSPost2010Prop56
140
1.0
102
RTVSPost2010PropOp56
 70
     1
102
RTVSPost2010Prop57
140
1.0
102
RTVSPost2010PropOp57
 70
     1
  0
XRECORD
  5
18850
102
{ACAD_REACTORS
330
1884F
102
}
330
1884F
100
AcDbXrecord
280
     1
102
RTVSPropertyOp0
 70
     1
102
RTVSPropertyOp1
 70
     1
102
RTVSPropertyOp2
 70
     1
102
RTVSPropertyOp3
 70
     1
102
RTVSPropertyOp4
 70
     1
102
RTVSPropertyOp5
 70
     1
102
RTVSPropertyOp6
 70
     1
102
RTVSPropertyOp7
 70
     1
102
RTVSPropertyOp8
 70
     1
102
RTVSPropertyOp9
 70
     1
102
RTVSPropertyOp10
 70
     1
102
RTVSPropertyOp11
 70
     1
102
RTVSPropertyOp12
 70
     1
102
RTVSPropertyOp13
 70
     1
102
RTVSPropertyOp14
 70
     1
102
RTVSPropertyOp15
 70
     1
102
RTVSPropertyOp16
 70
     1
102
RTVSPropertyOp17
 70
     1
102
RTVSPropertyOp18
 70
     1
102
RTVSPropertyOp19
 70
     1
102
RTVSPropertyOp20
 70
     1
102
RTVSPropertyOp21
 70
     1
102
RTVSPropertyOp22
 70
     1
102
RTVSPropertyOp23
 70
     1
102
RTVSPropertyOp24
 70
     1
102
RTVSPropertyOp25
 70
     1
102
RTVSPropertyOp26
 70
     1
102
RTVSPropertyOp27
 70
     1
102
RTVSPropertyOp28
 70
     1
102
RTVSPropertyOp29
 70
     1
102
RTVSPropertyOp30
 70
     1
102
RTVSPropertyOp31
 70
     1
102
RTVSPropertyOp32
 70
     1
102
RTVSPropertyOp33
 70
     1
102
RTVSPropertyOp34
 70
     1
102
RTVSPropertyOp35
 70
     1
102
RTVSPropertyOp36
 70
     1
102
RTVSPropertyOp37
 70
     1
102
RTVSPropertyOp38
 70
     1
102
RTVSPropertyOp39
 70
     1
102
RTVSPropertyOp40
 70
     1
102
RTVSPropertyOp41
 70
     1
102
RTVSPropertyOp42
 70
     1
102
RTVSPropertyOp43
 70
     1
102
RTVSPropertyOp44
 70
     1
102
RTVSPropertyOp45
 70
     1
102
RTVSPropertyOp46
 70
     1
102
RTVSPropertyOp47
 70
     1
102
RTVSPropertyOp48
 70
     1
102
RTVSPropertyOp49
 70
     1
102
RTVSPropertyOp50
 70
     1
102
RTVSPropertyOp51
 70
     0
102
RTVSPropertyOp52
 70
     0
102
RTVSPropertyOp53
 70
     1
102
RTVSPropertyOp54
 70
     1
102
RTVSPropertyOp55
 70
     1
102
RTVSPropertyOp56
 70
     1
102
RTVSPropertyOp57
 70
     1
102
RTVSPost2010Prop28
280
     0
102
RTVSPost2010PropOp28
 70
     1
102
RTVSPost2010Prop29
280
     1
102
RTVSPost2010PropOp29
 70
     1
102
RTVSPost2010Prop30
280
     1
102
RTVSPost2010PropOp30
 70
     1
102
RTVSPost2010Prop31
280
     0
102
RTVSPost2010PropOp31
 70
     1
102
RTVSPost2010Prop32
280
     0
102
RTVSPost2010PropOp32
 70
     1
102
RTVSPost2010Prop33
280
     0
102
RTVSPost2010PropOp33
 70
     1
102
RTVSPost2010Prop34
280
     0
102
RTVSPost2010PropOp34
 70
     1
102
RTVSPost2010Prop35
280
     0
102
RTVSPost2010PropOp35
 70
     1
102
RTVSPost2010Prop36
280
     0
102
RTVSPost2010PropOp36
 70
     1
102
RTVSPost2010Prop37
 90
       50
102
RTVSPost2010PropOp37
 70
     1
102
RTVSPost2010Prop38
140
0.0
102
RTVSPost2010PropOp38
 70
     1
102
RTVSPost2010Prop39
140
1.0
102
RTVSPost2010PropOp39
 70
     1
102
RTVSPost2010Prop40
 90
        0
102
RTVSPost2010PropOp40
 70
     1
102
RTVSPost2010Prop41ColorIndex
 90
       18
102
RTVSPost2010Prop41ColorRGB
 90
        0
102
RTVSPost2010PropOp41
 70
     1
102
RTVSPost2010Prop42
 90
       50
102
RTVSPost2010PropOp42
 70
     1
102
RTVSPost2010Prop43
 90
        3
102
RTVSPost2010PropOp43
 70
     1
102
RTVSPost2010Prop44ColorIndex
 90
        5
102
RTVSPost2010Prop44ColorRGB
 90
      255
102
RTVSPost2010PropOp44
 70
     1
102
RTVSPost2010Prop45
280
     0
102
RTVSPost2010PropOp45
 70
     1
102
RTVSPost2010Prop46
 90
       50
102
RTVSPost2010PropOp46
 70
     1
102
RTVSPost2010Prop47
 90
       50
102
RTVSPost2010PropOp47
 70
     1
102
RTVSPost2010Prop48
 90
       50
102
RTVSPost2010PropOp48
 70
     1
102
RTVSPost2010Prop49
280
     0
102
RTVSPost2010PropOp49
 70
     1
102
RTVSPost2010Prop50
 90
       50
102
RTVSPost2010PropOp50
 70
     1
102
RTVSPost2010Prop51ColorIndex
 90
      256
102
RTVSPost2010Prop51ColorRGB
 90
-16777216
102
RTVSPost2010PropOp51
 70
     0
102
RTVSPost2010Prop52
140
1.0
102
RTVSPost2010PropOp52
 70
     0
102
RTVSPost2010Prop53
 90
        2
102
RTVSPost2010PropOp53
 70
     1
102
RTVSPost2010Prop54
  1
strokes_ogs.tif
102
RTVSPost2010PropOp54
 70
     1
102
RTVSPost2010Prop55
280
     0
102
RTVSPost2010PropOp55
 70
     1
102
RTVSPost2010Prop56
140
1.0
102
RTVSPost2010PropOp56
 70
     1
102
RTVSPost2010Prop57
140
1.0
102
RTVSPost2010PropOp57
 70
     1
  0
XRECORD
  5
18852
102
{ACAD_REACTORS
330
18851
102
}
330
18851
100
AcDbXrecord
280
     1
102
RTVSPropertyOp0
 70
     1
102
RTVSPropertyOp1
 70
     1
102
RTVSPropertyOp2
 70
     1
102
RTVSPropertyOp3
 70
     1
102
RTVSPropertyOp4
 70
     1
102
RTVSPropertyOp5
 70
     1
102
RTVSPropertyOp6
 70
     1
102
RTVSPropertyOp7
 70
     1
102
RTVSPropertyOp8
 70
     1
102
RTVSPropertyOp9
 70
     1
102
RTVSPropertyOp10
 70
     1
102
RTVSPropertyOp11
 70
     1
102
RTVSPropertyOp12
 70
     1
102
RTVSPropertyOp13
 70
     1
102
RTVSPropertyOp14
 70
     1
102
RTVSPropertyOp15
 70
     1
102
RTVSPropertyOp16
 70
     1
102
RTVSPropertyOp17
 70
     1
102
RTVSPropertyOp18
 70
     1
102
RTVSPropertyOp19
 70
     1
102
RTVSPropertyOp20
 70
     1
102
RTVSPropertyOp21
 70
     1
102
RTVSPropertyOp22
 70
     1
102
RTVSPropertyOp23
 70
     1
102
RTVSPropertyOp24
 70
     1
102
RTVSPropertyOp25
 70
     1
102
RTVSPropertyOp26
 70
     1
102
RTVSPropertyOp27
 70
     1
102
RTVSPropertyOp28
 70
     1
102
RTVSPropertyOp29
 70
     1
102
RTVSPropertyOp30
 70
     1
102
RTVSPropertyOp31
 70
     1
102
RTVSPropertyOp32
 70
     1
102
RTVSPropertyOp33
 70
     1
102
RTVSPropertyOp34
 70
     1
102
RTVSPropertyOp35
 70
     1
102
RTVSPropertyOp36
 70
     1
102
RTVSPropertyOp37
 70
     1
102
RTVSPropertyOp38
 70
     1
102
RTVSPropertyOp39
 70
     1
102
RTVSPropertyOp40
 70
     1
102
RTVSPropertyOp41
 70
     1
102
RTVSPropertyOp42
 70
     1
102
RTVSPropertyOp43
 70
     1
102
RTVSPropertyOp44
 70
     1
102
RTVSPropertyOp45
 70
     1
102
RTVSPropertyOp46
 70
     1
102
RTVSPropertyOp47
 70
     1
102
RTVSPropertyOp48
 70
     1
102
RTVSPropertyOp49
 70
     1
102
RTVSPropertyOp50
 70
     1
102
RTVSPropertyOp51
 70
     0
102
RTVSPropertyOp52
 70
     0
102
RTVSPropertyOp53
 70
     1
102
RTVSPropertyOp54
 70
     1
102
RTVSPropertyOp55
 70
     1
102
RTVSPropertyOp56
 70
     1
102
RTVSPropertyOp57
 70
     1
102
RTVSPost2010Prop28
280
     0
102
RTVSPost2010PropOp28
 70
     1
102
RTVSPost2010Prop29
280
     1
102
RTVSPost2010PropOp29
 70
     1
102
RTVSPost2010Prop30
280
     1
102
RTVSPost2010PropOp30
 70
     1
102
RTVSPost2010Prop31
280
     0
102
RTVSPost2010PropOp31
 70
     1
102
RTVSPost2010Prop32
280
     0
102
RTVSPost2010PropOp32
 70
     1
102
RTVSPost2010Prop33
280
     0
102
RTVSPost2010PropOp33
 70
     1
102
RTVSPost2010Prop34
280
     0
102
RTVSPost2010PropOp34
 70
     1
102
RTVSPost2010Prop35
280
     0
102
RTVSPost2010PropOp35
 70
     1
102
RTVSPost2010Prop36
280
     0
102
RTVSPost2010PropOp36
 70
     1
102
RTVSPost2010Prop37
 90
       50
102
RTVSPost2010PropOp37
 70
     1
102
RTVSPost2010Prop38
140
0.0
102
RTVSPost2010PropOp38
 70
     1
102
RTVSPost2010Prop39
140
1.0
102
RTVSPost2010PropOp39
 70
     1
102
RTVSPost2010Prop40
 90
        0
102
RTVSPost2010PropOp40
 70
     1
102
RTVSPost2010Prop41ColorIndex
 90
       18
102
RTVSPost2010Prop41ColorRGB
 90
        0
102
RTVSPost2010PropOp41
 70
     1
102
RTVSPost2010Prop42
 90
       50
102
RTVSPost2010PropOp42
 70
     1
102
RTVSPost2010Prop43
 90
        3
102
RTVSPost2010PropOp43
 70
     1
102
RTVSPost2010Prop44ColorIndex
 90
        5
102
RTVSPost2010Prop44ColorRGB
 90
      255
102
RTVSPost2010PropOp44
 70
     1
102
RTVSPost2010Prop45
280
     0
102
RTVSPost2010PropOp45
 70
     1
102
RTVSPost2010Prop46
 90
       50
102
RTVSPost2010PropOp46
 70
     1
102
RTVSPost2010Prop47
 90
       50
102
RTVSPost2010PropOp47
 70
     1
102
RTVSPost2010Prop48
 90
       50
102
RTVSPost2010PropOp48
 70
     1
102
RTVSPost2010Prop49
280
     0
102
RTVSPost2010PropOp49
 70
     1
102
RTVSPost2010Prop50
 90
       50
102
RTVSPost2010PropOp50
 70
     1
102
RTVSPost2010Prop51ColorIndex
 90
      256
102
RTVSPost2010Prop51ColorRGB
 90
-16777216
102
RTVSPost2010PropOp51
 70
     0
102
RTVSPost2010Prop52
140
1.0
102
RTVSPost2010PropOp52
 70
     0
102
RTVSPost2010Prop53
 90
        2
102
RTVSPost2010PropOp53
 70
     1
102
RTVSPost2010Prop54
  1
strokes_ogs.tif
102
RTVSPost2010PropOp54
 70
     1
102
RTVSPost2010Prop55
280
     0
102
RTVSPost2010PropOp55
 70
     1
102
RTVSPost2010Prop56
140
1.0
102
RTVSPost2010PropOp56
 70
     1
102
RTVSPost2010Prop57
140
1.0
102
RTVSPost2010PropOp57
 70
     1
  0
XRECORD
  5
18854
102
{ACAD_REACTORS
330
18853
102
}
330
18853
100
AcDbXrecord
280
     1
102
RTVSPropertyOp0
 70
     0
102
RTVSPropertyOp1
 70
     0
102
RTVSPropertyOp2
 70
     0
102
RTVSPropertyOp3
 70
     0
102
RTVSPropertyOp4
 70
     0
102
RTVSPropertyOp5
 70
     0
102
RTVSPropertyOp6
 70
     0
102
RTVSPropertyOp7
 70
     0
102
RTVSPropertyOp8
 70
     0
102
RTVSPropertyOp9
 70
     0
102
RTVSPropertyOp10
 70
     0
102
RTVSPropertyOp11
 70
     0
102
RTVSPropertyOp12
 70
     0
102
RTVSPropertyOp13
 70
     0
102
RTVSPropertyOp14
 70
     2
102
RTVSPropertyOp15
 70
     0
102
RTVSPropertyOp16
 70
     0
102
RTVSPropertyOp17
 70
     0
102
RTVSPropertyOp18
 70
     0
102
RTVSPropertyOp19
 70
     0
102
RTVSPropertyOp20
 70
     0
102
RTVSPropertyOp21
 70
     0
102
RTVSPropertyOp22
 70
     0
102
RTVSPropertyOp23
 70
     0
102
RTVSPropertyOp24
 70
     0
102
RTVSPropertyOp25
 70
     0
102
RTVSPropertyOp26
 70
     0
102
RTVSPropertyOp27
 70
     0
102
RTVSPropertyOp28
 70
     1
102
RTVSPropertyOp29
 70
     1
102
RTVSPropertyOp30
 70
     1
102
RTVSPropertyOp31
 70
     1
102
RTVSPropertyOp32
 70
     1
102
RTVSPropertyOp33
 70
     1
102
RTVSPropertyOp34
 70
     1
102
RTVSPropertyOp35
 70
     1
102
RTVSPropertyOp36
 70
     1
102
RTVSPropertyOp37
 70
     1
102
RTVSPropertyOp38
 70
     1
102
RTVSPropertyOp39
 70
     1
102
RTVSPropertyOp40
 70
     1
102
RTVSPropertyOp41
 70
     1
102
RTVSPropertyOp42
 70
     1
102
RTVSPropertyOp43
 70
     1
102
RTVSPropertyOp44
 70
     1
102
RTVSPropertyOp45
 70
     1
102
RTVSPropertyOp46
 70
     1
102
RTVSPropertyOp47
 70
     1
102
RTVSPropertyOp48
 70
     1
102
RTVSPropertyOp49
 70
     1
102
RTVSPropertyOp50
 70
     1
102
RTVSPropertyOp51
 70
     0
102
RTVSPropertyOp52
 70
     0
102
RTVSPropertyOp53
 70
     1
102
RTVSPropertyOp54
 70
     1
102
RTVSPropertyOp55
 70
     1
102
RTVSPropertyOp56
 70
     1
102
RTVSPropertyOp57
 70
     1
102
RTVSPost2010Prop28
280
     0
102
RTVSPost2010PropOp28
 70
     1
102
RTVSPost2010Prop29
280
     1
102
RTVSPost2010PropOp29
 70
     1
102
RTVSPost2010Prop30
280
     1
102
RTVSPost2010PropOp30
 70
     1
102
RTVSPost2010Prop31
280
     0
102
RTVSPost2010PropOp31
 70
     1
102
RTVSPost2010Prop32
280
     0
102
RTVSPost2010PropOp32
 70
     1
102
RTVSPost2010Prop33
280
     0
102
RTVSPost2010PropOp33
 70
     1
102
RTVSPost2010Prop34
280
     0
102
RTVSPost2010PropOp34
 70
     1
102
RTVSPost2010Prop35
280
     0
102
RTVSPost2010PropOp35
 70
     1
102
RTVSPost2010Prop36
280
     0
102
RTVSPost2010PropOp36
 70
     1
102
RTVSPost2010Prop37
 90
       50
102
RTVSPost2010PropOp37
 70
     1
102
RTVSPost2010Prop38
140
0.0
102
RTVSPost2010PropOp38
 70
     1
102
RTVSPost2010Prop39
140
1.0
102
RTVSPost2010PropOp39
 70
     1
102
RTVSPost2010Prop40
 90
        0
102
RTVSPost2010PropOp40
 70
     1
102
RTVSPost2010Prop41ColorIndex
 90
       18
102
RTVSPost2010Prop41ColorRGB
 90
        0
102
RTVSPost2010PropOp41
 70
     1
102
RTVSPost2010Prop42
 90
       50
102
RTVSPost2010PropOp42
 70
     1
102
RTVSPost2010Prop43
 90
        3
102
RTVSPost2010PropOp43
 70
     1
102
RTVSPost2010Prop44ColorIndex
 90
        5
102
RTVSPost2010Prop44ColorRGB
 90
      255
102
RTVSPost2010PropOp44
 70
     1
102
RTVSPost2010Prop45
280
     0
102
RTVSPost2010PropOp45
 70
     1
102
RTVSPost2010Prop46
 90
       50
102
RTVSPost2010PropOp46
 70
     1
102
RTVSPost2010Prop47
 90
       50
102
RTVSPost2010PropOp47
 70
     1
102
RTVSPost2010Prop48
 90
       50
102
RTVSPost2010PropOp48
 70
     1
102
RTVSPost2010Prop49
280
     0
102
RTVSPost2010PropOp49
 70
     1
102
RTVSPost2010Prop50
 90
       50
102
RTVSPost2010PropOp50
 70
     1
102
RTVSPost2010Prop51ColorIndex
 90
      256
102
RTVSPost2010Prop51ColorRGB
 90
-16777216
102
RTVSPost2010PropOp51
 70
     0
102
RTVSPost2010Prop52
140
1.0
102
RTVSPost2010PropOp52
 70
     0
102
RTVSPost2010Prop53
 90
        2
102
RTVSPost2010PropOp53
 70
     1
102
RTVSPost2010Prop54
  1
strokes_ogs.tif
102
RTVSPost2010PropOp54
 70
     1
102
RTVSPost2010Prop55
280
     0
102
RTVSPost2010PropOp55
 70
     1
102
RTVSPost2010Prop56
140
1.0
102
RTVSPost2010PropOp56
 70
     1
102
RTVSPost2010Prop57
140
1.0
102
RTVSPost2010PropOp57
 70
     1
  0
XRECORD
  5
18856
102
{ACAD_REACTORS
330
18855
102
}
330
18855
100
AcDbXrecord
280
     1
102
RTVSPropertyOp0
 70
     1
102
RTVSPropertyOp1
 70
     1
102
RTVSPropertyOp2
 70
     1
102
RTVSPropertyOp3
 70
     1
102
RTVSPropertyOp4
 70
     1
102
RTVSPropertyOp5
 70
     1
102
RTVSPropertyOp6
 70
     1
102
RTVSPropertyOp7
 70
     1
102
RTVSPropertyOp8
 70
     1
102
RTVSPropertyOp9
 70
     1
102
RTVSPropertyOp10
 70
     1
102
RTVSPropertyOp11
 70
     1
102
RTVSPropertyOp12
 70
     1
102
RTVSPropertyOp13
 70
     1
102
RTVSPropertyOp14
 70
     1
102
RTVSPropertyOp15
 70
     1
102
RTVSPropertyOp16
 70
     1
102
RTVSPropertyOp17
 70
     1
102
RTVSPropertyOp18
 70
     1
102
RTVSPropertyOp19
 70
     1
102
RTVSPropertyOp20
 70
     1
102
RTVSPropertyOp21
 70
     1
102
RTVSPropertyOp22
 70
     1
102
RTVSPropertyOp23
 70
     1
102
RTVSPropertyOp24
 70
     1
102
RTVSPropertyOp25
 70
     1
102
RTVSPropertyOp26
 70
     1
102
RTVSPropertyOp27
 70
     1
102
RTVSPropertyOp28
 70
     1
102
RTVSPropertyOp29
 70
     1
102
RTVSPropertyOp30
 70
     1
102
RTVSPropertyOp31
 70
     1
102
RTVSPropertyOp32
 70
     1
102
RTVSPropertyOp33
 70
     1
102
RTVSPropertyOp34
 70
     1
102
RTVSPropertyOp35
 70
     1
102
RTVSPropertyOp36
 70
     1
102
RTVSPropertyOp37
 70
     1
102
RTVSPropertyOp38
 70
     1
102
RTVSPropertyOp39
 70
     1
102
RTVSPropertyOp40
 70
     1
102
RTVSPropertyOp41
 70
     1
102
RTVSPropertyOp42
 70
     1
102
RTVSPropertyOp43
 70
     1
102
RTVSPropertyOp44
 70
     1
102
RTVSPropertyOp45
 70
     1
102
RTVSPropertyOp46
 70
     1
102
RTVSPropertyOp47
 70
     1
102
RTVSPropertyOp48
 70
     1
102
RTVSPropertyOp49
 70
     1
102
RTVSPropertyOp50
 70
     1
102
RTVSPropertyOp51
 70
     0
102
RTVSPropertyOp52
 70
     0
102
RTVSPropertyOp53
 70
     1
102
RTVSPropertyOp54
 70
     1
102
RTVSPropertyOp55
 70
     1
102
RTVSPropertyOp56
 70
     1
102
RTVSPropertyOp57
 70
     1
102
RTVSPost2010Prop28
280
     0
102
RTVSPost2010PropOp28
 70
     1
102
RTVSPost2010Prop29
280
     1
102
RTVSPost2010PropOp29
 70
     1
102
RTVSPost2010Prop30
280
     1
102
RTVSPost2010PropOp30
 70
     1
102
RTVSPost2010Prop31
280
     0
102
RTVSPost2010PropOp31
 70
     1
102
RTVSPost2010Prop32
280
     0
102
RTVSPost2010PropOp32
 70
     1
102
RTVSPost2010Prop33
280
     0
102
RTVSPost2010PropOp33
 70
     1
102
RTVSPost2010Prop34
280
     0
102
RTVSPost2010PropOp34
 70
     1
102
RTVSPost2010Prop35
280
     0
102
RTVSPost2010PropOp35
 70
     1
102
RTVSPost2010Prop36
280
     0
102
RTVSPost2010PropOp36
 70
     1
102
RTVSPost2010Prop37
 90
       50
102
RTVSPost2010PropOp37
 70
     1
102
RTVSPost2010Prop38
140
0.0
102
RTVSPost2010PropOp38
 70
     1
102
RTVSPost2010Prop39
140
1.0
102
RTVSPost2010PropOp39
 70
     1
102
RTVSPost2010Prop40
 90
        0
102
RTVSPost2010PropOp40
 70
     1
102
RTVSPost2010Prop41ColorIndex
 90
       18
102
RTVSPost2010Prop41ColorRGB
 90
        0
102
RTVSPost2010PropOp41
 70
     1
102
RTVSPost2010Prop42
 90
       50
102
RTVSPost2010PropOp42
 70
     1
102
RTVSPost2010Prop43
 90
        3
102
RTVSPost2010PropOp43
 70
     1
102
RTVSPost2010Prop44ColorIndex
 90
        5
102
RTVSPost2010Prop44ColorRGB
 90
      255
102
RTVSPost2010PropOp44
 70
     1
102
RTVSPost2010Prop45
280
     0
102
RTVSPost2010PropOp45
 70
     1
102
RTVSPost2010Prop46
 90
       50
102
RTVSPost2010PropOp46
 70
     1
102
RTVSPost2010Prop47
 90
       50
102
RTVSPost2010PropOp47
 70
     1
102
RTVSPost2010Prop48
 90
       50
102
RTVSPost2010PropOp48
 70
     1
102
RTVSPost2010Prop49
280
     0
102
RTVSPost2010PropOp49
 70
     1
102
RTVSPost2010Prop50
 90
       50
102
RTVSPost2010PropOp50
 70
     1
102
RTVSPost2010Prop51ColorIndex
 90
      256
102
RTVSPost2010Prop51ColorRGB
 90
-16777216
102
RTVSPost2010PropOp51
 70
     0
102
RTVSPost2010Prop52
140
1.0
102
RTVSPost2010PropOp52
 70
     0
102
RTVSPost2010Prop53
 90
        2
102
RTVSPost2010PropOp53
 70
     1
102
RTVSPost2010Prop54
  1
strokes_ogs.tif
102
RTVSPost2010PropOp54
 70
     1
102
RTVSPost2010Prop55
280
     0
102
RTVSPost2010PropOp55
 70
     1
102
RTVSPost2010Prop56
140
1.0
102
RTVSPost2010PropOp56
 70
     1
102
RTVSPost2010Prop57
140
1.0
102
RTVSPost2010PropOp57
 70
     1
  0
XRECORD
  5
18858
102
{ACAD_REACTORS
330
18857
102
}
330
18857
100
AcDbXrecord
280
     1
102
RTVSPropertyOp0
 70
     1
102
RTVSPropertyOp1
 70
     1
102
RTVSPropertyOp2
 70
     1
102
RTVSPropertyOp3
 70
     1
102
RTVSPropertyOp4
 70
     1
102
RTVSPropertyOp5
 70
     1
102
RTVSPropertyOp6
 70
     1
102
RTVSPropertyOp7
 70
     1
102
RTVSPropertyOp8
 70
     1
102
RTVSPropertyOp9
 70
     1
102
RTVSPropertyOp10
 70
     1
102
RTVSPropertyOp11
 70
     1
102
RTVSPropertyOp12
 70
     1
102
RTVSPropertyOp13
 70
     1
102
RTVSPropertyOp14
 70
     1
102
RTVSPropertyOp15
 70
     1
102
RTVSPropertyOp16
 70
     1
102
RTVSPropertyOp17
 70
     1
102
RTVSPropertyOp18
 70
     1
102
RTVSPropertyOp19
 70
     1
102
RTVSPropertyOp20
 70
     1
102
RTVSPropertyOp21
 70
     1
102
RTVSPropertyOp22
 70
     1
102
RTVSPropertyOp23
 70
     1
102
RTVSPropertyOp24
 70
     1
102
RTVSPropertyOp25
 70
     1
102
RTVSPropertyOp26
 70
     1
102
RTVSPropertyOp27
 70
     1
102
RTVSPropertyOp28
 70
     1
102
RTVSPropertyOp29
 70
     1
102
RTVSPropertyOp30
 70
     1
102
RTVSPropertyOp31
 70
     1
102
RTVSPropertyOp32
 70
     1
102
RTVSPropertyOp33
 70
     1
102
RTVSPropertyOp34
 70
     1
102
RTVSPropertyOp35
 70
     1
102
RTVSPropertyOp36
 70
     1
102
RTVSPropertyOp37
 70
     1
102
RTVSPropertyOp38
 70
     1
102
RTVSPropertyOp39
 70
     1
102
RTVSPropertyOp40
 70
     1
102
RTVSPropertyOp41
 70
     1
102
RTVSPropertyOp42
 70
     1
102
RTVSPropertyOp43
 70
     1
102
RTVSPropertyOp44
 70
     1
102
RTVSPropertyOp45
 70
     1
102
RTVSPropertyOp46
 70
     1
102
RTVSPropertyOp47
 70
     1
102
RTVSPropertyOp48
 70
     1
102
RTVSPropertyOp49
 70
     1
102
RTVSPropertyOp50
 70
     1
102
RTVSPropertyOp51
 70
     0
102
RTVSPropertyOp52
 70
     0
102
RTVSPropertyOp53
 70
     1
102
RTVSPropertyOp54
 70
     1
102
RTVSPropertyOp55
 70
     1
102
RTVSPropertyOp56
 70
     1
102
RTVSPropertyOp57
 70
     1
102
RTVSPost2010Prop28
280
     0
102
RTVSPost2010PropOp28
 70
     1
102
RTVSPost2010Prop29
280
     1
102
RTVSPost2010PropOp29
 70
     1
102
RTVSPost2010Prop30
280
     1
102
RTVSPost2010PropOp30
 70
     1
102
RTVSPost2010Prop31
280
     0
102
RTVSPost2010PropOp31
 70
     1
102
RTVSPost2010Prop32
280
     0
102
RTVSPost2010PropOp32
 70
     1
102
RTVSPost2010Prop33
280
     0
102
RTVSPost2010PropOp33
 70
     1
102
RTVSPost2010Prop34
280
     0
102
RTVSPost2010PropOp34
 70
     1
102
RTVSPost2010Prop35
280
     0
102
RTVSPost2010PropOp35
 70
     1
102
RTVSPost2010Prop36
280
     0
102
RTVSPost2010PropOp36
 70
     1
102
RTVSPost2010Prop37
 90
       50
102
RTVSPost2010PropOp37
 70
     1
102
RTVSPost2010Prop38
140
0.0
102
RTVSPost2010PropOp38
 70
     1
102
RTVSPost2010Prop39
140
1.0
102
RTVSPost2010PropOp39
 70
     1
102
RTVSPost2010Prop40
 90
        0
102
RTVSPost2010PropOp40
 70
     1
102
RTVSPost2010Prop41ColorIndex
 90
       18
102
RTVSPost2010Prop41ColorRGB
 90
        0
102
RTVSPost2010PropOp41
 70
     1
102
RTVSPost2010Prop42
 90
       50
102
RTVSPost2010PropOp42
 70
     1
102
RTVSPost2010Prop43
 90
        3
102
RTVSPost2010PropOp43
 70
     1
102
RTVSPost2010Prop44ColorIndex
 90
        5
102
RTVSPost2010Prop44ColorRGB
 90
      255
102
RTVSPost2010PropOp44
 70
     1
102
RTVSPost2010Prop45
280
     0
102
RTVSPost2010PropOp45
 70
     1
102
RTVSPost2010Prop46
 90
       50
102
RTVSPost2010PropOp46
 70
     1
102
RTVSPost2010Prop47
 90
       50
102
RTVSPost2010PropOp47
 70
     1
102
RTVSPost2010Prop48
 90
       50
102
RTVSPost2010PropOp48
 70
     1
102
RTVSPost2010Prop49
280
     0
102
RTVSPost2010PropOp49
 70
     1
102
RTVSPost2010Prop50
 90
       50
102
RTVSPost2010PropOp50
 70
     1
102
RTVSPost2010Prop51ColorIndex
 90
      256
102
RTVSPost2010Prop51ColorRGB
 90
-16777216
102
RTVSPost2010PropOp51
 70
     0
102
RTVSPost2010Prop52
140
1.0
102
RTVSPost2010PropOp52
 70
     0
102
RTVSPost2010Prop53
 90
        2
102
RTVSPost2010PropOp53
 70
     1
102
RTVSPost2010Prop54
  1
strokes_ogs.tif
102
RTVSPost2010PropOp54
 70
     1
102
RTVSPost2010Prop55
280
     0
102
RTVSPost2010PropOp55
 70
     1
102
RTVSPost2010Prop56
140
1.0
102
RTVSPost2010PropOp56
 70
     1
102
RTVSPost2010Prop57
140
1.0
102
RTVSPost2010PropOp57
 70
     1
  0
XRECORD
  5
1885A
102
{ACAD_REACTORS
330
18859
102
}
330
18859
100
AcDbXrecord
280
     1
102
RTVSPropertyOp0
 70
     1
102
RTVSPropertyOp1
 70
     1
102
RTVSPropertyOp2
 70
     1
102
RTVSPropertyOp3
 70
     1
102
RTVSPropertyOp4
 70
     1
102
RTVSPropertyOp5
 70
     1
102
RTVSPropertyOp6
 70
     1
102
RTVSPropertyOp7
 70
     1
102
RTVSPropertyOp8
 70
     1
102
RTVSPropertyOp9
 70
     1
102
RTVSPropertyOp10
 70
     1
102
RTVSPropertyOp11
 70
     1
102
RTVSPropertyOp12
 70
     1
102
RTVSPropertyOp13
 70
     1
102
RTVSPropertyOp14
 70
     1
102
RTVSPropertyOp15
 70
     1
102
RTVSPropertyOp16
 70
     1
102
RTVSPropertyOp17
 70
     1
102
RTVSPropertyOp18
 70
     1
102
RTVSPropertyOp19
 70
     1
102
RTVSPropertyOp20
 70
     1
102
RTVSPropertyOp21
 70
     1
102
RTVSPropertyOp22
 70
     1
102
RTVSPropertyOp23
 70
     1
102
RTVSPropertyOp24
 70
     1
102
RTVSPropertyOp25
 70
     1
102
RTVSPropertyOp26
 70
     1
102
RTVSPropertyOp27
 70
     1
102
RTVSPropertyOp28
 70
     1
102
RTVSPropertyOp29
 70
     1
102
RTVSPropertyOp30
 70
     1
102
RTVSPropertyOp31
 70
     1
102
RTVSPropertyOp32
 70
     1
102
RTVSPropertyOp33
 70
     1
102
RTVSPropertyOp34
 70
     1
102
RTVSPropertyOp35
 70
     1
102
RTVSPropertyOp36
 70
     1
102
RTVSPropertyOp37
 70
     1
102
RTVSPropertyOp38
 70
     1
102
RTVSPropertyOp39
 70
     1
102
RTVSPropertyOp40
 70
     1
102
RTVSPropertyOp41
 70
     1
102
RTVSPropertyOp42
 70
     1
102
RTVSPropertyOp43
 70
     1
102
RTVSPropertyOp44
 70
     1
102
RTVSPropertyOp45
 70
     1
102
RTVSPropertyOp46
 70
     1
102
RTVSPropertyOp47
 70
     1
102
RTVSPropertyOp48
 70
     1
102
RTVSPropertyOp49
 70
     1
102
RTVSPropertyOp50
 70
     1
102
RTVSPropertyOp51
 70
     0
102
RTVSPropertyOp52
 70
     0
102
RTVSPropertyOp53
 70
     1
102
RTVSPropertyOp54
 70
     1
102
RTVSPropertyOp55
 70
     1
102
RTVSPropertyOp56
 70
     1
102
RTVSPropertyOp57
 70
     1
102
RTVSPost2010Prop28
280
     0
102
RTVSPost2010PropOp28
 70
     1
102
RTVSPost2010Prop29
280
     1
102
RTVSPost2010PropOp29
 70
     1
102
RTVSPost2010Prop30
280
     1
102
RTVSPost2010PropOp30
 70
     1
102
RTVSPost2010Prop31
280
     0
102
RTVSPost2010PropOp31
 70
     1
102
RTVSPost2010Prop32
280
     0
102
RTVSPost2010PropOp32
 70
     1
102
RTVSPost2010Prop33
280
     0
102
RTVSPost2010PropOp33
 70
     1
102
RTVSPost2010Prop34
280
     0
102
RTVSPost2010PropOp34
 70
     1
102
RTVSPost2010Prop35
280
     0
102
RTVSPost2010PropOp35
 70
     1
102
RTVSPost2010Prop36
280
     0
102
RTVSPost2010PropOp36
 70
     1
102
RTVSPost2010Prop37
 90
       50
102
RTVSPost2010PropOp37
 70
     1
102
RTVSPost2010Prop38
140
0.0
102
RTVSPost2010PropOp38
 70
     1
102
RTVSPost2010Prop39
140
1.0
102
RTVSPost2010PropOp39
 70
     1
102
RTVSPost2010Prop40
 90
        0
102
RTVSPost2010PropOp40
 70
     1
102
RTVSPost2010Prop41ColorIndex
 90
       18
102
RTVSPost2010Prop41ColorRGB
 90
        0
102
RTVSPost2010PropOp41
 70
     1
102
RTVSPost2010Prop42
 90
       50
102
RTVSPost2010PropOp42
 70
     1
102
RTVSPost2010Prop43
 90
        3
102
RTVSPost2010PropOp43
 70
     1
102
RTVSPost2010Prop44ColorIndex
 90
        5
102
RTVSPost2010Prop44ColorRGB
 90
      255
102
RTVSPost2010PropOp44
 70
     1
102
RTVSPost2010Prop45
280
     0
102
RTVSPost2010PropOp45
 70
     1
102
RTVSPost2010Prop46
 90
       50
102
RTVSPost2010PropOp46
 70
     1
102
RTVSPost2010Prop47
 90
       50
102
RTVSPost2010PropOp47
 70
     1
102
RTVSPost2010Prop48
 90
       50
102
RTVSPost2010PropOp48
 70
     1
102
RTVSPost2010Prop49
280
     0
102
RTVSPost2010PropOp49
 70
     1
102
RTVSPost2010Prop50
 90
       50
102
RTVSPost2010PropOp50
 70
     1
102
RTVSPost2010Prop51ColorIndex
 90
      256
102
RTVSPost2010Prop51ColorRGB
 90
-16777216
102
RTVSPost2010PropOp51
 70
     0
102
RTVSPost2010Prop52
140
1.0
102
RTVSPost2010PropOp52
 70
     0
102
RTVSPost2010Prop53
 90
        2
102
RTVSPost2010PropOp53
 70
     1
102
RTVSPost2010Prop54
  1
strokes_ogs.tif
102
RTVSPost2010PropOp54
 70
     1
102
RTVSPost2010Prop55
280
     0
102
RTVSPost2010PropOp55
 70
     1
102
RTVSPost2010Prop56
140
1.0
102
RTVSPost2010PropOp56
 70
     1
102
RTVSPost2010Prop57
140
1.0
102
RTVSPost2010PropOp57
 70
     1
  0
XRECORD
  5
1885C
102
{ACAD_REACTORS
330
1885B
102
}
330
1885B
100
AcDbXrecord
280
     1
102
RTVSPropertyOp0
 70
     1
102
RTVSPropertyOp1
 70
     1
102
RTVSPropertyOp2
 70
     1
102
RTVSPropertyOp3
 70
     1
102
RTVSPropertyOp4
 70
     1
102
RTVSPropertyOp5
 70
     1
102
RTVSPropertyOp6
 70
     1
102
RTVSPropertyOp7
 70
     1
102
RTVSPropertyOp8
 70
     1
102
RTVSPropertyOp9
 70
     1
102
RTVSPropertyOp10
 70
     1
102
RTVSPropertyOp11
 70
     1
102
RTVSPropertyOp12
 70
     1
102
RTVSPropertyOp13
 70
     1
102
RTVSPropertyOp14
 70
     1
102
RTVSPropertyOp15
 70
     1
102
RTVSPropertyOp16
 70
     1
102
RTVSPropertyOp17
 70
     1
102
RTVSPropertyOp18
 70
     1
102
RTVSPropertyOp19
 70
     1
102
RTVSPropertyOp20
 70
     1
102
RTVSPropertyOp21
 70
     1
102
RTVSPropertyOp22
 70
     1
102
RTVSPropertyOp23
 70
     1
102
RTVSPropertyOp24
 70
     1
102
RTVSPropertyOp25
 70
     1
102
RTVSPropertyOp26
 70
     1
102
RTVSPropertyOp27
 70
     1
102
RTVSPropertyOp28
 70
     1
102
RTVSPropertyOp29
 70
     1
102
RTVSPropertyOp30
 70
     1
102
RTVSPropertyOp31
 70
     1
102
RTVSPropertyOp32
 70
     1
102
RTVSPropertyOp33
 70
     1
102
RTVSPropertyOp34
 70
     1
102
RTVSPropertyOp35
 70
     1
102
RTVSPropertyOp36
 70
     1
102
RTVSPropertyOp37
 70
     1
102
RTVSPropertyOp38
 70
     1
102
RTVSPropertyOp39
 70
     1
102
RTVSPropertyOp40
 70
     1
102
RTVSPropertyOp41
 70
     1
102
RTVSPropertyOp42
 70
     1
102
RTVSPropertyOp43
 70
     1
102
RTVSPropertyOp44
 70
     1
102
RTVSPropertyOp45
 70
     1
102
RTVSPropertyOp46
 70
     1
102
RTVSPropertyOp47
 70
     1
102
RTVSPropertyOp48
 70
     1
102
RTVSPropertyOp49
 70
     1
102
RTVSPropertyOp50
 70
     1
102
RTVSPropertyOp51
 70
     0
102
RTVSPropertyOp52
 70
     0
102
RTVSPropertyOp53
 70
     1
102
RTVSPropertyOp54
 70
     1
102
RTVSPropertyOp55
 70
     1
102
RTVSPropertyOp56
 70
     1
102
RTVSPropertyOp57
 70
     1
102
RTVSPost2010Prop28
280
     0
102
RTVSPost2010PropOp28
 70
     1
102
RTVSPost2010Prop29
280
     1
102
RTVSPost2010PropOp29
 70
     1
102
RTVSPost2010Prop30
280
     1
102
RTVSPost2010PropOp30
 70
     1
102
RTVSPost2010Prop31
280
     0
102
RTVSPost2010PropOp31
 70
     1
102
RTVSPost2010Prop32
280
     0
102
RTVSPost2010PropOp32
 70
     1
102
RTVSPost2010Prop33
280
     0
102
RTVSPost2010PropOp33
 70
     1
102
RTVSPost2010Prop34
280
     0
102
RTVSPost2010PropOp34
 70
     1
102
RTVSPost2010Prop35
280
     0
102
RTVSPost2010PropOp35
 70
     1
102
RTVSPost2010Prop36
280
     0
102
RTVSPost2010PropOp36
 70
     1
102
RTVSPost2010Prop37
 90
       50
102
RTVSPost2010PropOp37
 70
     1
102
RTVSPost2010Prop38
140
0.0
102
RTVSPost2010PropOp38
 70
     1
102
RTVSPost2010Prop39
140
1.0
102
RTVSPost2010PropOp39
 70
     1
102
RTVSPost2010Prop40
 90
        0
102
RTVSPost2010PropOp40
 70
     1
102
RTVSPost2010Prop41ColorIndex
 90
       18
102
RTVSPost2010Prop41ColorRGB
 90
        0
102
RTVSPost2010PropOp41
 70
     1
102
RTVSPost2010Prop42
 90
       50
102
RTVSPost2010PropOp42
 70
     1
102
RTVSPost2010Prop43
 90
        3
102
RTVSPost2010PropOp43
 70
     1
102
RTVSPost2010Prop44ColorIndex
 90
        5
102
RTVSPost2010Prop44ColorRGB
 90
      255
102
RTVSPost2010PropOp44
 70
     1
102
RTVSPost2010Prop45
280
     0
102
RTVSPost2010PropOp45
 70
     1
102
RTVSPost2010Prop46
 90
       50
102
RTVSPost2010PropOp46
 70
     1
102
RTVSPost2010Prop47
 90
       50
102
RTVSPost2010PropOp47
 70
     1
102
RTVSPost2010Prop48
 90
       50
102
RTVSPost2010PropOp48
 70
     1
102
RTVSPost2010Prop49
280
     0
102
RTVSPost2010PropOp49
 70
     1
102
RTVSPost2010Prop50
 90
       50
102
RTVSPost2010PropOp50
 70
     1
102
RTVSPost2010Prop51ColorIndex
 90
      256
102
RTVSPost2010Prop51ColorRGB
 90
-16777216
102
RTVSPost2010PropOp51
 70
     0
102
RTVSPost2010Prop52
140
1.0
102
RTVSPost2010PropOp52
 70
     0
102
RTVSPost2010Prop53
 90
        2
102
RTVSPost2010PropOp53
 70
     1
102
RTVSPost2010Prop54
  1
strokes_ogs.tif
102
RTVSPost2010PropOp54
 70
     1
102
RTVSPost2010Prop55
280
     0
102
RTVSPost2010PropOp55
 70
     1
102
RTVSPost2010Prop56
140
1.0
102
RTVSPost2010PropOp56
 70
     1
102
RTVSPost2010Prop57
140
1.0
102
RTVSPost2010PropOp57
 70
     1
  0
XRECORD
  5
1885E
102
{ACAD_REACTORS
330
1885D
102
}
330
1885D
100
AcDbXrecord
280
     1
102
RTVSPropertyOp0
 70
     1
102
RTVSPropertyOp1
 70
     1
102
RTVSPropertyOp2
 70
     1
102
RTVSPropertyOp3
 70
     1
102
RTVSPropertyOp4
 70
     1
102
RTVSPropertyOp5
 70
     1
102
RTVSPropertyOp6
 70
     1
102
RTVSPropertyOp7
 70
     1
102
RTVSPropertyOp8
 70
     1
102
RTVSPropertyOp9
 70
     1
102
RTVSPropertyOp10
 70
     1
102
RTVSPropertyOp11
 70
     1
102
RTVSPropertyOp12
 70
     1
102
RTVSPropertyOp13
 70
     1
102
RTVSPropertyOp14
 70
     1
102
RTVSPropertyOp15
 70
     1
102
RTVSPropertyOp16
 70
     1
102
RTVSPropertyOp17
 70
     1
102
RTVSPropertyOp18
 70
     1
102
RTVSPropertyOp19
 70
     1
102
RTVSPropertyOp20
 70
     1
102
RTVSPropertyOp21
 70
     1
102
RTVSPropertyOp22
 70
     1
102
RTVSPropertyOp23
 70
     1
102
RTVSPropertyOp24
 70
     1
102
RTVSPropertyOp25
 70
     1
102
RTVSPropertyOp26
 70
     1
102
RTVSPropertyOp27
 70
     1
102
RTVSPropertyOp28
 70
     1
102
RTVSPropertyOp29
 70
     1
102
RTVSPropertyOp30
 70
     1
102
RTVSPropertyOp31
 70
     1
102
RTVSPropertyOp32
 70
     1
102
RTVSPropertyOp33
 70
     1
102
RTVSPropertyOp34
 70
     1
102
RTVSPropertyOp35
 70
     1
102
RTVSPropertyOp36
 70
     1
102
RTVSPropertyOp37
 70
     1
102
RTVSPropertyOp38
 70
     1
102
RTVSPropertyOp39
 70
     1
102
RTVSPropertyOp40
 70
     1
102
RTVSPropertyOp41
 70
     1
102
RTVSPropertyOp42
 70
     1
102
RTVSPropertyOp43
 70
     1
102
RTVSPropertyOp44
 70
     1
102
RTVSPropertyOp45
 70
     1
102
RTVSPropertyOp46
 70
     1
102
RTVSPropertyOp47
 70
     1
102
RTVSPropertyOp48
 70
     1
102
RTVSPropertyOp49
 70
     1
102
RTVSPropertyOp50
 70
     1
102
RTVSPropertyOp51
 70
     0
102
RTVSPropertyOp52
 70
     0
102
RTVSPropertyOp53
 70
     1
102
RTVSPropertyOp54
 70
     1
102
RTVSPropertyOp55
 70
     1
102
RTVSPropertyOp56
 70
     1
102
RTVSPropertyOp57
 70
     1
102
RTVSPost2010Prop28
280
     0
102
RTVSPost2010PropOp28
 70
     1
102
RTVSPost2010Prop29
280
     1
102
RTVSPost2010PropOp29
 70
     1
102
RTVSPost2010Prop30
280
     1
102
RTVSPost2010PropOp30
 70
     1
102
RTVSPost2010Prop31
280
     0
102
RTVSPost2010PropOp31
 70
     1
102
RTVSPost2010Prop32
280
     0
102
RTVSPost2010PropOp32
 70
     1
102
RTVSPost2010Prop33
280
     0
102
RTVSPost2010PropOp33
 70
     1
102
RTVSPost2010Prop34
280
     0
102
RTVSPost2010PropOp34
 70
     1
102
RTVSPost2010Prop35
280
     0
102
RTVSPost2010PropOp35
 70
     1
102
RTVSPost2010Prop36
280
     0
102
RTVSPost2010PropOp36
 70
     1
102
RTVSPost2010Prop37
 90
       50
102
RTVSPost2010PropOp37
 70
     1
102
RTVSPost2010Prop38
140
0.0
102
RTVSPost2010PropOp38
 70
     1
102
RTVSPost2010Prop39
140
1.0
102
RTVSPost2010PropOp39
 70
     1
102
RTVSPost2010Prop40
 90
        0
102
RTVSPost2010PropOp40
 70
     1
102
RTVSPost2010Prop41ColorIndex
 90
       18
102
RTVSPost2010Prop41ColorRGB
 90
        0
102
RTVSPost2010PropOp41
 70
     1
102
RTVSPost2010Prop42
 90
       50
102
RTVSPost2010PropOp42
 70
     1
102
RTVSPost2010Prop43
 90
        3
102
RTVSPost2010PropOp43
 70
     1
102
RTVSPost2010Prop44ColorIndex
 90
        5
102
RTVSPost2010Prop44ColorRGB
 90
      255
102
RTVSPost2010PropOp44
 70
     1
102
RTVSPost2010Prop45
280
     0
102
RTVSPost2010PropOp45
 70
     1
102
RTVSPost2010Prop46
 90
       50
102
RTVSPost2010PropOp46
 70
     1
102
RTVSPost2010Prop47
 90
       50
102
RTVSPost2010PropOp47
 70
     1
102
RTVSPost2010Prop48
 90
       50
102
RTVSPost2010PropOp48
 70
     1
102
RTVSPost2010Prop49
280
     0
102
RTVSPost2010PropOp49
 70
     1
102
RTVSPost2010Prop50
 90
       50
102
RTVSPost2010PropOp50
 70
     1
102
RTVSPost2010Prop51ColorIndex
 90
      256
102
RTVSPost2010Prop51ColorRGB
 90
-16777216
102
RTVSPost2010PropOp51
 70
     0
102
RTVSPost2010Prop52
140
1.0
102
RTVSPost2010PropOp52
 70
     0
102
RTVSPost2010Prop53
 90
        2
102
RTVSPost2010PropOp53
 70
     1
102
RTVSPost2010Prop54
  1
strokes_ogs.tif
102
RTVSPost2010PropOp54
 70
     1
102
RTVSPost2010Prop55
280
     0
102
RTVSPost2010PropOp55
 70
     1
102
RTVSPost2010Prop56
140
1.0
102
RTVSPost2010PropOp56
 70
     1
102
RTVSPost2010Prop57
140
1.0
102
RTVSPost2010PropOp57
 70
     1
  0
XRECORD
  5
18860
102
{ACAD_REACTORS
330
1885F
102
}
330
1885F
100
AcDbXrecord
280
     1
102
RTVSPropertyOp0
 70
     1
102
RTVSPropertyOp1
 70
     1
102
RTVSPropertyOp2
 70
     1
102
RTVSPropertyOp3
 70
     1
102
RTVSPropertyOp4
 70
     1
102
RTVSPropertyOp5
 70
     1
102
RTVSPropertyOp6
 70
     1
102
RTVSPropertyOp7
 70
     1
102
RTVSPropertyOp8
 70
     1
102
RTVSPropertyOp9
 70
     1
102
RTVSPropertyOp10
 70
     1
102
RTVSPropertyOp11
 70
     1
102
RTVSPropertyOp12
 70
     1
102
RTVSPropertyOp13
 70
     1
102
RTVSPropertyOp14
 70
     1
102
RTVSPropertyOp15
 70
     1
102
RTVSPropertyOp16
 70
     1
102
RTVSPropertyOp17
 70
     1
102
RTVSPropertyOp18
 70
     1
102
RTVSPropertyOp19
 70
     1
102
RTVSPropertyOp20
 70
     1
102
RTVSPropertyOp21
 70
     1
102
RTVSPropertyOp22
 70
     1
102
RTVSPropertyOp23
 70
     1
102
RTVSPropertyOp24
 70
     1
102
RTVSPropertyOp25
 70
     1
102
RTVSPropertyOp26
 70
     1
102
RTVSPropertyOp27
 70
     1
102
RTVSPropertyOp28
 70
     1
102
RTVSPropertyOp29
 70
     1
102
RTVSPropertyOp30
 70
     1
102
RTVSPropertyOp31
 70
     1
102
RTVSPropertyOp32
 70
     1
102
RTVSPropertyOp33
 70
     1
102
RTVSPropertyOp34
 70
     1
102
RTVSPropertyOp35
 70
     1
102
RTVSPropertyOp36
 70
     1
102
RTVSPropertyOp37
 70
     1
102
RTVSPropertyOp38
 70
     1
102
RTVSPropertyOp39
 70
     1
102
RTVSPropertyOp40
 70
     1
102
RTVSPropertyOp41
 70
     1
102
RTVSPropertyOp42
 70
     1
102
RTVSPropertyOp43
 70
     1
102
RTVSPropertyOp44
 70
     1
102
RTVSPropertyOp45
 70
     1
102
RTVSPropertyOp46
 70
     1
102
RTVSPropertyOp47
 70
     1
102
RTVSPropertyOp48
 70
     1
102
RTVSPropertyOp49
 70
     1
102
RTVSPropertyOp50
 70
     1
102
RTVSPropertyOp51
 70
     0
102
RTVSPropertyOp52
 70
     0
102
RTVSPropertyOp53
 70
     1
102
RTVSPropertyOp54
 70
     1
102
RTVSPropertyOp55
 70
     1
102
RTVSPropertyOp56
 70
     1
102
RTVSPropertyOp57
 70
     1
102
RTVSPost2010Prop28
280
     0
102
RTVSPost2010PropOp28
 70
     1
102
RTVSPost2010Prop29
280
     1
102
RTVSPost2010PropOp29
 70
     1
102
RTVSPost2010Prop30
280
     1
102
RTVSPost2010PropOp30
 70
     1
102
RTVSPost2010Prop31
280
     0
102
RTVSPost2010PropOp31
 70
     1
102
RTVSPost2010Prop32
280
     0
102
RTVSPost2010PropOp32
 70
     1
102
RTVSPost2010Prop33
280
     0
102
RTVSPost2010PropOp33
 70
     1
102
RTVSPost2010Prop34
280
     0
102
RTVSPost2010PropOp34
 70
     1
102
RTVSPost2010Prop35
280
     0
102
RTVSPost2010PropOp35
 70
     1
102
RTVSPost2010Prop36
280
     0
102
RTVSPost2010PropOp36
 70
     1
102
RTVSPost2010Prop37
 90
       50
102
RTVSPost2010PropOp37
 70
     1
102
RTVSPost2010Prop38
140
0.0
102
RTVSPost2010PropOp38
 70
     1
102
RTVSPost2010Prop39
140
1.0
102
RTVSPost2010PropOp39
 70
     1
102
RTVSPost2010Prop40
 90
        0
102
RTVSPost2010PropOp40
 70
     1
102
RTVSPost2010Prop41ColorIndex
 90
       18
102
RTVSPost2010Prop41ColorRGB
 90
        0
102
RTVSPost2010PropOp41
 70
     1
102
RTVSPost2010Prop42
 90
       50
102
RTVSPost2010PropOp42
 70
     1
102
RTVSPost2010Prop43
 90
        3
102
RTVSPost2010PropOp43
 70
     1
102
RTVSPost2010Prop44ColorIndex
 90
        5
102
RTVSPost2010Prop44ColorRGB
 90
      255
102
RTVSPost2010PropOp44
 70
     1
102
RTVSPost2010Prop45
280
     0
102
RTVSPost2010PropOp45
 70
     1
102
RTVSPost2010Prop46
 90
       50
102
RTVSPost2010PropOp46
 70
     1
102
RTVSPost2010Prop47
 90
       50
102
RTVSPost2010PropOp47
 70
     1
102
RTVSPost2010Prop48
 90
       50
102
RTVSPost2010PropOp48
 70
     1
102
RTVSPost2010Prop49
280
     0
102
RTVSPost2010PropOp49
 70
     1
102
RTVSPost2010Prop50
 90
       50
102
RTVSPost2010PropOp50
 70
     1
102
RTVSPost2010Prop51ColorIndex
 90
      256
102
RTVSPost2010Prop51ColorRGB
 90
-16777216
102
RTVSPost2010PropOp51
 70
     0
102
RTVSPost2010Prop52
140
1.0
102
RTVSPost2010PropOp52
 70
     0
102
RTVSPost2010Prop53
 90
        2
102
RTVSPost2010PropOp53
 70
     1
102
RTVSPost2010Prop54
  1
strokes_ogs.tif
102
RTVSPost2010PropOp54
 70
     1
102
RTVSPost2010Prop55
280
     0
102
RTVSPost2010PropOp55
 70
     1
102
RTVSPost2010Prop56
140
1.0
102
RTVSPost2010PropOp56
 70
     1
102
RTVSPost2010Prop57
140
1.0
102
RTVSPost2010PropOp57
 70
     1
  0
XRECORD
  5
18862
102
{ACAD_REACTORS
330
18861
102
}
330
18861
100
AcDbXrecord
280
     1
102
RTVSPropertyOp0
 70
     0
102
RTVSPropertyOp1
 70
     0
102
RTVSPropertyOp2
 70
     0
102
RTVSPropertyOp3
 70
     0
102
RTVSPropertyOp4
 70
     0
102
RTVSPropertyOp5
 70
     0
102
RTVSPropertyOp6
 70
     0
102
RTVSPropertyOp7
 70
     0
102
RTVSPropertyOp8
 70
     0
102
RTVSPropertyOp9
 70
     0
102
RTVSPropertyOp10
 70
     0
102
RTVSPropertyOp11
 70
     0
102
RTVSPropertyOp12
 70
     0
102
RTVSPropertyOp13
 70
     0
102
RTVSPropertyOp14
 70
     2
102
RTVSPropertyOp15
 70
     0
102
RTVSPropertyOp16
 70
     0
102
RTVSPropertyOp17
 70
     0
102
RTVSPropertyOp18
 70
     0
102
RTVSPropertyOp19
 70
     0
102
RTVSPropertyOp20
 70
     0
102
RTVSPropertyOp21
 70
     0
102
RTVSPropertyOp22
 70
     0
102
RTVSPropertyOp23
 70
     0
102
RTVSPropertyOp24
 70
     0
102
RTVSPropertyOp25
 70
     0
102
RTVSPropertyOp26
 70
     0
102
RTVSPropertyOp27
 70
     0
102
RTVSPropertyOp28
 70
     1
102
RTVSPropertyOp29
 70
     1
102
RTVSPropertyOp30
 70
     1
102
RTVSPropertyOp31
 70
     1
102
RTVSPropertyOp32
 70
     1
102
RTVSPropertyOp33
 70
     1
102
RTVSPropertyOp34
 70
     1
102
RTVSPropertyOp35
 70
     1
102
RTVSPropertyOp36
 70
     1
102
RTVSPropertyOp37
 70
     1
102
RTVSPropertyOp38
 70
     1
102
RTVSPropertyOp39
 70
     1
102
RTVSPropertyOp40
 70
     1
102
RTVSPropertyOp41
 70
     1
102
RTVSPropertyOp42
 70
     1
102
RTVSPropertyOp43
 70
     1
102
RTVSPropertyOp44
 70
     1
102
RTVSPropertyOp45
 70
     1
102
RTVSPropertyOp46
 70
     1
102
RTVSPropertyOp47
 70
     1
102
RTVSPropertyOp48
 70
     1
102
RTVSPropertyOp49
 70
     1
102
RTVSPropertyOp50
 70
     1
102
RTVSPropertyOp51
 70
     0
102
RTVSPropertyOp52
 70
     0
102
RTVSPropertyOp53
 70
     1
102
RTVSPropertyOp54
 70
     1
102
RTVSPropertyOp55
 70
     1
102
RTVSPropertyOp56
 70
     1
102
RTVSPropertyOp57
 70
     1
102
RTVSPost2010Prop28
280
     0
102
RTVSPost2010PropOp28
 70
     1
102
RTVSPost2010Prop29
280
     1
102
RTVSPost2010PropOp29
 70
     1
102
RTVSPost2010Prop30
280
     1
102
RTVSPost2010PropOp30
 70
     1
102
RTVSPost2010Prop31
280
     0
102
RTVSPost2010PropOp31
 70
     1
102
RTVSPost2010Prop32
280
     0
102
RTVSPost2010PropOp32
 70
     1
102
RTVSPost2010Prop33
280
     0
102
RTVSPost2010PropOp33
 70
     1
102
RTVSPost2010Prop34
280
     0
102
RTVSPost2010PropOp34
 70
     1
102
RTVSPost2010Prop35
280
     0
102
RTVSPost2010PropOp35
 70
     1
102
RTVSPost2010Prop36
280
     0
102
RTVSPost2010PropOp36
 70
     1
102
RTVSPost2010Prop37
 90
       50
102
RTVSPost2010PropOp37
 70
     1
102
RTVSPost2010Prop38
140
0.0
102
RTVSPost2010PropOp38
 70
     1
102
RTVSPost2010Prop39
140
1.0
102
RTVSPost2010PropOp39
 70
     1
102
RTVSPost2010Prop40
 90
        0
102
RTVSPost2010PropOp40
 70
     1
102
RTVSPost2010Prop41ColorIndex
 90
       18
102
RTVSPost2010Prop41ColorRGB
 90
        0
102
RTVSPost2010PropOp41
 70
     1
102
RTVSPost2010Prop42
 90
       50
102
RTVSPost2010PropOp42
 70
     1
102
RTVSPost2010Prop43
 90
        3
102
RTVSPost2010PropOp43
 70
     1
102
RTVSPost2010Prop44ColorIndex
 90
        5
102
RTVSPost2010Prop44ColorRGB
 90
      255
102
RTVSPost2010PropOp44
 70
     1
102
RTVSPost2010Prop45
280
     0
102
RTVSPost2010PropOp45
 70
     1
102
RTVSPost2010Prop46
 90
       50
102
RTVSPost2010PropOp46
 70
     1
102
RTVSPost2010Prop47
 90
       50
102
RTVSPost2010PropOp47
 70
     1
102
RTVSPost2010Prop48
 90
       50
102
RTVSPost2010PropOp48
 70
     1
102
RTVSPost2010Prop49
280
     0
102
RTVSPost2010PropOp49
 70
     1
102
RTVSPost2010Prop50
 90
       50
102
RTVSPost2010PropOp50
 70
     1
102
RTVSPost2010Prop51ColorIndex
 90
      256
102
RTVSPost2010Prop51ColorRGB
 90
-16777216
102
RTVSPost2010PropOp51
 70
     0
102
RTVSPost2010Prop52
140
1.0
102
RTVSPost2010PropOp52
 70
     0
102
RTVSPost2010Prop53
 90
        2
102
RTVSPost2010PropOp53
 70
     1
102
RTVSPost2010Prop54
  1
strokes_ogs.tif
102
RTVSPost2010PropOp54
 70
     1
102
RTVSPost2010Prop55
280
     0
102
RTVSPost2010PropOp55
 70
     1
102
RTVSPost2010Prop56
140
1.0
102
RTVSPost2010PropOp56
 70
     1
102
RTVSPost2010Prop57
140
1.0
102
RTVSPost2010PropOp57
 70
     1
  0
XRECORD
  5
18864
102
{ACAD_REACTORS
330
18863
102
}
330
18863
100
AcDbXrecord
280
     1
102
RTVSPropertyOp0
 70
     1
102
RTVSPropertyOp1
 70
     1
102
RTVSPropertyOp2
 70
     1
102
RTVSPropertyOp3
 70
     1
102
RTVSPropertyOp4
 70
     1
102
RTVSPropertyOp5
 70
     1
102
RTVSPropertyOp6
 70
     1
102
RTVSPropertyOp7
 70
     1
102
RTVSPropertyOp8
 70
     1
102
RTVSPropertyOp9
 70
     1
102
RTVSPropertyOp10
 70
     1
102
RTVSPropertyOp11
 70
     1
102
RTVSPropertyOp12
 70
     1
102
RTVSPropertyOp13
 70
     1
102
RTVSPropertyOp14
 70
     1
102
RTVSPropertyOp15
 70
     1
102
RTVSPropertyOp16
 70
     1
102
RTVSPropertyOp17
 70
     1
102
RTVSPropertyOp18
 70
     1
102
RTVSPropertyOp19
 70
     1
102
RTVSPropertyOp20
 70
     1
102
RTVSPropertyOp21
 70
     1
102
RTVSPropertyOp22
 70
     1
102
RTVSPropertyOp23
 70
     1
102
RTVSPropertyOp24
 70
     1
102
RTVSPropertyOp25
 70
     1
102
RTVSPropertyOp26
 70
     1
102
RTVSPropertyOp27
 70
     1
102
RTVSPropertyOp28
 70
     1
102
RTVSPropertyOp29
 70
     1
102
RTVSPropertyOp30
 70
     1
102
RTVSPropertyOp31
 70
     1
102
RTVSPropertyOp32
 70
     1
102
RTVSPropertyOp33
 70
     1
102
RTVSPropertyOp34
 70
     1
102
RTVSPropertyOp35
 70
     1
102
RTVSPropertyOp36
 70
     1
102
RTVSPropertyOp37
 70
     1
102
RTVSPropertyOp38
 70
     1
102
RTVSPropertyOp39
 70
     1
102
RTVSPropertyOp40
 70
     1
102
RTVSPropertyOp41
 70
     1
102
RTVSPropertyOp42
 70
     1
102
RTVSPropertyOp43
 70
     1
102
RTVSPropertyOp44
 70
     1
102
RTVSPropertyOp45
 70
     1
102
RTVSPropertyOp46
 70
     1
102
RTVSPropertyOp47
 70
     1
102
RTVSPropertyOp48
 70
     1
102
RTVSPropertyOp49
 70
     1
102
RTVSPropertyOp50
 70
     1
102
RTVSPropertyOp51
 70
     0
102
RTVSPropertyOp52
 70
     0
102
RTVSPropertyOp53
 70
     1
102
RTVSPropertyOp54
 70
     1
102
RTVSPropertyOp55
 70
     1
102
RTVSPropertyOp56
 70
     1
102
RTVSPropertyOp57
 70
     1
102
RTVSPost2010Prop28
280
     0
102
RTVSPost2010PropOp28
 70
     1
102
RTVSPost2010Prop29
280
     1
102
RTVSPost2010PropOp29
 70
     1
102
RTVSPost2010Prop30
280
     1
102
RTVSPost2010PropOp30
 70
     1
102
RTVSPost2010Prop31
280
     0
102
RTVSPost2010PropOp31
 70
     1
102
RTVSPost2010Prop32
280
     0
102
RTVSPost2010PropOp32
 70
     1
102
RTVSPost2010Prop33
280
     0
102
RTVSPost2010PropOp33
 70
     1
102
RTVSPost2010Prop34
280
     0
102
RTVSPost2010PropOp34
 70
     1
102
RTVSPost2010Prop35
280
     0
102
RTVSPost2010PropOp35
 70
     1
102
RTVSPost2010Prop36
280
     0
102
RTVSPost2010PropOp36
 70
     1
102
RTVSPost2010Prop37
 90
       50
102
RTVSPost2010PropOp37
 70
     1
102
RTVSPost2010Prop38
140
0.0
102
RTVSPost2010PropOp38
 70
     1
102
RTVSPost2010Prop39
140
1.0
102
RTVSPost2010PropOp39
 70
     1
102
RTVSPost2010Prop40
 90
        0
102
RTVSPost2010PropOp40
 70
     1
102
RTVSPost2010Prop41ColorIndex
 90
       18
102
RTVSPost2010Prop41ColorRGB
 90
        0
102
RTVSPost2010PropOp41
 70
     1
102
RTVSPost2010Prop42
 90
       50
102
RTVSPost2010PropOp42
 70
     1
102
RTVSPost2010Prop43
 90
        3
102
RTVSPost2010PropOp43
 70
     1
102
RTVSPost2010Prop44ColorIndex
 90
        5
102
RTVSPost2010Prop44ColorRGB
 90
      255
102
RTVSPost2010PropOp44
 70
     1
102
RTVSPost2010Prop45
280
     0
102
RTVSPost2010PropOp45
 70
     1
102
RTVSPost2010Prop46
 90
       50
102
RTVSPost2010PropOp46
 70
     1
102
RTVSPost2010Prop47
 90
       50
102
RTVSPost2010PropOp47
 70
     1
102
RTVSPost2010Prop48
 90
       50
102
RTVSPost2010PropOp48
 70
     1
102
RTVSPost2010Prop49
280
     0
102
RTVSPost2010PropOp49
 70
     1
102
RTVSPost2010Prop50
 90
       50
102
RTVSPost2010PropOp50
 70
     1
102
RTVSPost2010Prop51ColorIndex
 90
      256
102
RTVSPost2010Prop51ColorRGB
 90
-16777216
102
RTVSPost2010PropOp51
 70
     0
102
RTVSPost2010Prop52
140
1.0
102
RTVSPost2010PropOp52
 70
     0
102
RTVSPost2010Prop53
 90
        2
102
RTVSPost2010PropOp53
 70
     1
102
RTVSPost2010Prop54
  1
strokes_ogs.tif
102
RTVSPost2010PropOp54
 70
     1
102
RTVSPost2010Prop55
280
     0
102
RTVSPost2010PropOp55
 70
     1
102
RTVSPost2010Prop56
140
1.0
102
RTVSPost2010PropOp56
 70
     1
102
RTVSPost2010Prop57
140
1.0
102
RTVSPost2010PropOp57
 70
     1
  0
XRECORD
  5
18866
102
{ACAD_REACTORS
330
18865
102
}
330
18865
100
AcDbXrecord
280
     1
102
RTVSPropertyOp0
 70
     0
102
RTVSPropertyOp1
 70
     0
102
RTVSPropertyOp2
 70
     0
102
RTVSPropertyOp3
 70
     0
102
RTVSPropertyOp4
 70
     0
102
RTVSPropertyOp5
 70
     0
102
RTVSPropertyOp6
 70
     0
102
RTVSPropertyOp7
 70
     0
102
RTVSPropertyOp8
 70
     0
102
RTVSPropertyOp9
 70
     0
102
RTVSPropertyOp10
 70
     0
102
RTVSPropertyOp11
 70
     0
102
RTVSPropertyOp12
 70
     0
102
RTVSPropertyOp13
 70
     0
102
RTVSPropertyOp14
 70
     2
102
RTVSPropertyOp15
 70
     0
102
RTVSPropertyOp16
 70
     0
102
RTVSPropertyOp17
 70
     0
102
RTVSPropertyOp18
 70
     0
102
RTVSPropertyOp19
 70
     0
102
RTVSPropertyOp20
 70
     0
102
RTVSPropertyOp21
 70
     0
102
RTVSPropertyOp22
 70
     0
102
RTVSPropertyOp23
 70
     0
102
RTVSPropertyOp24
 70
     0
102
RTVSPropertyOp25
 70
     0
102
RTVSPropertyOp26
 70
     0
102
RTVSPropertyOp27
 70
     0
102
RTVSPropertyOp28
 70
     1
102
RTVSPropertyOp29
 70
     1
102
RTVSPropertyOp30
 70
     1
102
RTVSPropertyOp31
 70
     1
102
RTVSPropertyOp32
 70
     1
102
RTVSPropertyOp33
 70
     1
102
RTVSPropertyOp34
 70
     1
102
RTVSPropertyOp35
 70
     1
102
RTVSPropertyOp36
 70
     1
102
RTVSPropertyOp37
 70
     1
102
RTVSPropertyOp38
 70
     1
102
RTVSPropertyOp39
 70
     1
102
RTVSPropertyOp40
 70
     1
102
RTVSPropertyOp41
 70
     1
102
RTVSPropertyOp42
 70
     1
102
RTVSPropertyOp43
 70
     1
102
RTVSPropertyOp44
 70
     1
102
RTVSPropertyOp45
 70
     1
102
RTVSPropertyOp46
 70
     1
102
RTVSPropertyOp47
 70
     1
102
RTVSPropertyOp48
 70
     1
102
RTVSPropertyOp49
 70
     1
102
RTVSPropertyOp50
 70
     1
102
RTVSPropertyOp51
 70
     0
102
RTVSPropertyOp52
 70
     0
102
RTVSPropertyOp53
 70
     1
102
RTVSPropertyOp54
 70
     1
102
RTVSPropertyOp55
 70
     1
102
RTVSPropertyOp56
 70
     1
102
RTVSPropertyOp57
 70
     1
102
RTVSPost2010Prop28
280
     0
102
RTVSPost2010PropOp28
 70
     1
102
RTVSPost2010Prop29
280
     1
102
RTVSPost2010PropOp29
 70
     1
102
RTVSPost2010Prop30
280
     1
102
RTVSPost2010PropOp30
 70
     1
102
RTVSPost2010Prop31
280
     0
102
RTVSPost2010PropOp31
 70
     1
102
RTVSPost2010Prop32
280
     0
102
RTVSPost2010PropOp32
 70
     1
102
RTVSPost2010Prop33
280
     0
102
RTVSPost2010PropOp33
 70
     1
102
RTVSPost2010Prop34
280
     0
102
RTVSPost2010PropOp34
 70
     1
102
RTVSPost2010Prop35
280
     0
102
RTVSPost2010PropOp35
 70
     1
102
RTVSPost2010Prop36
280
     0
102
RTVSPost2010PropOp36
 70
     1
102
RTVSPost2010Prop37
 90
       50
102
RTVSPost2010PropOp37
 70
     1
102
RTVSPost2010Prop38
140
0.0
102
RTVSPost2010PropOp38
 70
     1
102
RTVSPost2010Prop39
140
1.0
102
RTVSPost2010PropOp39
 70
     1
102
RTVSPost2010Prop40
 90
        0
102
RTVSPost2010PropOp40
 70
     1
102
RTVSPost2010Prop41ColorIndex
 90
       18
102
RTVSPost2010Prop41ColorRGB
 90
        0
102
RTVSPost2010PropOp41
 70
     1
102
RTVSPost2010Prop42
 90
       50
102
RTVSPost2010PropOp42
 70
     1
102
RTVSPost2010Prop43
 90
        3
102
RTVSPost2010PropOp43
 70
     1
102
RTVSPost2010Prop44ColorIndex
 90
        5
102
RTVSPost2010Prop44ColorRGB
 90
      255
102
RTVSPost2010PropOp44
 70
     1
102
RTVSPost2010Prop45
280
     0
102
RTVSPost2010PropOp45
 70
     1
102
RTVSPost2010Prop46
 90
       50
102
RTVSPost2010PropOp46
 70
     1
102
RTVSPost2010Prop47
 90
       50
102
RTVSPost2010PropOp47
 70
     1
102
RTVSPost2010Prop48
 90
       50
102
RTVSPost2010PropOp48
 70
     1
102
RTVSPost2010Prop49
280
     0
102
RTVSPost2010PropOp49
 70
     1
102
RTVSPost2010Prop50
 90
       50
102
RTVSPost2010PropOp50
 70
     1
102
RTVSPost2010Prop51ColorIndex
 90
      256
102
RTVSPost2010Prop51ColorRGB
 90
-16777216
102
RTVSPost2010PropOp51
 70
     0
102
RTVSPost2010Prop52
140
1.0
102
RTVSPost2010PropOp52
 70
     0
102
RTVSPost2010Prop53
 90
        2
102
RTVSPost2010PropOp53
 70
     1
102
RTVSPost2010Prop54
  1
strokes_ogs.tif
102
RTVSPost2010PropOp54
 70
     1
102
RTVSPost2010Prop55
280
     0
102
RTVSPost2010PropOp55
 70
     1
102
RTVSPost2010Prop56
140
1.0
102
RTVSPost2010PropOp56
 70
     1
102
RTVSPost2010Prop57
140
1.0
102
RTVSPost2010PropOp57
 70
     1
  0
XRECORD
  5
18868
102
{ACAD_REACTORS
330
18867
102
}
330
18867
100
AcDbXrecord
280
     1
102
RTVSPropertyOp0
 70
     1
102
RTVSPropertyOp1
 70
     1
102
RTVSPropertyOp2
 70
     1
102
RTVSPropertyOp3
 70
     1
102
RTVSPropertyOp4
 70
     1
102
RTVSPropertyOp5
 70
     1
102
RTVSPropertyOp6
 70
     1
102
RTVSPropertyOp7
 70
     1
102
RTVSPropertyOp8
 70
     1
102
RTVSPropertyOp9
 70
     1
102
RTVSPropertyOp10
 70
     1
102
RTVSPropertyOp11
 70
     1
102
RTVSPropertyOp12
 70
     1
102
RTVSPropertyOp13
 70
     1
102
RTVSPropertyOp14
 70
     1
102
RTVSPropertyOp15
 70
     1
102
RTVSPropertyOp16
 70
     1
102
RTVSPropertyOp17
 70
     1
102
RTVSPropertyOp18
 70
     1
102
RTVSPropertyOp19
 70
     1
102
RTVSPropertyOp20
 70
     1
102
RTVSPropertyOp21
 70
     1
102
RTVSPropertyOp22
 70
     1
102
RTVSPropertyOp23
 70
     1
102
RTVSPropertyOp24
 70
     1
102
RTVSPropertyOp25
 70
     1
102
RTVSPropertyOp26
 70
     1
102
RTVSPropertyOp27
 70
     1
102
RTVSPropertyOp28
 70
     1
102
RTVSPropertyOp29
 70
     1
102
RTVSPropertyOp30
 70
     1
102
RTVSPropertyOp31
 70
     1
102
RTVSPropertyOp32
 70
     1
102
RTVSPropertyOp33
 70
     1
102
RTVSPropertyOp34
 70
     1
102
RTVSPropertyOp35
 70
     1
102
RTVSPropertyOp36
 70
     1
102
RTVSPropertyOp37
 70
     1
102
RTVSPropertyOp38
 70
     1
102
RTVSPropertyOp39
 70
     1
102
RTVSPropertyOp40
 70
     1
102
RTVSPropertyOp41
 70
     1
102
RTVSPropertyOp42
 70
     1
102
RTVSPropertyOp43
 70
     1
102
RTVSPropertyOp44
 70
     1
102
RTVSPropertyOp45
 70
     1
102
RTVSPropertyOp46
 70
     1
102
RTVSPropertyOp47
 70
     1
102
RTVSPropertyOp48
 70
     1
102
RTVSPropertyOp49
 70
     1
102
RTVSPropertyOp50
 70
     1
102
RTVSPropertyOp51
 70
     0
102
RTVSPropertyOp52
 70
     0
102
RTVSPropertyOp53
 70
     1
102
RTVSPropertyOp54
 70
     1
102
RTVSPropertyOp55
 70
     1
102
RTVSPropertyOp56
 70
     1
102
RTVSPropertyOp57
 70
     1
102
RTVSPost2010Prop28
280
     0
102
RTVSPost2010PropOp28
 70
     1
102
RTVSPost2010Prop29
280
     1
102
RTVSPost2010PropOp29
 70
     1
102
RTVSPost2010Prop30
280
     1
102
RTVSPost2010PropOp30
 70
     1
102
RTVSPost2010Prop31
280
     0
102
RTVSPost2010PropOp31
 70
     1
102
RTVSPost2010Prop32
280
     0
102
RTVSPost2010PropOp32
 70
     1
102
RTVSPost2010Prop33
280
     0
102
RTVSPost2010PropOp33
 70
     1
102
RTVSPost2010Prop34
280
     0
102
RTVSPost2010PropOp34
 70
     1
102
RTVSPost2010Prop35
280
     0
102
RTVSPost2010PropOp35
 70
     1
102
RTVSPost2010Prop36
280
     0
102
RTVSPost2010PropOp36
 70
     1
102
RTVSPost2010Prop37
 90
       50
102
RTVSPost2010PropOp37
 70
     1
102
RTVSPost2010Prop38
140
0.0
102
RTVSPost2010PropOp38
 70
     1
102
RTVSPost2010Prop39
140
1.0
102
RTVSPost2010PropOp39
 70
     1
102
RTVSPost2010Prop40
 90
        0
102
RTVSPost2010PropOp40
 70
     1
102
RTVSPost2010Prop41ColorIndex
 90
       18
102
RTVSPost2010Prop41ColorRGB
 90
        0
102
RTVSPost2010PropOp41
 70
     1
102
RTVSPost2010Prop42
 90
       50
102
RTVSPost2010PropOp42
 70
     1
102
RTVSPost2010Prop43
 90
        3
102
RTVSPost2010PropOp43
 70
     1
102
RTVSPost2010Prop44ColorIndex
 90
        5
102
RTVSPost2010Prop44ColorRGB
 90
      255
102
RTVSPost2010PropOp44
 70
     1
102
RTVSPost2010Prop45
280
     0
102
RTVSPost2010PropOp45
 70
     1
102
RTVSPost2010Prop46
 90
       50
102
RTVSPost2010PropOp46
 70
     1
102
RTVSPost2010Prop47
 90
       50
102
RTVSPost2010PropOp47
 70
     1
102
RTVSPost2010Prop48
 90
       50
102
RTVSPost2010PropOp48
 70
     1
102
RTVSPost2010Prop49
280
     0
102
RTVSPost2010PropOp49
 70
     1
102
RTVSPost2010Prop50
 90
       50
102
RTVSPost2010PropOp50
 70
     1
102
RTVSPost2010Prop51ColorIndex
 90
      256
102
RTVSPost2010Prop51ColorRGB
 90
-16777216
102
RTVSPost2010PropOp51
 70
     0
102
RTVSPost2010Prop52
140
1.0
102
RTVSPost2010PropOp52
 70
     0
102
RTVSPost2010Prop53
 90
        2
102
RTVSPost2010PropOp53
 70
     1
102
RTVSPost2010Prop54
  1
strokes_ogs.tif
102
RTVSPost2010PropOp54
 70
     1
102
RTVSPost2010Prop55
280
     0
102
RTVSPost2010PropOp55
 70
     1
102
RTVSPost2010Prop56
140
1.0
102
RTVSPost2010PropOp56
 70
     1
102
RTVSPost2010Prop57
140
1.0
102
RTVSPost2010PropOp57
 70
     1
  0
XRECORD
  5
1886A
102
{ACAD_REACTORS
330
18869
102
}
330
18869
100
AcDbXrecord
280
     1
102
RTVSPropertyOp0
 70
     1
102
RTVSPropertyOp1
 70
     1
102
RTVSPropertyOp2
 70
     1
102
RTVSPropertyOp3
 70
     1
102
RTVSPropertyOp4
 70
     1
102
RTVSPropertyOp5
 70
     1
102
RTVSPropertyOp6
 70
     1
102
RTVSPropertyOp7
 70
     1
102
RTVSPropertyOp8
 70
     1
102
RTVSPropertyOp9
 70
     1
102
RTVSPropertyOp10
 70
     1
102
RTVSPropertyOp11
 70
     1
102
RTVSPropertyOp12
 70
     1
102
RTVSPropertyOp13
 70
     1
102
RTVSPropertyOp14
 70
     1
102
RTVSPropertyOp15
 70
     1
102
RTVSPropertyOp16
 70
     1
102
RTVSPropertyOp17
 70
     1
102
RTVSPropertyOp18
 70
     1
102
RTVSPropertyOp19
 70
     1
102
RTVSPropertyOp20
 70
     1
102
RTVSPropertyOp21
 70
     1
102
RTVSPropertyOp22
 70
     1
102
RTVSPropertyOp23
 70
     1
102
RTVSPropertyOp24
 70
     1
102
RTVSPropertyOp25
 70
     1
102
RTVSPropertyOp26
 70
     1
102
RTVSPropertyOp27
 70
     1
102
RTVSPropertyOp28
 70
     1
102
RTVSPropertyOp29
 70
     1
102
RTVSPropertyOp30
 70
     1
102
RTVSPropertyOp31
 70
     1
102
RTVSPropertyOp32
 70
     1
102
RTVSPropertyOp33
 70
     1
102
RTVSPropertyOp34
 70
     1
102
RTVSPropertyOp35
 70
     1
102
RTVSPropertyOp36
 70
     1
102
RTVSPropertyOp37
 70
     1
102
RTVSPropertyOp38
 70
     1
102
RTVSPropertyOp39
 70
     1
102
RTVSPropertyOp40
 70
     1
102
RTVSPropertyOp41
 70
     1
102
RTVSPropertyOp42
 70
     1
102
RTVSPropertyOp43
 70
     1
102
RTVSPropertyOp44
 70
     1
102
RTVSPropertyOp45
 70
     1
102
RTVSPropertyOp46
 70
     1
102
RTVSPropertyOp47
 70
     1
102
RTVSPropertyOp48
 70
     1
102
RTVSPropertyOp49
 70
     1
102
RTVSPropertyOp50
 70
     1
102
RTVSPropertyOp51
 70
     0
102
RTVSPropertyOp52
 70
     0
102
RTVSPropertyOp53
 70
     1
102
RTVSPropertyOp54
 70
     1
102
RTVSPropertyOp55
 70
     1
102
RTVSPropertyOp56
 70
     1
102
RTVSPropertyOp57
 70
     1
102
RTVSPost2010Prop28
280
     0
102
RTVSPost2010PropOp28
 70
     1
102
RTVSPost2010Prop29
280
     1
102
RTVSPost2010PropOp29
 70
     1
102
RTVSPost2010Prop30
280
     1
102
RTVSPost2010PropOp30
 70
     1
102
RTVSPost2010Prop31
280
     0
102
RTVSPost2010PropOp31
 70
     1
102
RTVSPost2010Prop32
280
     0
102
RTVSPost2010PropOp32
 70
     1
102
RTVSPost2010Prop33
280
     0
102
RTVSPost2010PropOp33
 70
     1
102
RTVSPost2010Prop34
280
     0
102
RTVSPost2010PropOp34
 70
     1
102
RTVSPost2010Prop35
280
     0
102
RTVSPost2010PropOp35
 70
     1
102
RTVSPost2010Prop36
280
     0
102
RTVSPost2010PropOp36
 70
     1
102
RTVSPost2010Prop37
 90
       50
102
RTVSPost2010PropOp37
 70
     1
102
RTVSPost2010Prop38
140
0.0
102
RTVSPost2010PropOp38
 70
     1
102
RTVSPost2010Prop39
140
1.0
102
RTVSPost2010PropOp39
 70
     1
102
RTVSPost2010Prop40
 90
        0
102
RTVSPost2010PropOp40
 70
     1
102
RTVSPost2010Prop41ColorIndex
 90
       18
102
RTVSPost2010Prop41ColorRGB
 90
        0
102
RTVSPost2010PropOp41
 70
     1
102
RTVSPost2010Prop42
 90
       50
102
RTVSPost2010PropOp42
 70
     1
102
RTVSPost2010Prop43
 90
        3
102
RTVSPost2010PropOp43
 70
     1
102
RTVSPost2010Prop44ColorIndex
 90
        5
102
RTVSPost2010Prop44ColorRGB
 90
      255
102
RTVSPost2010PropOp44
 70
     1
102
RTVSPost2010Prop45
280
     0
102
RTVSPost2010PropOp45
 70
     1
102
RTVSPost2010Prop46
 90
       50
102
RTVSPost2010PropOp46
 70
     1
102
RTVSPost2010Prop47
 90
       50
102
RTVSPost2010PropOp47
 70
     1
102
RTVSPost2010Prop48
 90
       50
102
RTVSPost2010PropOp48
 70
     1
102
RTVSPost2010Prop49
280
     0
102
RTVSPost2010PropOp49
 70
     1
102
RTVSPost2010Prop50
 90
       50
102
RTVSPost2010PropOp50
 70
     1
102
RTVSPost2010Prop51ColorIndex
 90
      256
102
RTVSPost2010Prop51ColorRGB
 90
-16777216
102
RTVSPost2010PropOp51
 70
     0
102
RTVSPost2010Prop52
140
1.0
102
RTVSPost2010PropOp52
 70
     0
102
RTVSPost2010Prop53
 90
        2
102
RTVSPost2010PropOp53
 70
     1
102
RTVSPost2010Prop54
  1
strokes_ogs.tif
102
RTVSPost2010PropOp54
 70
     1
102
RTVSPost2010Prop55
280
     0
102
RTVSPost2010PropOp55
 70
     1
102
RTVSPost2010Prop56
140
1.0
102
RTVSPost2010PropOp56
 70
     1
102
RTVSPost2010Prop57
140
1.0
102
RTVSPost2010PropOp57
 70
     1
  0
XRECORD
  5
1886C
102
{ACAD_REACTORS
330
1886B
102
}
330
1886B
100
AcDbXrecord
280
     1
102
RTVSPropertyOp0
 70
     1
102
RTVSPropertyOp1
 70
     1
102
RTVSPropertyOp2
 70
     1
102
RTVSPropertyOp3
 70
     1
102
RTVSPropertyOp4
 70
     1
102
RTVSPropertyOp5
 70
     1
102
RTVSPropertyOp6
 70
     1
102
RTVSPropertyOp7
 70
     1
102
RTVSPropertyOp8
 70
     1
102
RTVSPropertyOp9
 70
     1
102
RTVSPropertyOp10
 70
     1
102
RTVSPropertyOp11
 70
     1
102
RTVSPropertyOp12
 70
     1
102
RTVSPropertyOp13
 70
     1
102
RTVSPropertyOp14
 70
     1
102
RTVSPropertyOp15
 70
     1
102
RTVSPropertyOp16
 70
     1
102
RTVSPropertyOp17
 70
     1
102
RTVSPropertyOp18
 70
     1
102
RTVSPropertyOp19
 70
     1
102
RTVSPropertyOp20
 70
     1
102
RTVSPropertyOp21
 70
     1
102
RTVSPropertyOp22
 70
     1
102
RTVSPropertyOp23
 70
     1
102
RTVSPropertyOp24
 70
     1
102
RTVSPropertyOp25
 70
     1
102
RTVSPropertyOp26
 70
     1
102
RTVSPropertyOp27
 70
     1
102
RTVSPropertyOp28
 70
     1
102
RTVSPropertyOp29
 70
     1
102
RTVSPropertyOp30
 70
     1
102
RTVSPropertyOp31
 70
     1
102
RTVSPropertyOp32
 70
     1
102
RTVSPropertyOp33
 70
     1
102
RTVSPropertyOp34
 70
     1
102
RTVSPropertyOp35
 70
     1
102
RTVSPropertyOp36
 70
     1
102
RTVSPropertyOp37
 70
     1
102
RTVSPropertyOp38
 70
     1
102
RTVSPropertyOp39
 70
     1
102
RTVSPropertyOp40
 70
     1
102
RTVSPropertyOp41
 70
     1
102
RTVSPropertyOp42
 70
     1
102
RTVSPropertyOp43
 70
     1
102
RTVSPropertyOp44
 70
     1
102
RTVSPropertyOp45
 70
     1
102
RTVSPropertyOp46
 70
     1
102
RTVSPropertyOp47
 70
     1
102
RTVSPropertyOp48
 70
     1
102
RTVSPropertyOp49
 70
     1
102
RTVSPropertyOp50
 70
     1
102
RTVSPropertyOp51
 70
     0
102
RTVSPropertyOp52
 70
     0
102
RTVSPropertyOp53
 70
     1
102
RTVSPropertyOp54
 70
     1
102
RTVSPropertyOp55
 70
     1
102
RTVSPropertyOp56
 70
     1
102
RTVSPropertyOp57
 70
     1
102
RTVSPost2010Prop28
280
     0
102
RTVSPost2010PropOp28
 70
     1
102
RTVSPost2010Prop29
280
     1
102
RTVSPost2010PropOp29
 70
     1
102
RTVSPost2010Prop30
280
     1
102
RTVSPost2010PropOp30
 70
     1
102
RTVSPost2010Prop31
280
     0
102
RTVSPost2010PropOp31
 70
     1
102
RTVSPost2010Prop32
280
     0
102
RTVSPost2010PropOp32
 70
     1
102
RTVSPost2010Prop33
280
     0
102
RTVSPost2010PropOp33
 70
     1
102
RTVSPost2010Prop34
280
     0
102
RTVSPost2010PropOp34
 70
     1
102
RTVSPost2010Prop35
280
     0
102
RTVSPost2010PropOp35
 70
     1
102
RTVSPost2010Prop36
280
     0
102
RTVSPost2010PropOp36
 70
     1
102
RTVSPost2010Prop37
 90
       50
102
RTVSPost2010PropOp37
 70
     1
102
RTVSPost2010Prop38
140
0.0
102
RTVSPost2010PropOp38
 70
     1
102
RTVSPost2010Prop39
140
1.0
102
RTVSPost2010PropOp39
 70
     1
102
RTVSPost2010Prop40
 90
        0
102
RTVSPost2010PropOp40
 70
     1
102
RTVSPost2010Prop41ColorIndex
 90
       18
102
RTVSPost2010Prop41ColorRGB
 90
        0
102
RTVSPost2010PropOp41
 70
     1
102
RTVSPost2010Prop42
 90
       50
102
RTVSPost2010PropOp42
 70
     1
102
RTVSPost2010Prop43
 90
        3
102
RTVSPost2010PropOp43
 70
     1
102
RTVSPost2010Prop44ColorIndex
 90
        5
102
RTVSPost2010Prop44ColorRGB
 90
      255
102
RTVSPost2010PropOp44
 70
     1
102
RTVSPost2010Prop45
280
     0
102
RTVSPost2010PropOp45
 70
     1
102
RTVSPost2010Prop46
 90
       50
102
RTVSPost2010PropOp46
 70
     1
102
RTVSPost2010Prop47
 90
       50
102
RTVSPost2010PropOp47
 70
     1
102
RTVSPost2010Prop48
 90
       50
102
RTVSPost2010PropOp48
 70
     1
102
RTVSPost2010Prop49
280
     0
102
RTVSPost2010PropOp49
 70
     1
102
RTVSPost2010Prop50
 90
       50
102
RTVSPost2010PropOp50
 70
     1
102
RTVSPost2010Prop51ColorIndex
 90
      256
102
RTVSPost2010Prop51ColorRGB
 90
-16777216
102
RTVSPost2010PropOp51
 70
     0
102
RTVSPost2010Prop52
140
1.0
102
RTVSPost2010PropOp52
 70
     0
102
RTVSPost2010Prop53
 90
        2
102
RTVSPost2010PropOp53
 70
     1
102
RTVSPost2010Prop54
  1
strokes_ogs.tif
102
RTVSPost2010PropOp54
 70
     1
102
RTVSPost2010Prop55
280
     0
102
RTVSPost2010PropOp55
 70
     1
102
RTVSPost2010Prop56
140
1.0
102
RTVSPost2010PropOp56
 70
     1
102
RTVSPost2010Prop57
140
1.0
102
RTVSPost2010PropOp57
 70
     1
  0
XRECORD
  5
1886E
102
{ACAD_REACTORS
330
1886D
102
}
330
1886D
100
AcDbXrecord
280
     1
102
RTVSPropertyOp0
 70
     1
102
RTVSPropertyOp1
 70
     1
102
RTVSPropertyOp2
 70
     1
102
RTVSPropertyOp3
 70
     1
102
RTVSPropertyOp4
 70
     1
102
RTVSPropertyOp5
 70
     1
102
RTVSPropertyOp6
 70
     1
102
RTVSPropertyOp7
 70
     1
102
RTVSPropertyOp8
 70
     1
102
RTVSPropertyOp9
 70
     1
102
RTVSPropertyOp10
 70
     1
102
RTVSPropertyOp11
 70
     1
102
RTVSPropertyOp12
 70
     1
102
RTVSPropertyOp13
 70
     1
102
RTVSPropertyOp14
 70
     1
102
RTVSPropertyOp15
 70
     1
102
RTVSPropertyOp16
 70
     1
102
RTVSPropertyOp17
 70
     1
102
RTVSPropertyOp18
 70
     1
102
RTVSPropertyOp19
 70
     1
102
RTVSPropertyOp20
 70
     1
102
RTVSPropertyOp21
 70
     1
102
RTVSPropertyOp22
 70
     1
102
RTVSPropertyOp23
 70
     1
102
RTVSPropertyOp24
 70
     1
102
RTVSPropertyOp25
 70
     1
102
RTVSPropertyOp26
 70
     1
102
RTVSPropertyOp27
 70
     1
102
RTVSPropertyOp28
 70
     1
102
RTVSPropertyOp29
 70
     1
102
RTVSPropertyOp30
 70
     1
102
RTVSPropertyOp31
 70
     1
102
RTVSPropertyOp32
 70
     1
102
RTVSPropertyOp33
 70
     1
102
RTVSPropertyOp34
 70
     1
102
RTVSPropertyOp35
 70
     1
102
RTVSPropertyOp36
 70
     1
102
RTVSPropertyOp37
 70
     1
102
RTVSPropertyOp38
 70
     1
102
RTVSPropertyOp39
 70
     1
102
RTVSPropertyOp40
 70
     1
102
RTVSPropertyOp41
 70
     1
102
RTVSPropertyOp42
 70
     1
102
RTVSPropertyOp43
 70
     1
102
RTVSPropertyOp44
 70
     1
102
RTVSPropertyOp45
 70
     1
102
RTVSPropertyOp46
 70
     1
102
RTVSPropertyOp47
 70
     1
102
RTVSPropertyOp48
 70
     1
102
RTVSPropertyOp49
 70
     1
102
RTVSPropertyOp50
 70
     1
102
RTVSPropertyOp51
 70
     0
102
RTVSPropertyOp52
 70
     0
102
RTVSPropertyOp53
 70
     1
102
RTVSPropertyOp54
 70
     1
102
RTVSPropertyOp55
 70
     1
102
RTVSPropertyOp56
 70
     1
102
RTVSPropertyOp57
 70
     1
102
RTVSPost2010Prop28
280
     0
102
RTVSPost2010PropOp28
 70
     1
102
RTVSPost2010Prop29
280
     1
102
RTVSPost2010PropOp29
 70
     1
102
RTVSPost2010Prop30
280
     1
102
RTVSPost2010PropOp30
 70
     1
102
RTVSPost2010Prop31
280
     0
102
RTVSPost2010PropOp31
 70
     1
102
RTVSPost2010Prop32
280
     0
102
RTVSPost2010PropOp32
 70
     1
102
RTVSPost2010Prop33
280
     0
102
RTVSPost2010PropOp33
 70
     1
102
RTVSPost2010Prop34
280
     0
102
RTVSPost2010PropOp34
 70
     1
102
RTVSPost2010Prop35
280
     0
102
RTVSPost2010PropOp35
 70
     1
102
RTVSPost2010Prop36
280
     0
102
RTVSPost2010PropOp36
 70
     1
102
RTVSPost2010Prop37
 90
       50
102
RTVSPost2010PropOp37
 70
     1
102
RTVSPost2010Prop38
140
0.0
102
RTVSPost2010PropOp38
 70
     1
102
RTVSPost2010Prop39
140
1.0
102
RTVSPost2010PropOp39
 70
     1
102
RTVSPost2010Prop40
 90
        0
102
RTVSPost2010PropOp40
 70
     1
102
RTVSPost2010Prop41ColorIndex
 90
       18
102
RTVSPost2010Prop41ColorRGB
 90
        0
102
RTVSPost2010PropOp41
 70
     1
102
RTVSPost2010Prop42
 90
       50
102
RTVSPost2010PropOp42
 70
     1
102
RTVSPost2010Prop43
 90
        3
102
RTVSPost2010PropOp43
 70
     1
102
RTVSPost2010Prop44ColorIndex
 90
        5
102
RTVSPost2010Prop44ColorRGB
 90
      255
102
RTVSPost2010PropOp44
 70
     1
102
RTVSPost2010Prop45
280
     0
102
RTVSPost2010PropOp45
 70
     1
102
RTVSPost2010Prop46
 90
       50
102
RTVSPost2010PropOp46
 70
     1
102
RTVSPost2010Prop47
 90
       50
102
RTVSPost2010PropOp47
 70
     1
102
RTVSPost2010Prop48
 90
       50
102
RTVSPost2010PropOp48
 70
     1
102
RTVSPost2010Prop49
280
     0
102
RTVSPost2010PropOp49
 70
     1
102
RTVSPost2010Prop50
 90
       50
102
RTVSPost2010PropOp50
 70
     1
102
RTVSPost2010Prop51ColorIndex
 90
      256
102
RTVSPost2010Prop51ColorRGB
 90
-16777216
102
RTVSPost2010PropOp51
 70
     0
102
RTVSPost2010Prop52
140
1.0
102
RTVSPost2010PropOp52
 70
     0
102
RTVSPost2010Prop53
 90
        2
102
RTVSPost2010PropOp53
 70
     1
102
RTVSPost2010Prop54
  1
strokes_ogs.tif
102
RTVSPost2010PropOp54
 70
     1
102
RTVSPost2010Prop55
280
     0
102
RTVSPost2010PropOp55
 70
     1
102
RTVSPost2010Prop56
140
1.0
102
RTVSPost2010PropOp56
 70
     1
102
RTVSPost2010Prop57
140
1.0
102
RTVSPost2010PropOp57
 70
     1
  0
XRECORD
  5
18870
102
{ACAD_REACTORS
330
1886F
102
}
330
1886F
100
AcDbXrecord
280
     1
102
RTVSPropertyOp0
 70
     1
102
RTVSPropertyOp1
 70
     1
102
RTVSPropertyOp2
 70
     1
102
RTVSPropertyOp3
 70
     1
102
RTVSPropertyOp4
 70
     1
102
RTVSPropertyOp5
 70
     1
102
RTVSPropertyOp6
 70
     1
102
RTVSPropertyOp7
 70
     1
102
RTVSPropertyOp8
 70
     1
102
RTVSPropertyOp9
 70
     1
102
RTVSPropertyOp10
 70
     1
102
RTVSPropertyOp11
 70
     1
102
RTVSPropertyOp12
 70
     1
102
RTVSPropertyOp13
 70
     1
102
RTVSPropertyOp14
 70
     1
102
RTVSPropertyOp15
 70
     1
102
RTVSPropertyOp16
 70
     1
102
RTVSPropertyOp17
 70
     1
102
RTVSPropertyOp18
 70
     1
102
RTVSPropertyOp19
 70
     1
102
RTVSPropertyOp20
 70
     1
102
RTVSPropertyOp21
 70
     1
102
RTVSPropertyOp22
 70
     1
102
RTVSPropertyOp23
 70
     1
102
RTVSPropertyOp24
 70
     1
102
RTVSPropertyOp25
 70
     1
102
RTVSPropertyOp26
 70
     1
102
RTVSPropertyOp27
 70
     1
102
RTVSPropertyOp28
 70
     1
102
RTVSPropertyOp29
 70
     1
102
RTVSPropertyOp30
 70
     1
102
RTVSPropertyOp31
 70
     1
102
RTVSPropertyOp32
 70
     1
102
RTVSPropertyOp33
 70
     1
102
RTVSPropertyOp34
 70
     1
102
RTVSPropertyOp35
 70
     1
102
RTVSPropertyOp36
 70
     1
102
RTVSPropertyOp37
 70
     1
102
RTVSPropertyOp38
 70
     1
102
RTVSPropertyOp39
 70
     1
102
RTVSPropertyOp40
 70
     1
102
RTVSPropertyOp41
 70
     1
102
RTVSPropertyOp42
 70
     1
102
RTVSPropertyOp43
 70
     1
102
RTVSPropertyOp44
 70
     1
102
RTVSPropertyOp45
 70
     1
102
RTVSPropertyOp46
 70
     1
102
RTVSPropertyOp47
 70
     1
102
RTVSPropertyOp48
 70
     1
102
RTVSPropertyOp49
 70
     1
102
RTVSPropertyOp50
 70
     1
102
RTVSPropertyOp51
 70
     0
102
RTVSPropertyOp52
 70
     0
102
RTVSPropertyOp53
 70
     1
102
RTVSPropertyOp54
 70
     1
102
RTVSPropertyOp55
 70
     1
102
RTVSPropertyOp56
 70
     1
102
RTVSPropertyOp57
 70
     1
102
RTVSPost2010Prop28
280
     0
102
RTVSPost2010PropOp28
 70
     1
102
RTVSPost2010Prop29
280
     1
102
RTVSPost2010PropOp29
 70
     1
102
RTVSPost2010Prop30
280
     1
102
RTVSPost2010PropOp30
 70
     1
102
RTVSPost2010Prop31
280
     0
102
RTVSPost2010PropOp31
 70
     1
102
RTVSPost2010Prop32
280
     0
102
RTVSPost2010PropOp32
 70
     1
102
RTVSPost2010Prop33
280
     0
102
RTVSPost2010PropOp33
 70
     1
102
RTVSPost2010Prop34
280
     0
102
RTVSPost2010PropOp34
 70
     1
102
RTVSPost2010Prop35
280
     0
102
RTVSPost2010PropOp35
 70
     1
102
RTVSPost2010Prop36
280
     0
102
RTVSPost2010PropOp36
 70
     1
102
RTVSPost2010Prop37
 90
       50
102
RTVSPost2010PropOp37
 70
     1
102
RTVSPost2010Prop38
140
0.0
102
RTVSPost2010PropOp38
 70
     1
102
RTVSPost2010Prop39
140
1.0
102
RTVSPost2010PropOp39
 70
     1
102
RTVSPost2010Prop40
 90
        0
102
RTVSPost2010PropOp40
 70
     1
102
RTVSPost2010Prop41ColorIndex
 90
       18
102
RTVSPost2010Prop41ColorRGB
 90
        0
102
RTVSPost2010PropOp41
 70
     1
102
RTVSPost2010Prop42
 90
       50
102
RTVSPost2010PropOp42
 70
     1
102
RTVSPost2010Prop43
 90
        3
102
RTVSPost2010PropOp43
 70
     1
102
RTVSPost2010Prop44ColorIndex
 90
        5
102
RTVSPost2010Prop44ColorRGB
 90
      255
102
RTVSPost2010PropOp44
 70
     1
102
RTVSPost2010Prop45
280
     0
102
RTVSPost2010PropOp45
 70
     1
102
RTVSPost2010Prop46
 90
       50
102
RTVSPost2010PropOp46
 70
     1
102
RTVSPost2010Prop47
 90
       50
102
RTVSPost2010PropOp47
 70
     1
102
RTVSPost2010Prop48
 90
       50
102
RTVSPost2010PropOp48
 70
     1
102
RTVSPost2010Prop49
280
     0
102
RTVSPost2010PropOp49
 70
     1
102
RTVSPost2010Prop50
 90
       50
102
RTVSPost2010PropOp50
 70
     1
102
RTVSPost2010Prop51ColorIndex
 90
      256
102
RTVSPost2010Prop51ColorRGB
 90
-16777216
102
RTVSPost2010PropOp51
 70
     0
102
RTVSPost2010Prop52
140
1.0
102
RTVSPost2010PropOp52
 70
     0
102
RTVSPost2010Prop53
 90
        2
102
RTVSPost2010PropOp53
 70
     1
102
RTVSPost2010Prop54
  1
strokes_ogs.tif
102
RTVSPost2010PropOp54
 70
     1
102
RTVSPost2010Prop55
280
     0
102
RTVSPost2010PropOp55
 70
     1
102
RTVSPost2010Prop56
140
1.0
102
RTVSPost2010PropOp56
 70
     1
102
RTVSPost2010Prop57
140
1.0
102
RTVSPost2010PropOp57
 70
     1
  0
XRECORD
  5
18872
102
{ACAD_REACTORS
330
18871
102
}
330
18871
100
AcDbXrecord
280
     1
102
RTVSPropertyOp0
 70
     1
102
RTVSPropertyOp1
 70
     1
102
RTVSPropertyOp2
 70
     1
102
RTVSPropertyOp3
 70
     1
102
RTVSPropertyOp4
 70
     1
102
RTVSPropertyOp5
 70
     1
102
RTVSPropertyOp6
 70
     1
102
RTVSPropertyOp7
 70
     1
102
RTVSPropertyOp8
 70
     1
102
RTVSPropertyOp9
 70
     1
102
RTVSPropertyOp10
 70
     1
102
RTVSPropertyOp11
 70
     1
102
RTVSPropertyOp12
 70
     1
102
RTVSPropertyOp13
 70
     1
102
RTVSPropertyOp14
 70
     1
102
RTVSPropertyOp15
 70
     1
102
RTVSPropertyOp16
 70
     1
102
RTVSPropertyOp17
 70
     1
102
RTVSPropertyOp18
 70
     1
102
RTVSPropertyOp19
 70
     1
102
RTVSPropertyOp20
 70
     1
102
RTVSPropertyOp21
 70
     1
102
RTVSPropertyOp22
 70
     1
102
RTVSPropertyOp23
 70
     1
102
RTVSPropertyOp24
 70
     1
102
RTVSPropertyOp25
 70
     1
102
RTVSPropertyOp26
 70
     1
102
RTVSPropertyOp27
 70
     1
102
RTVSPropertyOp28
 70
     1
102
RTVSPropertyOp29
 70
     1
102
RTVSPropertyOp30
 70
     1
102
RTVSPropertyOp31
 70
     1
102
RTVSPropertyOp32
 70
     1
102
RTVSPropertyOp33
 70
     1
102
RTVSPropertyOp34
 70
     1
102
RTVSPropertyOp35
 70
     1
102
RTVSPropertyOp36
 70
     1
102
RTVSPropertyOp37
 70
     1
102
RTVSPropertyOp38
 70
     1
102
RTVSPropertyOp39
 70
     1
102
RTVSPropertyOp40
 70
     1
102
RTVSPropertyOp41
 70
     1
102
RTVSPropertyOp42
 70
     1
102
RTVSPropertyOp43
 70
     1
102
RTVSPropertyOp44
 70
     1
102
RTVSPropertyOp45
 70
     1
102
RTVSPropertyOp46
 70
     1
102
RTVSPropertyOp47
 70
     1
102
RTVSPropertyOp48
 70
     1
102
RTVSPropertyOp49
 70
     1
102
RTVSPropertyOp50
 70
     1
102
RTVSPropertyOp51
 70
     0
102
RTVSPropertyOp52
 70
     0
102
RTVSPropertyOp53
 70
     1
102
RTVSPropertyOp54
 70
     1
102
RTVSPropertyOp55
 70
     1
102
RTVSPropertyOp56
 70
     1
102
RTVSPropertyOp57
 70
     1
102
RTVSPost2010Prop28
280
     0
102
RTVSPost2010PropOp28
 70
     1
102
RTVSPost2010Prop29
280
     1
102
RTVSPost2010PropOp29
 70
     1
102
RTVSPost2010Prop30
280
     1
102
RTVSPost2010PropOp30
 70
     1
102
RTVSPost2010Prop31
280
     0
102
RTVSPost2010PropOp31
 70
     1
102
RTVSPost2010Prop32
280
     0
102
RTVSPost2010PropOp32
 70
     1
102
RTVSPost2010Prop33
280
     0
102
RTVSPost2010PropOp33
 70
     1
102
RTVSPost2010Prop34
280
     0
102
RTVSPost2010PropOp34
 70
     1
102
RTVSPost2010Prop35
280
     0
102
RTVSPost2010PropOp35
 70
     1
102
RTVSPost2010Prop36
280
     0
102
RTVSPost2010PropOp36
 70
     1
102
RTVSPost2010Prop37
 90
       50
102
RTVSPost2010PropOp37
 70
     1
102
RTVSPost2010Prop38
140
0.0
102
RTVSPost2010PropOp38
 70
     1
102
RTVSPost2010Prop39
140
1.0
102
RTVSPost2010PropOp39
 70
     1
102
RTVSPost2010Prop40
 90
        0
102
RTVSPost2010PropOp40
 70
     1
102
RTVSPost2010Prop41ColorIndex
 90
       18
102
RTVSPost2010Prop41ColorRGB
 90
        0
102
RTVSPost2010PropOp41
 70
     1
102
RTVSPost2010Prop42
 90
       50
102
RTVSPost2010PropOp42
 70
     1
102
RTVSPost2010Prop43
 90
        3
102
RTVSPost2010PropOp43
 70
     1
102
RTVSPost2010Prop44ColorIndex
 90
        5
102
RTVSPost2010Prop44ColorRGB
 90
      255
102
RTVSPost2010PropOp44
 70
     1
102
RTVSPost2010Prop45
280
     0
102
RTVSPost2010PropOp45
 70
     1
102
RTVSPost2010Prop46
 90
       50
102
RTVSPost2010PropOp46
 70
     1
102
RTVSPost2010Prop47
 90
       50
102
RTVSPost2010PropOp47
 70
     1
102
RTVSPost2010Prop48
 90
       50
102
RTVSPost2010PropOp48
 70
     1
102
RTVSPost2010Prop49
280
     0
102
RTVSPost2010PropOp49
 70
     1
102
RTVSPost2010Prop50
 90
       50
102
RTVSPost2010PropOp50
 70
     1
102
RTVSPost2010Prop51ColorIndex
 90
      256
102
RTVSPost2010Prop51ColorRGB
 90
-16777216
102
RTVSPost2010PropOp51
 70
     0
102
RTVSPost2010Prop52
140
1.0
102
RTVSPost2010PropOp52
 70
     0
102
RTVSPost2010Prop53
 90
        2
102
RTVSPost2010PropOp53
 70
     1
102
RTVSPost2010Prop54
  1
strokes_ogs.tif
102
RTVSPost2010PropOp54
 70
     1
102
RTVSPost2010Prop55
280
     0
102
RTVSPost2010PropOp55
 70
     1
102
RTVSPost2010Prop56
140
1.0
102
RTVSPost2010PropOp56
 70
     1
102
RTVSPost2010Prop57
140
1.0
102
RTVSPost2010PropOp57
 70
     1
  0
XRECORD
  5
18874
102
{ACAD_REACTORS
330
18873
102
}
330
18873
100
AcDbXrecord
280
     1
102
RTVSPropertyOp0
 70
     1
102
RTVSPropertyOp1
 70
     1
102
RTVSPropertyOp2
 70
     1
102
RTVSPropertyOp3
 70
     1
102
RTVSPropertyOp4
 70
     1
102
RTVSPropertyOp5
 70
     1
102
RTVSPropertyOp6
 70
     1
102
RTVSPropertyOp7
 70
     1
102
RTVSPropertyOp8
 70
     1
102
RTVSPropertyOp9
 70
     1
102
RTVSPropertyOp10
 70
     1
102
RTVSPropertyOp11
 70
     1
102
RTVSPropertyOp12
 70
     1
102
RTVSPropertyOp13
 70
     1
102
RTVSPropertyOp14
 70
     1
102
RTVSPropertyOp15
 70
     1
102
RTVSPropertyOp16
 70
     1
102
RTVSPropertyOp17
 70
     1
102
RTVSPropertyOp18
 70
     1
102
RTVSPropertyOp19
 70
     1
102
RTVSPropertyOp20
 70
     1
102
RTVSPropertyOp21
 70
     1
102
RTVSPropertyOp22
 70
     1
102
RTVSPropertyOp23
 70
     1
102
RTVSPropertyOp24
 70
     1
102
RTVSPropertyOp25
 70
     1
102
RTVSPropertyOp26
 70
     1
102
RTVSPropertyOp27
 70
     1
102
RTVSPropertyOp28
 70
     1
102
RTVSPropertyOp29
 70
     1
102
RTVSPropertyOp30
 70
     1
102
RTVSPropertyOp31
 70
     1
102
RTVSPropertyOp32
 70
     1
102
RTVSPropertyOp33
 70
     1
102
RTVSPropertyOp34
 70
     1
102
RTVSPropertyOp35
 70
     1
102
RTVSPropertyOp36
 70
     1
102
RTVSPropertyOp37
 70
     1
102
RTVSPropertyOp38
 70
     1
102
RTVSPropertyOp39
 70
     1
102
RTVSPropertyOp40
 70
     1
102
RTVSPropertyOp41
 70
     1
102
RTVSPropertyOp42
 70
     1
102
RTVSPropertyOp43
 70
     1
102
RTVSPropertyOp44
 70
     1
102
RTVSPropertyOp45
 70
     1
102
RTVSPropertyOp46
 70
     1
102
RTVSPropertyOp47
 70
     1
102
RTVSPropertyOp48
 70
     1
102
RTVSPropertyOp49
 70
     1
102
RTVSPropertyOp50
 70
     1
102
RTVSPropertyOp51
 70
     0
102
RTVSPropertyOp52
 70
     0
102
RTVSPropertyOp53
 70
     1
102
RTVSPropertyOp54
 70
     1
102
RTVSPropertyOp55
 70
     1
102
RTVSPropertyOp56
 70
     1
102
RTVSPropertyOp57
 70
     1
102
RTVSPost2010Prop28
280
     0
102
RTVSPost2010PropOp28
 70
     1
102
RTVSPost2010Prop29
280
     1
102
RTVSPost2010PropOp29
 70
     1
102
RTVSPost2010Prop30
280
     1
102
RTVSPost2010PropOp30
 70
     1
102
RTVSPost2010Prop31
280
     0
102
RTVSPost2010PropOp31
 70
     1
102
RTVSPost2010Prop32
280
     0
102
RTVSPost2010PropOp32
 70
     1
102
RTVSPost2010Prop33
280
     0
102
RTVSPost2010PropOp33
 70
     1
102
RTVSPost2010Prop34
280
     0
102
RTVSPost2010PropOp34
 70
     1
102
RTVSPost2010Prop35
280
     0
102
RTVSPost2010PropOp35
 70
     1
102
RTVSPost2010Prop36
280
     0
102
RTVSPost2010PropOp36
 70
     1
102
RTVSPost2010Prop37
 90
       50
102
RTVSPost2010PropOp37
 70
     1
102
RTVSPost2010Prop38
140
0.0
102
RTVSPost2010PropOp38
 70
     1
102
RTVSPost2010Prop39
140
1.0
102
RTVSPost2010PropOp39
 70
     1
102
RTVSPost2010Prop40
 90
        0
102
RTVSPost2010PropOp40
 70
     1
102
RTVSPost2010Prop41ColorIndex
 90
       18
102
RTVSPost2010Prop41ColorRGB
 90
        0
102
RTVSPost2010PropOp41
 70
     1
102
RTVSPost2010Prop42
 90
       50
102
RTVSPost2010PropOp42
 70
     1
102
RTVSPost2010Prop43
 90
        3
102
RTVSPost2010PropOp43
 70
     1
102
RTVSPost2010Prop44ColorIndex
 90
        5
102
RTVSPost2010Prop44ColorRGB
 90
      255
102
RTVSPost2010PropOp44
 70
     1
102
RTVSPost2010Prop45
280
     0
102
RTVSPost2010PropOp45
 70
     1
102
RTVSPost2010Prop46
 90
       50
102
RTVSPost2010PropOp46
 70
     1
102
RTVSPost2010Prop47
 90
       50
102
RTVSPost2010PropOp47
 70
     1
102
RTVSPost2010Prop48
 90
       50
102
RTVSPost2010PropOp48
 70
     1
102
RTVSPost2010Prop49
280
     0
102
RTVSPost2010PropOp49
 70
     1
102
RTVSPost2010Prop50
 90
       50
102
RTVSPost2010PropOp50
 70
     1
102
RTVSPost2010Prop51ColorIndex
 90
      256
102
RTVSPost2010Prop51ColorRGB
 90
-16777216
102
RTVSPost2010PropOp51
 70
     0
102
RTVSPost2010Prop52
140
1.0
102
RTVSPost2010PropOp52
 70
     0
102
RTVSPost2010Prop53
 90
        2
102
RTVSPost2010PropOp53
 70
     1
102
RTVSPost2010Prop54
  1
strokes_ogs.tif
102
RTVSPost2010PropOp54
 70
     1
102
RTVSPost2010Prop55
280
     0
102
RTVSPost2010PropOp55
 70
     1
102
RTVSPost2010Prop56
140
1.0
102
RTVSPost2010PropOp56
 70
     1
102
RTVSPost2010Prop57
140
1.0
102
RTVSPost2010PropOp57
 70
     1
  0
XRECORD
  5
18876
102
{ACAD_REACTORS
330
18875
102
}
330
18875
100
AcDbXrecord
280
     1
102
RTVSPropertyOp0
 70
     1
102
RTVSPropertyOp1
 70
     1
102
RTVSPropertyOp2
 70
     1
102
RTVSPropertyOp3
 70
     1
102
RTVSPropertyOp4
 70
     1
102
RTVSPropertyOp5
 70
     1
102
RTVSPropertyOp6
 70
     1
102
RTVSPropertyOp7
 70
     1
102
RTVSPropertyOp8
 70
     1
102
RTVSPropertyOp9
 70
     1
102
RTVSPropertyOp10
 70
     1
102
RTVSPropertyOp11
 70
     1
102
RTVSPropertyOp12
 70
     1
102
RTVSPropertyOp13
 70
     1
102
RTVSPropertyOp14
 70
     1
102
RTVSPropertyOp15
 70
     1
102
RTVSPropertyOp16
 70
     1
102
RTVSPropertyOp17
 70
     1
102
RTVSPropertyOp18
 70
     1
102
RTVSPropertyOp19
 70
     1
102
RTVSPropertyOp20
 70
     1
102
RTVSPropertyOp21
 70
     1
102
RTVSPropertyOp22
 70
     1
102
RTVSPropertyOp23
 70
     1
102
RTVSPropertyOp24
 70
     1
102
RTVSPropertyOp25
 70
     1
102
RTVSPropertyOp26
 70
     1
102
RTVSPropertyOp27
 70
     1
102
RTVSPropertyOp28
 70
     1
102
RTVSPropertyOp29
 70
     1
102
RTVSPropertyOp30
 70
     1
102
RTVSPropertyOp31
 70
     1
102
RTVSPropertyOp32
 70
     1
102
RTVSPropertyOp33
 70
     1
102
RTVSPropertyOp34
 70
     1
102
RTVSPropertyOp35
 70
     1
102
RTVSPropertyOp36
 70
     1
102
RTVSPropertyOp37
 70
     1
102
RTVSPropertyOp38
 70
     1
102
RTVSPropertyOp39
 70
     1
102
RTVSPropertyOp40
 70
     1
102
RTVSPropertyOp41
 70
     1
102
RTVSPropertyOp42
 70
     1
102
RTVSPropertyOp43
 70
     1
102
RTVSPropertyOp44
 70
     1
102
RTVSPropertyOp45
 70
     1
102
RTVSPropertyOp46
 70
     1
102
RTVSPropertyOp47
 70
     1
102
RTVSPropertyOp48
 70
     1
102
RTVSPropertyOp49
 70
     1
102
RTVSPropertyOp50
 70
     1
102
RTVSPropertyOp51
 70
     0
102
RTVSPropertyOp52
 70
     0
102
RTVSPropertyOp53
 70
     1
102
RTVSPropertyOp54
 70
     1
102
RTVSPropertyOp55
 70
     1
102
RTVSPropertyOp56
 70
     1
102
RTVSPropertyOp57
 70
     1
102
RTVSPost2010Prop28
280
     0
102
RTVSPost2010PropOp28
 70
     1
102
RTVSPost2010Prop29
280
     1
102
RTVSPost2010PropOp29
 70
     1
102
RTVSPost2010Prop30
280
     1
102
RTVSPost2010PropOp30
 70
     1
102
RTVSPost2010Prop31
280
     0
102
RTVSPost2010PropOp31
 70
     1
102
RTVSPost2010Prop32
280
     0
102
RTVSPost2010PropOp32
 70
     1
102
RTVSPost2010Prop33
280
     0
102
RTVSPost2010PropOp33
 70
     1
102
RTVSPost2010Prop34
280
     0
102
RTVSPost2010PropOp34
 70
     1
102
RTVSPost2010Prop35
280
     0
102
RTVSPost2010PropOp35
 70
     1
102
RTVSPost2010Prop36
280
     0
102
RTVSPost2010PropOp36
 70
     1
102
RTVSPost2010Prop37
 90
       50
102
RTVSPost2010PropOp37
 70
     1
102
RTVSPost2010Prop38
140
0.0
102
RTVSPost2010PropOp38
 70
     1
102
RTVSPost2010Prop39
140
1.0
102
RTVSPost2010PropOp39
 70
     1
102
RTVSPost2010Prop40
 90
        0
102
RTVSPost2010PropOp40
 70
     1
102
RTVSPost2010Prop41ColorIndex
 90
       18
102
RTVSPost2010Prop41ColorRGB
 90
        0
102
RTVSPost2010PropOp41
 70
     1
102
RTVSPost2010Prop42
 90
       50
102
RTVSPost2010PropOp42
 70
     1
102
RTVSPost2010Prop43
 90
        3
102
RTVSPost2010PropOp43
 70
     1
102
RTVSPost2010Prop44ColorIndex
 90
        5
102
RTVSPost2010Prop44ColorRGB
 90
      255
102
RTVSPost2010PropOp44
 70
     1
102
RTVSPost2010Prop45
280
     0
102
RTVSPost2010PropOp45
 70
     1
102
RTVSPost2010Prop46
 90
       50
102
RTVSPost2010PropOp46
 70
     1
102
RTVSPost2010Prop47
 90
       50
102
RTVSPost2010PropOp47
 70
     1
102
RTVSPost2010Prop48
 90
       50
102
RTVSPost2010PropOp48
 70
     1
102
RTVSPost2010Prop49
280
     0
102
RTVSPost2010PropOp49
 70
     1
102
RTVSPost2010Prop50
 90
       50
102
RTVSPost2010PropOp50
 70
     1
102
RTVSPost2010Prop51ColorIndex
 90
      256
102
RTVSPost2010Prop51ColorRGB
 90
-16777216
102
RTVSPost2010PropOp51
 70
     0
102
RTVSPost2010Prop52
140
1.0
102
RTVSPost2010PropOp52
 70
     0
102
RTVSPost2010Prop53
 90
        2
102
RTVSPost2010PropOp53
 70
     1
102
RTVSPost2010Prop54
  1
strokes_ogs.tif
102
RTVSPost2010PropOp54
 70
     1
102
RTVSPost2010Prop55
280
     0
102
RTVSPost2010PropOp55
 70
     1
102
RTVSPost2010Prop56
140
1.0
102
RTVSPost2010PropOp56
 70
     1
102
RTVSPost2010Prop57
140
1.0
102
RTVSPost2010PropOp57
 70
     1
  0
ENDSEC
  0
EOF
